Oops, an error
Loading. Please wait.

Mk Ultra Tab

by Muse
ver3
ver3
More versions @911Tabs.com
8,891 views 1 this week
4 commentsread comments
1 2 3 4 5
accurate
x 5
Autoscroll
+/-
esc
set tempo
stop
Contributor
Difficulty
Tuning
novice
D A D G B E
Hey! There's an official Ultimate Guitar app which is ideal
for learning songs when you're away from computer. Get the app
WARNING: You are trying to view
                                    content from Ultimate-Guitar.com
                                    in an unauthorized application,
                                    which is prohibited.

                                    Please use an official Ultimate
                                    Guitar Tabs application for iPhone,
                                    iPad or Android to access legitimate
                                    chords, guitar, bass, and drum tabs
                                    from Ultimate-Guitar.com database.

                                    Type "ultimate guitar tabs" in Apple
                                    App Store's or Android Market's
                                    search to find the application.
Muse - MK Ultra
The Resistance (2009)

This was tabbed by ear/sight, as all other tabs had the wrong intro riff.
The making of DVD shows Matt playing at this octave on the top two strings,
so the riff is definitely correct. Not positive about which string the
"heavy" riffs are played on but all has the right notes.
- Gaz_m2k5	(04/10/09)

Key
/ \ s - slide
p - pull off
One tremolo part written on the tab


DADGBe - Drop D tuning


Intro Riff/Chorus

e--13------12--13------12--13------|-------13----------13----------13---|
B•-----10----------10----------10--|---11------10--11------10--11-------|
G----------------------------------|------------------------------------|
D----------------------------------|------------------------------------|
A•---------------------------------|------------------------------------|
D----------------------------------|------------------------------------|



e----------13----------13----------|---15----------15----------15-------|
B--10--13------10--13------10--13--|-------12--13------12--13------12---|
G----------------------------------|------------------------------------|
D----------------------------------|------------------------------------|
A----------------------------------|------------------------------------|
D----------------------------------|------------------------------------|



e----------17----------17----------|---20----------20----------20-------|
B--12s/15------12--15------12--15--|-------15--20------15--20------15s--|
G----------------------------------|------------------------------------|
D----------------------------------|------------------------------------|
A----------------------------------|------------------------------------|
D----------------------------------|------------------------------------|



e------13--17------13--17------13--|---15--13--12------13--12-----------|
B-\13----------13----------13------|---------------14----------14--11--•|
G----------------------------------|------------------------------------|  x2
D----------------------------------|------------------------------------|
A----------------------------------|-----------------------------------•|
D----------------------------------|------------------------------------|



Verse


e----------------------------------|------------------------------------|
B-10--10--10--10--10--10--10--10---|--10--10--10--10--10--10--10--10----|
G----------------------------------|------------------------------------|
D----------------------------------|------------------------------------|
A----------------------------------|------------------------------------|
D----------------------------------|------------------------------------|

   			       The   wave   length   gently    grows



e----------------------------------|------------------------------------|
B-10--10--10--10--10--10--10--10---|--10--10--10--10--10--10--10--10----|
G----------------------------------|------------------------------------|
D----------------------------------|------------------------------------|
A----------------------------------|------------------------------------|
D----------------------------------|------------------------------------|

		Coercive 	      notions    re    evolve



e----------------------------------|------------------------------------|
B-10--10--10--10--10--10--10--10---|--10--11--11--11--11--11--11--11----|
G----------------------------------|------------------------------------|
D----------------------------------|------------------------------------|
A----------------------------------|------------------------------------|
D----------------------------------|------------------------------------|

				A           universe        is        trapped



e----------------------------------|------------------------------------|
B-11--10--10--10--10--10--10--10---|--10---8---8---8---8---8---8---8----|
G----------------------------------|------------------------------------|
D----------------------------------|------------------------------------|
A----------------------------------|------------------------------------|
D----------------------------------|------------------------------------|

                 inside     a        tear            -



e----------------------------------|------------------------------------|
B-10--10--10--10--10--10--10--10---|--10--10--10--10--10--10--10--10----|
G----------------------------------|------------------------------------|
D----------------------------------|------------------------------------|
A----------------------------------|------------------------------------|
D----------------------------------|------------------------------------|

			It            resonates        the       core


e----------------------------------|------------------------------------|
B-10p8-10-10--10--10--10--10--10---|--10--10--10--10--10--10--10--10----|
G----------------------------------|------------------------------------|
D----------------------------------|------------------------------------|
A----------------------------------|------------------------------------|
D----------------------------------|------------------------------------|

			Creates            unnatural             laws



e----------------------------------|------------------------------------|
B-10--10--10--10--10--10--10--10---|--10--11--11--11--11--11--11--11----|
G----------------------------------|------------------------------------|
D----------------------------------|------------------------------------|
A----------------------------------|------------------------------------|
D----------------------------------|------------------------------------|

			Replaces              love       and        happiness


e----------------------------------|------------------------------------|
B-11--10--10--10--10--10--10--10---|--10---8---8---8---8---8---8---8----|
G----------------------------------|------------------------------------|
D----------------------------------|------------------------------------|
A----------------------------------|------------------------------------|
D----------------------------------|------------------------------------|

		   	with         fear            -



Chorus

e--13------12--13------12--13------|-------13----------13----------13---|
B------10----------10----------10--|---11------10--11------10--11-------|
G----------------------------------|------------------------------------|
D----------------------------------|------------------------------------|
A----------------------------------|------------------------------------|
D----------------------------------|------------------------------------|

					Ooooooh


e----------13----------13----------|---15----------15----------15-------|
B--10--13------10--13------10--13--|-------12--13------12--13------12---|
G----------------------------------|------------------------------------|
D----------------------------------|------------------------------------|
A----------------------------------|------------------------------------|
D----------------------------------|------------------------------------|

         -		-			Ah		Ah


e----------17----------17----------|---20----------20----------20-------|
B--12s/15------12--15------12--15--|-------15--20------15--20------15s--|
G----------------------------------|------------------------------------|
D----------------------------------|------------------------------------|
A----------------------------------|------------------------------------|
D----------------------------------|------------------------------------|

	Ah- 		



e------13--17------13--17------13--|---15--13--12------13--12-----------|
B-\13----------13----------13------|---------------14----------14--11---|
G----------------------------------|------------------------------------|
D----------------------------------|------------------------------------|
A----------------------------------|------------------------------------|
D----------------------------------|------------------------------------|



Bridge


e----------------------------------|------------------------------------|
B-10--10--10--10--10--10--10--10---|--10--10--10--10--10--10--10--10----|
G----------------------------------|------------------------------------|
D----------------------------------|------------------------------------|
A----------------------------------|------------------------------------|
D----------------------------------|------------------------------------|

		  How much Deception          can         you      take?


e----------------------------------|------------------------------------|
B-10--10--10--10--10--10--10--10---|--10--10--10--10--10--10--10--10----|
G----------------------------------|------------------------------------|
D----------------------------------|------------------------------------|
A----------------------------------|------------------------------------|
D----------------------------------|------------------------------------|

		  How   many lives          will          you      create?



e----------------------------------|------------------------------------|
B-10--10--10--10--10--10--10--10---|--10--10--10--10--10--10--10--10----|
G----------------------------------|------------------------------------|
D----------------------------------|------------------------------------|
A----------------------------------|------------------------------------|
D----------------------------------|------------------------------------|

		 How   much longer          until         you      break?



e----------------------------------|------------------------------------|
B-10--10--10--10--10--10--10--10---|--10--10--10--10--10--10--10--10----|
G----------------------------------|------------------------------------|
D----------------------------------|------------------------------------|
A----------------------------------|------------------------------------|
D----------------------------------|------------------------------------|

		 	       Your     mind's      about          to



e----------------------------------|------------------------------------|
B-10--11--11--11--11--11--11--11---|--11--10--10--10--10--10--10--10----|
G----------------------------------|------------------------------------|
D----------------------------------|------------------------------------|
A----------------------------------|------------------------------------|
D----------------------------------|------------------------------------|
	
      fall           -                            -



e----------------------------------|------------------------------------|
B-10--10--10--10--10--10--10--10---|--10--10--10--10--10--10--10--10----|
G----------------------------------|------------------------------------|
D----------------------------------|------------------------------------|
A----------------------------------|------------------------------------|
D----------------------------------|------------------------------------|

           -           -		        and   they're   breaking


2nd Bridge


e----------------------------------|------------------------------------|
B•---------------------------------|------------------------------------|
G----------------------------------|------------------------------------|
D----------------------------------|------------------------------------|
A•---------------------------------|------------------------------------|
D--12-12-----12-------12\----------|---12-12-----12-------11\-----------|

   through          -					    and they're breaking
   through          -			-			they're breaking


e----------------------------------|------------------------------------|
B----------------------------------|------------------------------------|
G----------------------------------|------------------------------------|
D----------------------------------|------------------------------------|
A----------------------------------|------------------------------------|
D--10-10-----10-------10\----------|----9--9------9--------9\-----------|

	through      -					    and they're breaking
	through      -						they're breaking


e----------------------------------|------------------------------------|
B----------------------------------|------------------------------------|
G----------------------------------|------------------------------------|
D----------------------------------|------------------------------------|
A----------------------------------|------------------------------------|
D---8--8------8--------8\----------|----7--7------7--------7\-----------|

    through
    through           -			Now    we're     falling

				    _____________________________________
				   | 1


e----------------------------------|------------------------------------|
B----------------------------------|-----------------------------------•|
G----------------------------------|------------------------------------|   x2
D----------------------------------|------------------------------------|
A----------------------------------|-----------------------------------•|
D---7--7------7--------7\----------|----7--7------7--------7\-----------|

   We       are        losing     control            -    and they're breaking
   We       are        losing

				    _____________________________________
				   | 2

				   e------------------------------------|
				   B------------------------------------|
				   G------------------------------------|
				   D------------------------------------|
				   A------------------------------------|
				   D---7--7------7--------7\----0/12\0--|

  				     control      -




e----------------------------------|------------------------------------|
B----------------------------------|-----------------------------------•|
G----------------------------------|------------------------------------|   x2
D----------------------------------|------------------------------------|
A-------------------------5\------ |-------------------------5\--------•|
D----0--0--3--0--5--7--0-----------|----0--0--3--0--5--7--0-------------|




Verse


e------------------------------------|------------------------------------|
B-10--10--10--10--10--10--10--10-----|--10--10--10--10--10--10--10--10----|
G------------------------------------|------------------------------------|
D------------------------------------|------------------------------------|
A------------------------------------|------------------------------------|
D------------------------------------|------------------------------------|


e------------------------------------|------------------------------------|
B-10--10--10--10--10--10--10--10-----|--10--10--10--10--10--10--10--10----|
G------------------------------------|------------------------------------|
D------------------------------------|------------------------------------|
A------------------------------------|------------------------------------|
D------------------------------------|------------------------------------|


e------------------------------------|------------------------------------|
B-10--10--10--10--10--10--10--10-----|--10--11--11--11--11--11--11--11----|
G------------------------------------|------------------------------------|
D------------------------------------|------------------------------------|
A------------------------------------|------------------------------------|
D------------------------------------|------------------------------------|


e------------------------------------|------------------------------------|
B-11--10--10--10--10--10--10--10-----|--10---8---8---8---8---8---8---8----|
G------------------------------------|------------------------------------|
D------------------------------------|------------------------------------|
A------------------------------------|------------------------------------|
D------------------------------------|------------------------------------|


e------------------------------------|------------------------------------|
B-10p8-10p8-10p8-10--10--10--10--10--|--10--10--10--10--10--10--10--10----|
G------------------------------------|------------------------------------|
D------------------------------------|------------------------------------|
A------------------------------------|------------------------------------|
D------------------------------------|------------------------------------|

			Invisible	           to 		      all


e------------------------------------|------------------------------------|
B-10--10--10--10--10--10--10--10-----|--10--10--10--10--10--10--10--10----|
G------------------------------------|------------------------------------|
D------------------------------------|------------------------------------|
A------------------------------------|------------------------------------|
D------------------------------------|------------------------------------|

			the              mind    becomes      a     wall



e------------------------------------|------------------------------------|
B-10p8-10p8-10--10--10--10--10--10---|--10--11--11--11--11--11--11--11----|
G------------------------------------|------------------------------------|
D------------------------------------|------------------------------------|
A------------------------------------|------------------------------------|
D------------------------------------|------------------------------------|

			All   of            history            deleted


e------------------------------------|------------------------------------|
B-11--10--10--10--10--10--10--10-----|--10---8---8---8---8---8---8---8----|
G------------------------------------|------------------------------------|
D------------------------------------|------------------------------------|
A------------------------------------|------------------------------------|
D------------------------------------|------------------------------------|

   with 	     one                stroke		-





Chorus

e--13------12--13------12--13------|-------13----------13----------13---|
B------10----------10----------10--|---11------10--11------10--11-------|
G----------------------------------|------------------------------------|
D----------------------------------|------------------------------------|
A----------------------------------|------------------------------------|
D----------------------------------|------------------------------------|

					Ooooooh


e----------13----------13----------|---15----------15----------15-------|
B--10--13------10--13------10--13--|-------12--13------12--13------12---|
G----------------------------------|------------------------------------|
D----------------------------------|------------------------------------|
A----------------------------------|------------------------------------|
D----------------------------------|------------------------------------|

         -		-			Ah		Ah


e----------17----------17----------|---20----------20----------20-------|
B--12s/15------12--15------12--15--|-------15--20------15--20------15s--|
G----------------------------------|------------------------------------|
D----------------------------------|------------------------------------|
A----------------------------------|------------------------------------|
D----------------------------------|------------------------------------|

	Ah- 		



e------13--17------13--17------13--|---15--13--12------13--12-----------|
B-\13----------13----------13------|---------------14----------14--11---|
G----------------------------------|------------------------------------|
D----------------------------------|------------------------------------|
A----------------------------------|------------------------------------|
D----------------------------------|------------------------------------|



Bridge


e----------------------------------|------------------------------------|
B-10--10--10--10--10--10--10--10---|--10--10--10--10--10--10--10--10----|
G----------------------------------|------------------------------------|
D----------------------------------|------------------------------------|
A----------------------------------|------------------------------------|
D----------------------------------|------------------------------------|

		  How much Deception          can         you      take?


e----------------------------------|------------------------------------|
B-10--10--10--10--10--10--10--10---|--10--10--10--10--10--10--10--10----|
G----------------------------------|------------------------------------|
D----------------------------------|------------------------------------|
A----------------------------------|------------------------------------|
D----------------------------------|------------------------------------|

		  How   many lives          will          you      create?



e----------------------------------|------------------------------------|
B-10--10--10--10--10--10--10--10---|--10--10--10--10--10--10--10--10----|
G----------------------------------|------------------------------------|
D----------------------------------|------------------------------------|
A----------------------------------|------------------------------------|
D----------------------------------|------------------------------------|

		 Hpw   much longer          until         you      break?



e----------------------------------|------------------------------------|
B-10--10--10--10--10--10--10--10---|--10--10--10--10--10--10--10--10----|
G----------------------------------|------------------------------------|
D----------------------------------|------------------------------------|
A----------------------------------|------------------------------------|
D----------------------------------|------------------------------------|

		 	       Your     mind's      about          to



e----------------------------------|------------------------------------|
B-10--11--11--11--11--11--11--11---|--11--10--10--10--10--10--10--10----|
G----------------------------------|------------------------------------|
D----------------------------------|------------------------------------|
A----------------------------------|------------------------------------|
D----------------------------------|------------------------------------|
	
      fall           -                            -



e----------------------------------|------------------------------------|
B-10--10--10--10--10--10--10--10---|--10--10--10--10--10--10--10--10----|
G----------------------------------|------------------------------------|
D----------------------------------|------------------------------------|
A----------------------------------|------------------------------------|
D----------------------------------|------------------------------------|

           -           -		        and   they're   breaking



Outro


e--5---5---5---5---5---5---5---5---|--5---5---5---5---5---5---5---5-----|
B--6---6---6---6---6---6---6---6---|--6---6---6---6---6---6---6---6-----|
G--7---7---7---7---7---7---7---7---|--7---7---7---7---7---7---7---7-----|
D--7---7---7---7---7---7---7---7---|--7---7---7---7---7---7---7---7-----|
A--5---5---5---5---5---5---5---5---|--5---5---5---5---5---5---5---5-----|
D----------------------------------|------------------------------------|

    through         -


e--5---5---5---5---5---5---5---5---|--5---5---5---5---5---5---5---5-----|
B--5---5---5---5---5---5---5---5---|--5---5---5---5---5---5---5---5-----|
G--6---6---6---6---6---6---6---6---|--6---6---6---6---6---6---6---6-----|
D--7---7---7---7---7---7---7---7---|--7---7---7---7---7---7---7---7-----|
A--7---7---7---7---7---7---7---7---|--7---7---7---7---7---7---7---7-----|
D----------------------------------|------------------------------------|

							They're breaking


e--3---3---3---3---3---3---3---3---|--3---3---3---3---3---3---3---3-----|
B--4---4---4---4---4---4---4---4---|--4---4---4---4---4---4---4---4-----|
G--5---5---5---5---5---5---5---5---|--5---5---5---5---5---5---5---5-----|
D--5---5---5---5---5---5---5---5---|--5---5---5---5---5---5---5---5-----|
A--3---3---3---3---3---3---3---3---|--3---3---3---3---3---3---3---3-----|
D----------------------------------|------------------------------------|

     through 	-



e--3---3---3---3---3---3---3---3---|--3---3---3---3---3---3---3---3-----|
B--3---3---3---3---3---3---3---3---|--3---3---3---3---3---3---3---3-----|
G--4---4---4---4---4---4---4---4---|--4---4---4---4---4---4---4---4-----|
D--5---5---5---5---5---5---5---5---|--5---5---5---5---5---5---5---5-----|
A--5---5---5---5---5---5---5---5---|--5---5---5---5---5---5---5---5-----|
D----------------------------------|------------------------------------|

							They're breaking


e--3---3---3---3---3---3---3---3---|--3---3---3---3---3---3---3---3-----|
B--3---3---3---3---3---3---3---3---|--3---3---3---3---3---3---3---3-----|
G--3---3---3---3---3---3---3---3---|--3---3---3---3---3---3---3---3-----|
D--5---5---5---5---5---5---5---5---|--5---5---5---5---5---5---5---5-----|
A--5---5---5---5---5---5---5---5---|--5---5---5---5---5---5---5---5-----|
D----------------------------------|------------------------------------|

    through    -


e-----3------------2---------------|---1-------------0------------------|
B--------3-----3------3-----3------|------3------3------3------3--------|
G-----------2------------2---------|---------2-------------2------------|
D----------------------------------|------------------------------------|
A----------------------------------|------------------------------------|
D----------------------------------|------------------------------------|

     Now           we're               fall     -   ing


e-----1------------1---------------|---1------------1-------------------|
B--------3------3-----3-----3------|------3-----3------3-------3--------|
G-----------2------------2---------|---------2-------------2------------|
D----------------------------------|------------------------------------|
A----------------------------------|------------------------------------|
D----------------------------------|------------------------------------|

    We           are                   lo          -sing        


e-----0------------0---------------|------------------------------------|
B--------2------2-----2-----2------|------------------------------------|
G-----------2------------2---------|------------------------------------|
D----------------------------------|------------------------------------|
A----------------------------------|---tremolo--------------------------|
D----------------------------------|--22s\0-----------------------------|

      control



e----------------------------------|------------------------------------|
B----------------------------------|------------------------------------|
G----------------------------------|------------------------------------|
D----------------------------------|------------------------------------|
A-------------------------5\-------|-------------------------5\---------|
D----0--0--3--0--5--7--0-----------|----0--0--3--0--5--7--0-------------|


e----------------------------------|------------------------------------|
B----------------------------------|------------------------------------|
G----------------------------------|------------------------------------|
D----------------------------------|------------------------------------|
A-------------------------5\-------|-------------------------5\---------|
D----0--0--3--0--5--7--0-----------|----0--0--3--0--5--7--0-------------|


e----------------------------------|------------------------------------|
B----------------------------------|------------------------------------|
G----------------------------------|------------------------------------|
D----------------------------------|------------------------------------|
A-------------------------7\-------|-------------------------8\---------|
D----0--0--3--0--5--7--0-----------|-------0--3--0--5--7--0-------------|


e----------------------------------|------------------------------------|
B----------------------------------|------------------------------------|
G----------------------------------|------------------------------------|
D-------------------------5\-------|--------------------------7\--------|
A----------------------------------|------------------------------------|
D-------0--3--0--5--7--0-----------|-------0--3--0--5--7--0-------------|


e----------------------------------|------------------------------------|
B----------------------------------|------------------------------------|
G----------------------------------|------------------------------------|
D-------------------------8\-------|--------------------------9\--------|
A----------------------------------|------------------------------------|
D-------0--3--0--5--7--0-----------|-------0--3--0--5--7--0-------------|


e----------------------------------|------------------------------------|
B----------------------------------|------------------------------------|
G----------------------------------|------------------------------------|
D-------------------------10\------|-------------------------12\--------|
A----------------------------------|------------------------------------|
D-------0--3--0--5--7--0-----------|-------0--3--0--5--7--0-------------|


e----------------------------------|------------------------------------|
B----------------------------------|------------------------------------|
G----------------------------------|------------------------------------|
D-------------------------12\------|-------------------------12\--------|
A----------------------------------|------------------------------------|
D-------0--3--0--5--7--0-----------|-------0--3--0--5--7--0-------------|


e----------------------------------|------------------------------------|
B----------------------------------|------------------------------------|
G----------------------------------|------------------------------------|
D-------------------------12\------|-------------------------12---\0----|
A----------------------------------|------------------------------------|
D-------0--3--0--5--7--0-----------|-------0--3--0--5--7--0-------------|



comments
print report bad tab
4 comments total. Showing first comments.
0 reply
protest000 wrote on October 8 2009, 08:44 pm

Great tab mate. Now would you mind tabbing out the guitar fills in United States of Eurasia? :P

0 reply
hernandeznathan wrote on January 14 2010, 04:08 pm

This is the best tab out thee. Thank you for doing this!!

0 reply
Johayn wrote on June 10 2010, 07:29 am

You should get your guitar tuned.
It really never hits the 20th fret on the high E string.
It's way too high, bro.

I want to post or [tab]
guest
You may want to rate the tab now too:
select rating
Please do not post tabs as comments. Select "correction" instead!