Oops, an error
Loading. Please wait.

Mk Ultra Tab

by Muse
ver4
ver4
More versions @911Tabs.com
6,588 views 3 this week
6 commentsread comments
1 2 3 4 5
accurate
x 7
Autoscroll
+/-
esc
set tempo
stop
Contributor
Tuning
D A D G B E
Hey! There's an official Ultimate Guitar app which is ideal
for learning songs when you're away from computer. Get the app
WARNING: You are trying to view
                                    content from Ultimate-Guitar.com
                                    in an unauthorized application,
                                    which is prohibited.

                                    Please use an official Ultimate
                                    Guitar Tabs application for iPhone,
                                    iPad or Android to access legitimate
                                    chords, guitar, bass, and drum tabs
                                    from Ultimate-Guitar.com database.

                                    Type "ultimate guitar tabs" in Apple
                                    App Store's or Android Market's
                                    search to find the application.
Title: MK Ultra
Artist: Muse
Album: The Resistance

Tabbed by Hazel (lezahtherock). Email: latetoo00@hotmail.com

Tuning: Drop D

NOTE: I've seen the other tabs out there. Usually the differences lie in the 
chorus and bridge, but the verses are mostly alright (and pretty straightforward 
really). I've finally given it a really good listen and I'm fairly certain that 
this is how it's played. Give it a try and leave any comments/queries or email 
me if you have anything to say.


INTRO RIFF: x2

e|-13----12-13----12-13-------13-------13-------13-------13-------13-------|
B|----10-------10-------10-11----10-11----10-11----10-13----10-13----10-13-|
G|-------------------------------------------------------------------------|
D|-------------------------------------------------------------------------| 
A|-------------------------------------------------------------------------|  
D|-------------------------------------------------------------------------|   
                                                                                
e|-15-------15-------15----------17-------17-------18-------18-------18----|    
B|----12-13----12-13----12-13/15----13-15----13-15----15-18----15-18----15-|
G|-------------------------------------------------------------------------|
D|-------------------------------------------------------------------------|
A|-------------------------------------------------------------------------|
D|-------------------------------------------------------------------------|
                                                                            
e|----13-17----13-17----13-15-13-12----13-12-------|                        
B|-13-------13-------13-------------14-------14-11-|                         
G|-------------------------------------------------|                           
D|-------------------------------------------------|                          
A|-------------------------------------------------|                           
D|-------------------------------------------------|                           
                                                                             
VERSE 1: x2
                         x5
e|-------------------------|                                                 
B|-10-10-10-10-10-10-10-10-|                                                   
G|-------------------------|                                                   
D|-------------------------|                                                   
A|-------------------------|                                                   
D|-------------------------|                                                   
                                                                              
e|-------------------------|-------------------------|------------------|     
B|-10b11-11-11-11-11-11-11-|-11r10-10-10-10-10-10-10-|-10-8-8-8-8-8-8-8-|      
G|-------------------------|-------------------------|------------------|      
D|-------------------------|-------------------------|------------------|    
A|-------------------------|-------------------------|------------------|      
D|-------------------------|-------------------------|------------------|      
                                                                             


PRE-CHORUS (same riff as intro):

e|-13----12-13----12-13-------13-------13-------13-------13-------13-------|
B|----10-------10-------10-11----10-11----10-11----10-13----10-13----10-13-|
G|-------------------------------------------------------------------------|
D|-------------------------------------------------------------------------|
A|-------------------------------------------------------------------------|
D|-------------------------------------------------------------------------|

e|-------15-------15-------------17-------17-------18-------18-------18----|
B|-12-13----12-13----12-13-13/15----13-15----13-15----15-18----15-18----15-|
G|-------------------------------------------------------------------------|
D|-------------------------------------------------------------------------|
A|-------------------------------------------------------------------------|
D|-------------------------------------------------------------------------|

e|----13-17----13-17----13-15-13-12----13-12-------| 
B|-13-------13-------13-------------14-------14-11-|
G|-------------------------------------------------|
D|-------------------------------------------------| 
A|-------------------------------------------------|
D|-------------------------------------------------|

CHORUS

guitar 1
                 x2                      x2                x2                x2
e|-----------------|-----------------------|-----------------|-----------------|
B|-6-6-6-6-6-6-x-x-|-8--8--8--8--8--8--x-x-|-5-5-5-5-5-5-x-x-|-6-6-6-6-6-6-x-x-|
G|-7-7-7-7-7-7-x-x-|-9--9--9--9--9--9--x-x-|-6-6-6-6-6-6-x-x-|-7-7-7-7-7-7-x-x-|
D|-8-8-8-8-8-8-x-x-|-10-10-10-10-10-10-x-x-|-7-7-7-7-7-7-x-x-|-7-7-7-7-7-7-x-x-|
A|-8-8-8-8-8-8-x-x-|-10-10-10-10-10-10-x-x-|-7-7-7-7-7-7-x-x-|-5-5-5-5-5-5-x-x-|
D|-----------------|-----------------------|-----------------|-----------------|

e|------------------------------------------|----------------------------------|
B|-8--8--8--8--8------8-----------8---------|---------10-----------10------10~-|
G|-9--9--9--9----9------9----9------9-------|----9-------9----9-------9--------|
D|-10-10-10-10-----10-----10---10-----10-10-|-11---11------11---11------11-----|
A|-10-10-10-10------------------------------|----------------------------------|
D|------------------------------------------|----------------------------------|

guitar 2
                         x8
e|-------------------------|-------------------------|-------------------------|
B|-10-10-10-10-10-10-10-10-|-10b11-11-11-11-11-11-11-|-11r10-10-10-10-10-10-10-|
G|-------------------------|-------------------------|-------------------------|
D|-------------------------|-------------------------|-------------------------|
A|-------------------------|-------------------------|-------------------------|
D|-------------------------|-------------------------|-------------------------|

                         x2
e|-------------------------|
B|-10-10-10-10-10-10-10-10-|
G|-------------------------|
D|-------------------------|
A|-------------------------|
D|-------------------------|

POST-CHORUS:
                                                                                       x3
e|-------------------------------------------------------------------------|-------------|
B|-------------------------------------------------------------------------|-------------|
G|-------------------------------------------------------------------------|-------------|
D|-------------------------------------------------------------------------|-------------|
A|-------------------------------------------------------------------------|-------------|
D|-12-12---12-12~\-12-12---12-11~\-10-10---10-10~\-9-9---9-9~\-8-8---8-8~\-|-7-7---7-7~\-|
PM .  .    .       .  .    .       .  .    .       . .   .     . .   .       . .   .
                                                                                       x3
e|-------------------------------------------------------------------------|-------------|play |
B|-------------------------------------------------------------------------|-------------|slide|
G|-------------------------------------------------------------------------|-------------|after|
D|-------------------------------------------------------------------------|-------------|third|
A|-------------------------------------------------------------------------|-------------|time |
D|-12-12---12-12~\-12-12---12-11~\-10-10---10-10~\-9-9---9-9~\-8-8---8-8~\-|-7-7---7-7~\-|-/-\-|
PM .  .    .       .  .    .       .  .    .       . .   .     . .   .       . .   .
                                                                         
e|------------------------------------------------------------|
B|------------------------------------------------------------|
G|------------------------------------------------------------|
D|------------------------------------------------------------|
A|---------------5\-------------5\-------------5\-------------| go straight into verse
D|-0-0-3-0-5h7-0----0-3-0-5h7-0----0-3-0-5h7-0----0-3-0-5h7-0-|

VERSE 2:
                         x5
e|-------------------------|                                                 
B|-10-10-10-10-10-10-10-10-|                                                   
G|-------------------------|                                                   
D|-------------------------|                                                   
A|-------------------------|                                                   
D|-------------------------|                                                   
                                                                              
e|-------------------------|-------------------------|------------------|     
B|-10b11-11-11-11-11-11-11-|-11r10-10-10-10-10-10-10-|-10-8-8-8-8-8-8-8-|      
G|-------------------------|-------------------------|------------------|      
D|-------------------------|-------------------------|------------------|    
A|-------------------------|-------------------------|------------------|      
D|-------------------------|-------------------------|------------------|      

                                                       x3
e|-----------------------------|-------------------------|-----------------------------|
B|-10p8h10p8h10-10-10-10-10-10-|-10-10-10-10-10-10-10-10-|-10p8h10p8h10-10-10-10-10-10-|
G|-----------------------------|-------------------------|-----------------------------|
D|-----------------------------|-------------------------|-----------------------------|
A|-----------------------------|-------------------------|-----------------------------|
D|-----------------------------|-------------------------|-----------------------------|

e|-------------------------|-------------------------|------------------|     
B|-10b11-11-11-11-11-11-11-|-11r10-10-10-10-10-10-10-|-10-8-8-8-8-8-8-8-|      
G|-------------------------|-------------------------|------------------|      
D|-------------------------|-------------------------|------------------|    
A|-------------------------|-------------------------|------------------|      
D|-------------------------|-------------------------|------------------|    

PRE-CHORUS (same riff as intro):

e|-13----12-13----12-13-------13-------13-------13-------13-------13-------|
B|----10-------10-------10-11----10-11----10-11----10-13----10-13----10-13-|
G|-------------------------------------------------------------------------|
D|-------------------------------------------------------------------------|
A|-------------------------------------------------------------------------|
D|-------------------------------------------------------------------------|

e|-------15-------15-------------17-------17-------18-------18-------18----|
B|-12-13----12-13----12-13-13/15----13-15----13-15----15-18----15-18----15-|
G|-------------------------------------------------------------------------|
D|-------------------------------------------------------------------------|
A|-------------------------------------------------------------------------|
D|-------------------------------------------------------------------------|

e|----13-17----13-17----13-15-13-12----13-12-------| 
B|-13-------13-------13-------------14-------14-11-|
G|-------------------------------------------------|
D|-------------------------------------------------| 
A|-------------------------------------------------|
D|-------------------------------------------------|

CHORUS:

guitar 1
                 x2                      x2                x2                x2
e|-----------------|-----------------------|-----------------|-----------------|
B|-6-6-6-6-6-6-x-x-|-8--8--8--8--8--8--x-x-|-5-5-5-5-5-5-x-x-|-6-6-6-6-6-6-x-x-|
G|-7-7-7-7-7-7-x-x-|-9--9--9--9--9--9--x-x-|-6-6-6-6-6-6-x-x-|-7-7-7-7-7-7-x-x-|
D|-8-8-8-8-8-8-x-x-|-10-10-10-10-10-10-x-x-|-7-7-7-7-7-7-x-x-|-7-7-7-7-7-7-x-x-|
A|-8-8-8-8-8-8-x-x-|-10-10-10-10-10-10-x-x-|-7-7-7-7-7-7-x-x-|-5-5-5-5-5-5-x-x-|
D|-----------------|-----------------------|-----------------|-----------------|

e|------------------------------------------|----------------------------------|
B|-8--8--8--8--8------8-----------8---------|---------10-----------10------10~-|
G|-9--9--9--9----9------9----9------9-------|----9-------9----9-------9--------|
D|-10-10-10-10-----10-----10---10-----10-10-|-11---11------11---11------11-----|
A|-10-10-10-10------------------------------|----------------------------------|
D|------------------------------------------|----------------------------------|

guitar 2
                         x8
e|-------------------------|-------------------------|-------------------------|
B|-10-10-10-10-10-10-10-10-|-10b11-11-11-11-11-11-11-|-11r10-10-10-10-10-10-10-|
G|-------------------------|-------------------------|-------------------------|
D|-------------------------|-------------------------|-------------------------|
A|-------------------------|-------------------------|-------------------------|
D|-------------------------|-------------------------|-------------------------|

                         x2
e|-------------------------|
B|-10-10-10-10-10-10-10-10-|
G|-------------------------|
D|-------------------------|
A|-------------------------|
D|-------------------------|

BRIDGE:

guitar 1
                 x2                x2                x2                x2                x2 
e|-----------------|-----------------|-----------------|-----------------|-----------------|
B|-6-6-6-6-6-6-6-6-|-5-5-5-5-5-5-5-5-|-4-4-4-4-4-4-4-4-|-3-3-3-3-3-3-3-3-|-3-3-3-3-3-3-3-3-|
G|-7-7-7-7-7-7-7-7-|-6-6-6-6-6-6-6-6-|-5-5-5-5-5-5-5-5-|-4-4-4-4-4-4-4-4-|-3-3-3-3-3-3-3-3-|
D|-7-7-7-7-7-7-7-7-|-7-7-7-7-7-7-7-7-|-6-6-6-6-6-6-6-6-|-5-5-5-5-5-5-5-5-|-3-3-3-3-3-3-3-3-|
A|-5-5-5-5-5-5-5-5-|-7-7-7-7-7-7-7-7-|-6-6-6-6-6-6-6-6-|-5-5-5-5-5-5-5-5-|-1-1-1-1-1-1-1-1-|
D|-----------------|-----------------|-----------------|-----------------|-----------------|

                                                     x2
e|-3-------2-------|-1-------0-------|-1-------1-------|-0-------0-------|-----------------|
B|---3---3---3---3-|---3---3---3---3-|---3---3---3---3-|---2---2---2-----|-----------------|
G|-----2-------2---|-----2-------2---|-----2-------2---|-----2-------2---|-----------------|
D|-----------------|-----------------|-----------------|-----------------|-----------------|
A|-----------------|-----------------|-----------------|-----------------|-tremolo picking-|
D|-----------------|-----------------|-----------------|-----------------|-22\-------------|

guitar 2

e|-5-5-5-5-5-5-5-5-|-6-6-6-6-5-5-5-5-|-3-3-3-3-3-3-3-3-|-5-5-5-5-5-5-5-5-|
B|-6-6-6-6-6-6-6-6-|-6-6-6-6-6-6-6-6-|-5-5-5-5-5-5-5-5-|-5-5-5-5-5-5-5-5-|
G|-----------------|-----------------|-----------------|-----------------|
D|-----------------|-----------------|-----------------|-----------------|
A|-----------------|-----------------|-----------------|-----------------|
D|-----------------|-----------------|-----------------|-----------------|

e|-5-5-5-5-5-5-5-5-|-6-6-6-6-5-5-5-5-|-5-5-5-5-5-5-5-5-|-3-3-3-3-3-3-3-3-|
B|-4-4-4-4-4-4-4-4-|-4-4-4-4-4-4-4-4-|-3-3-3-3-3-3-3-3-|-3-3-3-3-3-3-3-3-|
G|-----------------|-----------------|-----------------|-----------------|
D|-----------------|-----------------|-----------------|-----------------|
A|-----------------|-----------------|-----------------|-----------------|
D|-----------------|-----------------|-----------------|-----------------|

e|-3-3-3-3-3-3-3-3-|-5-5-5-5-3-3-3-3-|-3-------2-------|-1-------0-------|
B|-3-3-3-3-3-3-3-3-|-3-3-3-3-3-3-3-3-|---3---3---3---3-|---3---3---3---3-|
G|-----------------|-----------------|-----2-------2---|-----2-------2---|
D|-----------------|-----------------|-----------------|-----------------|
A|-----------------|-----------------|-----------------|-----------------|
D|-----------------|-----------------|-----------------|-----------------|

e|-1-------1-------|-1-------1-------|-0-------0-------|-----------------|
B|---3---3---3---3-|---3---3---3---3-|---2---2---2---2-|-----------------|
G|-----2-------2---|-----2-------2---|-----2-------2---|-----------------|
D|-----------------|-----------------|-----------------|-----------------|
A|-----------------|-----------------|-----------------|-tremolo picking-|
D|-----------------|-----------------|-----------------|-22\-------------|

OUTRO:

e|---------------------------------------------------------------|
B|---------------------------------------------------------------|
G|---------------------------------------------------------------|
D|---------------------------------------------------------------|
A|---------------5\-------------5\-------------5\-------------5\-|
D|-0-0-3-0-5h7-0----0-3-0-5h7-0----0-3-0-5h7-0----0-3-0-5h7-0----|

e|-----------------------------------------------------------------|
B|-----------------------------------------------------------------|
G|-----------------------------------------------------------------|
D|-----------------------------------------------------------------|
A|---------------7\-------------8\-------------10\-------------12\-|
D|-0-0-3-0-5h7-0----0-3-0-5h7-0----0-3-0-5h7-0-----0-3-0-5h7-0-----|

e|-------------------------------------------------------------------|
B|-------------------------------------------------------------------|
G|-------------------------------------------------------------------|
D|-------------------------------------------------------------------|
A|---------------13\-------------14\-------------15\-------------17\-|
D|-0-0-3-0-5h7-0-----0-3-0-5h7-0-----0-3-0-5h7-0-----0-3-0-5h7-0-----|

e|--------------------------------------------------------------------|
B|--------------------------------------------------------------------|
G|--------------------------------------------------------------------|
D|--------------------------------------------------------------------|
A|---------------17\-------------17\-------------17\-------------17~\-|
D|-0-0-3-0-5h7-0-----0-3-0-5h7-0-----0-3-0-5h7-0-----0-3-0-5h7-0------|

/   slide up
\   slide down
h   hammer-on
p   pull-off
~   vibrato
+   harmonic
x   Mute note
b   bend
r   release
comments
print report bad tab
6 comments total. Showing first comments.
0 reply
OasisLegend wrote on July 4 2010, 11:38 am

Very good tab, Very Good

0 reply
huyfken wrote on July 15 2010, 07:51 am

I believe the chord in the bridge for Guitar one would sound better as:

x3554x

instead of

x6654x

(sorry I couldnt be bothered to type it out as a tab)

Otherwise a very solid tab. I couldn't really work out the rest of the chords on my own through all the distortion effects. Thanks

0 reply
lezahtherock wrote on July 21 2010, 06:55 am

Thanks!

huyfken, re: that chord in the bridge, I thought it was x3554x at first but after lots of listening I heard x6654x.

I want to post or [tab]
guest
You may want to rate the tab now too:
select rating
Please do not post tabs as comments. Select "correction" instead!