Oops, an error
Loading. Please wait.

Muscle Museum Live Tab

by Muse
11,404 views 21 this week
1 commentread comment
1 2 3 4 5
excellent!
x 7
add to favorites launch autoscroll
font size
0
reset
Autoscroll
+/-
esc
set tempo
stop
Contributor
WARNING: You are trying to view
                                    content from Ultimate-Guitar.com
                                    in an unauthorized application,
                                    which is prohibited.

                                    Please use an official Ultimate
                                    Guitar Tabs application for iPhone,
                                    iPad or Android to access legitimate
                                    chords, guitar, bass, and drum tabs
                                    from Ultimate-Guitar.com database.

                                    Type "ultimate guitar tabs" in Apple
                                    App Store's or Android Market's
                                    search to find the application.
muscle museum live
e---------------------------------------------------------------------------|
B-10--10--10--10--/14--14-12--12-10--10--10--9--9--/12--12-10--10-9--9--9---|
G---11--11--11--11---14-----13-----11--11--11-10-10---13-----11----10-10-10-|
D---------------------------------------------------------------------------|
A---------------------------------------------------------------------------|
E---------------------------------------------------------------------------|

e-------------------------------14----16-14------14----14--------------------|
B-10--10-----14--14-----14--15----15-------15--15--15-------10---------------|
G---11--11/14--14--15-15--15--16----16-------16------16--16\--11-------------|
D---------------------------------------------------------------10--10--10---|
A-----------------------------------------------------------------11--11--11-|
E----------------------------------------------------------------------------|

e----------------------------------------------------------------------------|
B14-10-14-12-9-12-10-7-10--10--9--9--/12--12-10--10-9--9--9--10--10----14-14-|
G------------------------11--11-10-10---13-----11----10-10-10--11--11/14--14-|
D----------------------------------------------------------------------------|
A----------------------------------------------------------------------------|
E----------------------------------------------------------------------------|
                                                bass x2
e-------------14---16-14------14-----------------------------------------------|
B-----14--15----15------15--15------------------------------------2-3----------|
G15-15--15--16----16------16-----------------------------------------4---------|
D-----------------------------4--4--4--4--------------4--4--4--4-------4---2-3-|
A-------------------------------4--4--4--4-4--4--4--4---4--4--4--4-----5-2-5---|
E-------------------------------------------4--4--4--4-------------------------|

e----2-4-2-----2-4-2-----------------------------------2-4-2-----2-4-2---|
B---2-----2---2-----2-----2-2h3p2-------2-2h3p2-------2-----2---2-----2--|
G--2-------2-2-------2---4-------3-1---4--------3-1--2-------2-2-------2-|
D-4---------4-----------3-------------3-------------4---------4----------|
A----------------------4-------------4-----------------------------------|
E------------------------------------------------------------------------|

e------------------|
B33-------33-------|
G--44--44---44-----|
D----44-------4440-|
A------------------|
E------------------|

e---------------------------------|---------------------------------|
B---------------------------------|---------------------------------|
G-----2-2-----2-2-----2-2-----2-2-|-1-1-----1-1-----1-1-----1-1-----|
D---------------------------------|-----3-3-----3-3-----3-3-----3-0-|
A-4-4-----4-4-----4-4-----4-4-----|---------------------------------|
E---------------------------------|---------------------------------|
PM _______________________________  ________________________________

e--------------------------------------------x---------x-----x-|
B-----------------------------3--------------x-7---7---x-7---x-|
G-----2-2-----2-2-----2-2-----4--------------x---6---6-x---6-x-|
D-----------------------------4-----0--4-4-4-------------------|
A-4-4-----4-4-----4-4-----4-4-2-----0--4-4-4-------------------|
E--------------------------------------2-2-2-------------------|

E---------------------------------------------------------------------|
B--6-6-6-x-6---6---x-x---6------6-5--7-7-7-7-7-7-7-7-8-8-8-8-8-8-8-8--|
G--6-6-6-x---6---6-x-x--x---6--x--4--7-7-7-7-7-7-7-7-7-7-7-7-7-7-7-7--|
D--6-6-6-x---------x-x-x---x--x---5--0-0-0-0-0-0-0-0-0-0-0-0-0-0-0-0--|
A--4-4-4------------------x-------------------------------------------|
E---------------------------------------------------------------------|

e----------------------------------------|
B-9-9-9-9-9-9-9-9-10-10-10-10-10-10------|
G-7-7-7-7-7-7-7-7--7--7--7--7--7--7------|
D-0-0-0-0-0-0-0-0--0--0--0--0--0--0-0-0--|
A-----------------------------------0-0--|
E----------------------------------------|

chorus
e-2-2-2---2--2-2-2--2---------------------------------|
B-2-2-2---2--2-2-2--2-----6-6-6--6----6-6-6-6--6-0----|
G-2-2-2---2--2-2-2--2-----6-6-6--6----6-6-6-6--6-0----|
D-4-4-4---4--4-4-4--4--0--6-6-6--6----6-6-6-6--6-0----|
A-4-4-4---4--4-4-4--4--0--4-4-4--4----4-4-4-4--4------|
E-2-2-2---2--2-2-2--2--0------------------------------|

e-2-2-2---2--2-2-2--2-----2-2-2--2--2--2-2-2----------|
B-2-2-2---2--2-2-2--2-----3-3-3--3--3--3-3-3--0-------|
G-2-2-2---2--2-2-2--2-----4-4-4--4--4--4-4-4--4-2-----|
D-4-4-4---4--4-4-4--4--0--4-4-4--4--4--4-4-4--4-2-----|
A-4-4-4---4--4-4-4--4--0--2-2-2--2--2--2-2-2--2-------|
E-2-2-2---2--2-2-2--2--0------------------------------|

e-2-2-2---2--2-2-2--2---------------------------------|
B-2-2-2---2--2-2-2--2-----2-2-2-2-2-2-2-2-2-2---------|
G-2-2-2---2--2-2-2--2-----4-4-4-4-4-4-4-4-4-4---------|
D-4-4-4---4--4-4-4--4--0--3-3-3-3-3-3-3-3-3-3---------|
A-4-4-4---4--4-4-4--4--0--4-4-4-4-4-4-4-4-4-4---------|
E-2-2-2---2--2-2-2--2--0------------------------------|

e-2-2-2---2--2-2-2--2-----2-2-2--2--2--2-2-2----------|
B-2-2-2---2--2-2-2--2-----3-3-3--3--3--3-3-3--0-------|
G-2-2-2---2--2-2-2--2-----4-4-4--4--4--4-4-4--4-2-----|
D-4-4-4---4--4-4-4--4--0--4-4-4--4--4--4-4-4--4-2-----|
A-4-4-4---4--4-4-4--4--0--2-2-2--2--2--2-2-2--2-------|
E-2-2-2---2--2-2-2--2--0------------------------------|

e-0-0-0-0-0---0-0-0-----------------------------2-----2-|
B-0-0-0-0-0---0-0-0--6-6-6---6-6-6----6-6-6-6---2-----2-|
G-1-1-1-1-1---1-1-1--6-6-6---6-6-6----6-6-6-6---2-----2-|
D-2-2-2-2-2---2-2-2--6-6-6---6-6-6----6-6-6-6---4-----4-|
A-2-2-2-2-2---2-2-2--4-4-4---4-4-4----4-4-4-4---4-----4-|
E-0-0-0-0-0---0-0-0-----------------------------2-----2-|

e-2-2-2---2--2---2---------|
B-2-2-2---2--2---2---------|
G-2-2-2---2--2---2---------|
D----------------4------0--|
A-----------------------0--|
E-----------------------0--|

e----------------------------------------------------------------------------|
B10-10-10-10-10-10-10-10/14-14-14-12-12-12-10-10-10-10-10-9-\7--9--9--9/12---|
G11-11-11-11-11-11-11-11/14-14-14-13-13-13-11-11-11-11-11-10\8-10-10-10/13---|
D----------------------------------------------------------------------------|
A----------------------------------------------------------------------------|
E----------------------------------------------------------------------------|

e---------------------|
B12-12-10-10-10--9--9-|
G13-13-11-11-11-10-10-|
D---------------------|
A---------------------|
E---------------------|

e---------------------------------------------------14----16-14--------14-|
B-9--9--9-7/-9/10-10-10-10/14-14---14------14---15----15--------15---15---|
G10-10-10-8/10/11-11-11-11/14---14-15-15-15--15---16----16--------16------|
D-------------------------------------------------------------------------|
A-------------------------------------------------------------------------|
E-------------------------------------------------------------------------|

e------------|
B---------2b-|
G-----4------|
D-------3----|
A-4----------|
E------------|

e-----x-x-----x-x-----x-x-----x-x-|------------------------------------|
B-----x-x-----x-x-----x-x-----x-x-|------------------------------------|
G-----x-x-----x-x-----x-x-----x-x-|------------------------------------|
D-x-x-----x-x-----x-x-----x-x-----|-x-x--x-x-x--x-x-x-x----------------|
A-x-x-----x-x-----x-x-----x-x-----|-x-x--x-x-x--x-x-x-x----------------|
E-x-x-----x-x-----x-x-----x-x-----|-x-x--x-x-x--x-x-x-x-7/12--12-7/16--|

e--x-x-2-2--x-x-2-2--x-x-2-2--x-x-2-2|---------------------------------|
B--x-x-2-2--x-x-2-2--x-x-2-2--x-x-2-2|-x-x-2-2-x-x-2-2-x-x-2-2-x-x-2-2-|
G--x-x-2-2--x-x-2-2--x-x-2-2--x-x-2-2|-x-x-4-4-x-x-4-4-x-x-4-4-x-x-4-4-|
D------------------------------------|-x-x-3-3-x-x-3-3-x-x-3-3-x-x-3-3-|
A------------------------------------|---------------------------------|
E------------------------------------|---------------------------------|


ex-x-2-2--x-x-2-2--x-x-2-2--x-x-2-2-2------------------------------x---------|
Bx-x-2-2--x-x-2-2--x-x-2-2--x-x-2-2-3------------------------6-6-6-x-6-6-----|
Gx-x-2-2--x-x-2-2--x-x-2-2--x-x-2-2-4----------------0--0-0--6-6-6-x---6b-6--|b
D-----------------------------------4-0-4--4--4------0--0-0--6-6-6-----------|
A-----------------------------------2-0-4--4--4------0--0-0--4-4-4-----------|
E---------------------------------------2--2--2-/b17-0--0-0------------------|

   T   T   T   T   T   T   T   T   T   T
e---------------------------------------------x-0-0-0-0--|
B--7-3-7-3-7-3-8-3-8-3-8-3-8-3-9-3-9-3-9---9b-x-0-0-0-0--|
G----------------------------------------0----x-0-0-0-0--|
D----------------------------------------0----x-0-0-0-0--|
A--------------------------------------------------------|
E--------------------------------------------------------|

e-------2--------2--2-2------------------------------|
B-------2--------2--2-2--6-6-6--6-6---6-6-6--6--6-6--|
G-------2--------2--2-2--6-6-6--6-6---6-6-6--6--6-6--|
D-4-4-4-4--4-4-4-4--4-4--6-6-6--6-6---6-6-6--6--6-6--|
A-4-4-4----4-4-4---------4-4-4--4-4---4-4-4--4--4-4--|
E-2-2-2----2-2-2-------------------------------------|


e-------2--------2--2-2--2-2-2--2--2-2-2-2-2--2------|
B-------2--------2--2-2--3-3-3--3--3-3-3-3-3--3------|
G-------2--------2--2-2--4-4-4--4--4-4-4-4-4--4-2-2--|
D-4-4-4-4--4-4-4-4--4-4--4-4-4--4--4-4-4-4-4--4-2-2--|
A-4-4-4----4-4-4---------2-2-2--2--2-2-2-2-2--2------|
E-2-2-2----2-2-2-------------------------------------|

e-2-2-2---2--2-2-2--2---------------------------------|
B-2-2-2---2--2-2-2--2-----2-2-2-2-2-2-2-2-2-2---------|
G-2-2-2---2--2-2-2--2-----4-4-4-4-4-4-4-4-4-4---------|
D-4-4-4---4--4-4-4--4--0--3-3-3-3-3-3-3-3-3-3---------|
A-4-4-4---4--4-4-4--4--0--4-4-4-4-4-4-4-4-4-4---------|
E-2-2-2---2--2-2-2--2--0------------------------------|

e-2-2-2---2--2-2-2--2-----2-2-2--2--2--2-2-2----------|
B-2-2-2---2--2-2-2--2-----3-3-3--3--3--3-3-3--0-------|
G-2-2-2---2--2-2-2--2-----4-4-4--4--4--4-4-4--4-2-----|
D-4-4-4---4--4-4-4--4--0--4-4-4--4--4--4-4-4--4-2-----|
A-4-4-4---4--4-4-4--4--0--2-2-2--2--2--2-2-2--2-------|
E-2-2-2---2--2-2-2--2--0------------------------------|

e-0-0-0-0-0---0-0-0-----------------------------|
B-0-0-0-0-0---0-0-0--6-6-6---6-6-6----6-6-6-6---|
G-1-1-1-1-1---1-1-1--6-6-6---6-6-6----6-6-6-6---|
D-2-2-2-2-2---2-2-2--6-6-6---6-6-6----6-6-6-6---|
A-2-2-2-2-2---2-2-2--4-4-4---4-4-4----4-4-4-4---|
E-0-0-0-0-0---0-0-0-----------------------------|

e-2-2-2---2--2-2--2-2-2--2--2-2--------------------------------|
B-2-2-2---2--2-2--2-2-2--2--2-2--3---3--3-3-3-3-3-3-3--3-3-3-3-|
G-2-2-2---2--2-2--2-2-2--2--2-2--2---2--2-2-2-2-2-2-2--2-2-2-2-|
D-4-4-4---4--4-4-----------------0---0--0-0-0-0-0-0-0--0-0-0-0-|
A-4-4-4---4--4-4-----------------------------------------------|
E-2-2-2---2--2-2-----------------------------------------------|

e-0--0--0-0-0---0-0-0--0--0-0----------------------------------|
B-0--0--0-0-0---0-0-0--0--0-0-6--6--6---6-6-6---6--6--6---6--6-|
G-1--1--1-1-1---1-1-1--1--1-1-6--6--6---6-6-6---6--6--6---6--6-|
D-0--0--0-0-0---0-0-0--0--0-0-6--6--6---6-6-6---6--6--6---6--6-|
A-2--2--2-2-2---2-2-2--2--2-2-4--4--4---4-4-4---4--4--4---4--4-|
E-0--0--0-0-0---0-0-0--0--0-0----------------------------------|

e-2-2-2---2-2--2--2--2--2-2-------------------------------|
B-2-2-2---2-2--2--2--2--2-2---3---3--3-3-3--3-3-3---------|
G-2-2-2---2-2--2--2--2--2-2---2---2--2-2-2--2-2-2---------|
D-4-4-4---4-4-----------------0---0--0-0-0--0-0-0-0-0-0-0-|
A-4-4-4---4-4-------------------------------------0-0-0-0-|
E-2-2-2---2-2---------------------------------------------|

e-------------------------------------------------------|
B-2--2--2--2-2-2--2--2--2--2---2--2-2-2-2--2-2-2-2-2-2--|
G-2--2--2--2-2-2--2--2--2--2---4--4-4-4-4--4-4-4-4-4-4--|
D-2--2--2--2-2-2--2--2--2--2---3--3-3-3-3--3-3-3-3-3-3--|
A-0--0--0--0-0-0--0--0--0--0----------------------------|
E----------------------------4----4-4-4-4--4-4-4-4-4-4--|

e-2-2-2---2--2--2--2-2-2--2-2-     -0-|
B-2-2-2---2--2--3--3-3-3--3-3-     -0-|
G-2-2-2---2--2--4--4-4-4--4-4-  x4 -0-|
D-4-4-4---4--4--4--4-4-4--4-4-     -0-|
A-4-4-4---4--4--2--2-2-2--2-2-     -0-|
E-2-2-2---2--2----------------     -0-|

that took me forever.
comments
print report bad tab
1 comment total.
0 reply
Moss wrote on June 5 2005, 12:00 am

cool tab, but do you know how to play that bit that he does after the main melody riff, it's onyl on some live shows!

I want to post or [tab]
guest
You may want to rate the tab now too:
select rating
Please do not post tabs as comments. Select "correction" instead!