Oops, an error
Loading. Please wait.

Muscle Museum Tab

by Muse
ver3
ver3
More versions @911Tabs.com
23,070 views 27 this week
12 commentsread comments
1 2 3 4 5
accurate
x 13
Autoscroll
+/-
esc
set tempo
stop
Contributor
Difficulty
novice
WARNING: You are trying to view
                                    content from Ultimate-Guitar.com
                                    in an unauthorized application,
                                    which is prohibited.

                                    Please use an official Ultimate
                                    Guitar Tabs application for iPhone,
                                    iPad or Android to access legitimate
                                    chords, guitar, bass, and drum tabs
                                    from Ultimate-Guitar.com database.

                                    Type "ultimate guitar tabs" in Apple
                                    App Store's or Android Market's
                                    search to find the application.
----------------------------------------------------------------------------
                             Muscle Museum – Muse
----------------------------------------------------------------------------

Tuning: Standard (EADGBE)

Intro: (Clean Guitar)

     W                   W
E||-------------------|-------------------|
B||-------------------|-------------------|
G||-------------------|-------------------|
D||-------------------|-------------------|
A||-------------------|-------------------|
E||-------------------|-------------------|


   S  S  S  S  S  S  S  S   S  S  S  S  S  S  S  S
---------------------------------------------------|
---------------------------------------------------|
--11-11-11-11-11-11-11-11s-14-14-14-13-13-13-11-11-|
---------------------------------------------------|
---------------------------------------------------|
---------------------------------------------------|


   S  S  S  T  T   S  S  S  S   S  S  S  S  S  S  S  S
-------------------------------------------------------|
-------------------------------------------------------|
--11-11-11-10s-8s-10-10-10-10s-13-13-13-11-11-11-10-10-|
-------------------------------------------------------|
-------------------------------------------------------|
-------------------------------------------------------|


   S  S  S T   T  S  S  S  S   S  S  S  S  S  S  S  S
------------------------------------------------------|
------------------------------------------------------|
--10-10-10-8s-10-11-11-11-11s-14-14-14-15-15-15-15-15-|
------------------------------------------------------|
------------------------------------------------------|
------------------------------------------------------|


   S  S  S  S  S  S  S  S  H
------------------------------------|
------------------------------------|
--16-16-16-16-16-16-16-16-16--------|
------------------------------------|
------------------------------------|
------------------------------------|


   S  S  S  S  S  S  S  S   S  S  S  S  S  S  S  S
---------------------------------------------------|
---------------------------------------------------|
--11-11-11-11-11-11-11-11s-14-14-14-13-13-13-11-11-|
---------------------------------------------------|
---------------------------------------------------|
---------------------------------------------------|


   S  S  S  T  T   S  S  S  S   S  S  S  S  S  S  S  S
-------------------------------------------------------|
-------------------------------------------------------|
--11-11-11-10s-8s-10-10-10-10s-13-13-13-11-11-11-10-10-|
-------------------------------------------------------|
-------------------------------------------------------|
-------------------------------------------------------|


   S  S  S T   T  S  S  S  S   S  S  S  S  S  S  S  S     W
------------------------------------------------------|--------------------|
------------------------------------------------------|--------------------|
--10-10-10-8s-10-11-11-11-11s-14-14-14-15-15-15-15-15-|--16----------------|
------------------------------------------------------|--------------------|
------------------------------------------------------|--------------------|
------------------------------------------------------|--------------------|


Verse 1:

  W                   W                   W                   W
-------------------|-------------------|-------------------|---------------|
-------------------|-------------------|-------------------|---------------|
-------------------|-------------------|-------------------|---------------|
-------------------|-------------------|-------------------|---------------|
-------------------|-------------------|-------------------|---------------|
-------------------|-------------------|-------------------|---------------|


  W                   W                   W                   W
-------------------|-------------------|-------------------|---------------|
-------------------|-------------------|-------------------|---------------|
-------------------|-------------------|-------------------|---------------|
-------------------|-------------------|-------------------|---------------|
-------------------|-------------------|-------------------|---------------|
-------------------|-------------------|-------------------|---------------|


Pre-Verse: (Clean Guitar)

     PM PM PM PM PM PM PM PM PM PM PM PM PM PM PM PM
     S  S  S  S  S  S  S  S  S  S  S  S  S  S  S  S
E||--------------------------------------------------|
B||--------------------------------------------------|
G||--------2--2--------2--2--------2--2--------2--2--|
D||--------------------------------------------------|
A||--4--4--------4--4--------4--4--------4--4--------|
E||--------------------------------------------------|


  PM PM PM PM PM PM PM PM PM PM PM PM PM PM PM PM
  S  S  S  S  S  S  S  S  S  S  S  S  S  S  S  S
--------------------------------------------------|
--------------------------------------------------|
--1--1--------1--1--------1--1--------1--1--------|
--------3--3--------3--3--------3--3--------3--0--|
--------------------------------------------------|
--------------------------------------------------|


  PM PM PM PM PM PM PM PM PM PM PM PM PM PM PM PM
  S  S  S  S  S  S  S  S  S  S  S  S  S  S  S  S
--------------------------------------------------|
--------------------------------------------------|
--------2--2--------2--2--------2--2--------2--2--|
--------------------------------------------------|
--4--4--------4--4--------4--4--------4--4--------|
--------------------------------------------------|


  PM PM PM PM PM PM PM PM PM PM PM PM PM PM PM PM
  S  S  S  S  S  S  S  S  S  S  S  S  S  S  S  S
--------------------------------------------------|
--------------------------------------------------|
--7--7--4--4--------4--4--7--7--4--4--------------|
--------------4--4--------------------4--4--4--0--|
--------------------------------------------------|
--------------------------------------------------|


Verse 2: (Clean Guitar)

    PM PM PM PM PM PM PM PM PM PM PM PM PM PM PM PM
     S  S  S  S  S  S  S  S  S  S  S  S  S  S  S  S
E||--------------------------------------------------|
B||--------------------------------------------------|
G||--------2--2--------2--2--------2--2--------2--2--|
D||--------------------------------------------------|
A||--4--4--------4--4--------4--4--------4--4--------|
E||--------------------------------------------------|


  PM PM PM PM PM PM PM PM PM PM PM PM PM PM PM PM
  S  S  S  S  S  S  S  S  S  S  S  S  S  S  S  S
--------------------------------------------------|
--------------------------------------------------|
--1--1--------1--1--------1--1--------1--1--------|
--------3--3--------3--3--------3--3--------3--0--|
--------------------------------------------------|
--------------------------------------------------|


  PM PM PM PM PM PM PM PM PM PM PM PM PM PM PM PM
  S  S  S  S  S  S  S  S  S  S  S  S  S  S  S  S
--------------------------------------------------|
--------------------------------------------------|
--------2--2--------2--2--------2--2--------2--2--|
--------------------------------------------------|
--4--4--------4--4--------4--4--------4--4--------|
--------------------------------------------------|


   W
--------------------|
---3----------------|
--/4----------------|
---0----------------|
--------------------|
--------------------|


Chorus 1: (Distortion Guitar 1) played along with distortion guitar 2

     S S E  S E  S S S S S S S E     S S E  S E  S S S S S S S S S
E||--2-2-2--x----------x----------|---------x----------x-----------|
B||--2-2-2----7----7-----7-L---7--|-----------6----6-----6-L---6---|
G||--2-2-2-------6---6-------6----|--4-4-4-------6---6-------6-----|
D||--4-4-4------------------------|--3-3-3-----------------------0-|
A||--4-4-4------------------------|--4-4-4-------------------------|
E||--2-2-2------------------------|--4-4-4-------------------------|


  PM PM PM PM PM PM PM PM PM PM PM PM PM PM PM PM
  S  S  S  S  S  S  S  S  S  S  S  S  S  S  S  S
--------------------------------------------------|
--------------------------------------------------|
--7--7--7--7--7--7--7--7--7--7--7--7--7--7--7--7--|
--0--0--0--0--0--0--0--0--0--0--0--0--0--0--0--0--|
--------------------------------------------------|
--------------------------------------------------|


  PM PM PM PM PM PM PM PM
  S  S  S  S  S  S  S  S   S  S  S  S  S  S  S  S    S S E  Q    S S E  Q
--------------------------------------------------|--2-2-2--2----2-2-2--2--|
--9--9--9--9--9--9--9--9--10-10-10-10-10-10-10-10-|--2-2-2--2----2-2-2--2--|
--7--7--7--7--7--7--7--7---7--7--7--7--7--7--7--7-|--2-2-2--2----2-2-2--2--|
--0--0--0--0--0--0--0--0---0--0--0--0--0--0--0--0-|--4-4-4--4----4-4-4--4--|
--------------------------------------------------|--4-4-4--4----4-4-4--4--|
--------------------------------------------------|--2-2-2--2----2-2-2--2--|


  S S E  Q    S S E  Q       S S E  Q    S S E  Q
--------------------------|--2-2-2--2----2-2-2--2----|
--------------------------|--2-2-2--2----2-2-2--2----|
--4-4-4--4----4-4-4--4----|--2-2-2--2----2-2-2--2----|
--3-3-3--3----3-3-3--3----|--4-4-4--4----4-4-4--4----|
--4-4-4--4----4-4-4--4----|--4-4-4--4----4-4-4--4----|
--4-4-4--4----4-4-4--4----|--2-2-2--2----2-2-2--2----|


  S S E  Q    S S E  Q       S S E  Q    S S E  Q
--2-2-2--2----2-2-2--2----|--2-2-2--2----2-2-2--2----|
--3-3-3--3----3-3-3--3----|--2-2-2--2----2-2-2--2----|
--4-4-4--4----4-4-4--4----|--2-2-2--2----2-2-2--2----|
--4-4-4--4----4-4-4--4----|--4-4-4--4----4-4-4--4----|
--2-2-2--2----2-2-2--2----|--4-4-4--4----4-4-4--4----|
--------------------------|--2-2-2--2----2-2-2--2----|


  S S E  Q    S S E  Q       S S E  Q    S S E  Q
--------------------------|--2-2-2--2----2-2-2--2----|
--------------------------|--2-2-2--2----2-2-2--2----|
--4-4-4--4----4-4-4--4----|--2-2-2--2----2-2-2--2----|
--3-3-3--3----3-3-3--3----|--4-4-4--4----4-4-4--4----|
--4-4-4--4----4-4-4--4----|--4-4-4--4----4-4-4--4----|
--4-4-4--4----4-4-4--4----|--2-2-2--2----2-2-2--2----|


  S S E  Q    S S E  Q       S S E  Q    S S E  Q
--2-2-2--2----2-2-2--2----|--0-0-0--0----0-0-0--0----|
--3-3-3--3----3-3-3--3----|--0-0-0--0----0-0-0--0----|
--4-4-4--4----4-4-4--4----|--1-1-1--1----1-1-1--1----|
--4-4-4--4----4-4-4--4----|--2-2-2--2----2-2-2--2----|
--2-2-2--2----2-2-2--2----|--2-2-2--2----2-2-2--2----|
--------------------------|--0-0-0--0----0-0-0--0----|


                             ^                                     
  E  E  E  E  E  E  E  E     W                   W
--------------------------|--2----------------|--L----------------|
--------------------------|--2----------------|--L----------------|
--4--4--4--4--4--4--4--4--|--2----------------|--L----------------|
--3--3--3--3--3--3--3--3--|--4----------------|--L----------------|
--4--4--4--4--4--4--4--4--|--4----------------|--L----------------|
--4--4--4--4--4--4--4--4--|--2----------------|--L----------------|


Chorus 1: (Distortion Guitar 2) played along with distortion guitar 2

     W                   W                   W                   W
E||-------------------|-------------------|-------------------|------------|
B||-------------------|-------------------|-------------------|------------|
G||-------------------|-------------------|-------------------|------------|
D||-------------------|-------------------|-------------------|------------|
A||-------------------|-------------------|-------------------|------------|
E||-------------------|-------------------|-------------------|------------|


  E  E  E  E  E  E  E  E     E  E  E  E  E  E  E  E
-----2-----------2--------|--------------------------|
--------2-----------2-----|-----6-----------6--------|
-----------2-----------2--|--------6-----------6-----|
--------------4-----------|-----------6-----------6--|
--------------------------|--------------------------|
--2-----------------------|--4-----------4-----------|


  E  E  E  E  E  E  E  E     S S E  E  E  S S  E  E  E
-----2-----------2--------|-----------------------------|
--------2-----------2-----|------3--------3-3p-2--------|
-----------2-----------2--|---------4-------------4--2--|
--------------4-----------|------------4----------------|
--------------------------|--2-2------------------------|
--2-----------------------|-----------------------------|


  E  E  E  E  E  E  E  E     E  E  E  E  E  E  E  E
-----2-----------2--------|--------------------------|
--------2-----------2-----|-----6-----------6--------|
-----------2-----------2--|--------6-----------6-----|
--------------4-----------|-----------6-----------6--|
--------------------------|--------------------------|
--2-----------------------|--4-----------4-----------|


  E  E  E  E  E  E  E  E     S S E  E  E  S S  E  E  E
-----2-----------2--------|-----------------------------|
--------2-----------2-----|------3--------3-3p-2--------|
-----------2-----------2--|---------4-------------4--2--|
--------------4-----------|------------4----------------|
--------------------------|--2-2------------------------|
--2-----------------------|-----------------------------|


  E  E  E  E  E  E  E  E     E  E  E  E  E  E  E  E
--------0-----------------|--1-----------1-----------|
--------0--------0--------|-----2-----2-----2--------|
-----------1--------1-----|--------1-----------1-----|
-----------------------0--|-----------------------0--|
--------------------------|--------------------------|
--0--0--------0-----------|--------------------------|


Pre-Verse: (Clean Guitar)

     S  S  S  S  S  S  S  S   S  S  S  S  S  S  S  S
||---------------------------------------------------|
||---------------------------------------------------|
||--11-11-11-11-11-11-11-11s-14-14-14-13-13-13-11-11-|
||---------------------------------------------------|
||---------------------------------------------------|
||---------------------------------------------------|


   S  S  S  T  T   S  S  S  S   S  S  S  S  S  S  S  S
-------------------------------------------------------|
-------------------------------------------------------|
--11-11-11-10s-8s-10-10-10-10s-13-13-13-11-11-11-10-10-|
-------------------------------------------------------|
-------------------------------------------------------|
-------------------------------------------------------|


   S  S  S T   T  S  S  S  S   S  S  S  S  S  S  S  S     W
------------------------------------------------------|--------------------|
------------------------------------------------------|--------------------|
--10-10-10-8s-10-11-11-11-11s-14-14-14-15-15-15-15-15-|--16----------------|
------------------------------------------------------|--------------------|
------------------------------------------------------|--------------------|
------------------------------------------------------|--------------------|


Verse 3: (Clean Guitar)

     W                   S S S S Q      H           W
E||-------------------|--------------------------|-------------------|
B||-------------------|----------2br----L--------|-------------------|
G||-------------------|------4-------------------|-------------------|
D||-------------------|----3---3-----------------|-------------------|
A||-------------------|--4-----------------------|-------------------|
E||-------------------|--------------------------|-------------------|


  W
-------------------|
-------------------|
-------------------|
-------------------|
-------------------|
-------------------|


Verse 4: (Clean Guitar 1) play along with clean guitar 2

                         H           H
E||-------------------|-----------------------|
B||-------------------|-----------------------|
G||-------------------|--6(5)-----------------|
D||-------------------|-----------------------|
A||-------------------|-----------------------|
E||-------------------|-----------------------|

  W                   W                  
-------------------|-------------------|
-------------------|-------------------|
-------------------|-------------------|
-------------------|-------------------|
-------------------|-------------------|
-------------------|-------------------|


Verse 4: (Clean Guitar 2) play along with clean guitar 1

     S S S S S S S S S S S S S S S S    S S S S S S S S S S S S S S S S
E||----------------------------------|----------------------------------|
B||----------------------------------|----------------------------------|
G||------2-2-----2-2-----2-2-----2-2-|--1-1-----1-1-----1-1-----1-1-----|
D||----------------------------------|------3-3-----3-3-----3-3-----3-0-|
A||--4-4-----4-4-----4-4-----4-4-----|----------------------------------|
E||----------------------------------|----------------------------------|


  S S S S S S S S S S S S S S S S     W
----------------------------------|--------------------|
----------------------------------|---3----------------|
------2-2-----2-2-----2-2-----2-2-|--/4----------------|
----------------------------------|---0----------------|
--4-4-----4-4-----4-4-----4-4-----|--------------------|
----------------------------------|--------------------|


Chorus 2: (Distortion Guitar 1) play along with distortion guitar 2

     S S E  S E  S S S S S S S E     S S E  S E  S E.   S  Q
E||--2-2-2--x----------x----------|---------x-------------------|
B||--2-2-2----7----7-----7-L---7--|-----------6----6~-----------|
G||--2-2-2-------6---6-------6----|--4-4-4-------6------6~-L----|
D||--4-4-4------------------------|--3-3-3----------------------|
A||--4-4-4------------------------|--4-4-4----------------------|
E||--2-2-2------------------------|--4-4-4----------------------|


  PM PM PM PM PM PM PM PM PM PM PM PM PM PM PM PM
  S  S  S  S  S  S  S  S  S  S  S  S  S  S  S  S
--------------------------------------------------|
--------------------------------------------------|
--7--7--7--7--7--7--7--7--7--7--7--7--7--7--7--7--|
--0--0--0--0--0--0--0--0--0--0--0--0--0--0--0--0--|
--------------------------------------------------|
--------------------------------------------------|


  PM PM PM PM PM PM PM PM 
  S  S  S  S  S  S  S  S   S  S  S  S  S  S  S  S    S S E  Q    S S E  Q
--------------------------------------------------|--2-2-2--2----2-2-2--2--|
--9--9--9--9--9--9--9--9--10-10-10-10-10-10-10-10-|--2-2-2--2----2-2-2--2--|
--7--7--7--7--7--7--7--7---7--7--7--7--7--7--7--7-|--2-2-2--2----2-2-2--2--|
--0--0--0--0--0--0--0--0---0--0--0--0--0--0--0--0-|--4-4-4--4----4-4-4--4--|
--------------------------------------------------|--4-4-4--4----4-4-4--4--|
--------------------------------------------------|--2-2-2--2----2-2-2--2--|


  S S E  Q    S S E  Q       S S E  Q    S S E  Q
--------------------------|--2-2-2--2----2-2-2--2----|
--------------------------|--2-2-2--2----2-2-2--2----|
--4-4-4--4----4-4-4--4----|--2-2-2--2----2-2-2--2----|
--3-3-3--3----3-3-3--3----|--4-4-4--4----4-4-4--4----|
--4-4-4--4----4-4-4--4----|--4-4-4--4----4-4-4--4----|
--4-4-4--4----4-4-4--4----|--2-2-2--2----2-2-2--2----|


  S S E  Q    S S E  Q       S S E  Q    S S E  Q
--2-2-2--2----2-2-2--2----|--2-2-2--2----2-2-2--2----|
--3-3-3--3----3-3-3--3----|--2-2-2--2----2-2-2--2----|
--4-4-4--4----4-4-4--4----|--2-2-2--2----2-2-2--2----|
--4-4-4--4----4-4-4--4----|--4-4-4--4----4-4-4--4----|
--2-2-2--2----2-2-2--2----|--4-4-4--4----4-4-4--4----|
--------------------------|--2-2-2--2----2-2-2--2----|


  S S E  Q    S S E  Q       S S E  Q    S S E  Q
--------------------------|--2-2-2--2----2-2-2--2----|
--------------------------|--2-2-2--2----2-2-2--2----|
--4-4-4--4----4-4-4--4----|--2-2-2--2----2-2-2--2----|
--3-3-3--3----3-3-3--3----|--4-4-4--4----4-4-4--4----|
--4-4-4--4----4-4-4--4----|--4-4-4--4----4-4-4--4----|
--4-4-4--4----4-4-4--4----|--2-2-2--2----2-2-2--2----|


  S S E  Q    S S E  Q       S S E  Q    S S E  Q
--2-2-2--2----2-2-2--2----|--0-0-0--0----0-0-0--0----|
--3-3-3--3----3-3-3--3----|--0-0-0--0----0-0-0--0----|
--4-4-4--4----4-4-4--4----|--1-1-1--1----1-1-1--1----|
--4-4-4--4----4-4-4--4----|--2-2-2--2----2-2-2--2----|
--2-2-2--2----2-2-2--2----|--2-2-2--2----2-2-2--2----|
--------------------------|--0-0-0--0----0-0-0--0----|


  E  E  E  E  E  E  E  E
--------------------------|
--------------------------|
--4--4--4--4--4--4--4--4--|
--3--3--3--3--3--3--3--3--|
--4--4--4--4--4--4--4--4--|
--4--4--4--4--4--4--4--4--|


Chorus 2: (Distortion Guitar 2) play along with distortion guitar 1

     W                   W                   W                   W
E||-------------------|-------------------|-------------------|------------|
B||-------------------|-------------------|-------------------|------------|
G||-------------------|-------------------|-------------------|------------|
D||-------------------|-------------------|-------------------|------------|
A||-------------------|-------------------|-------------------|------------|
E||-------------------|-------------------|-------------------|------------|


  E  E  E  E  E  E  E  E     E  E  E  E  E  E  E  E
-----2-----------2--------|--------------------------|
--------2-----------2-----|-----6-----------6--------|
-----------2-----------2--|--------6-----------6-----|
--------------4-----------|-----------6-----------6--|
--------------------------|--------------------------|
--2-----------------------|--4-----------4-----------|


  E  E  E  E  E  E  E  E     S S E  E  E  S S  E  E  E
-----2-----------2--------|-----------------------------|
--------2-----------2-----|------3--------3-3p-2--------|
-----------2-----------2--|---------4-------------4--2--|
--------------4-----------|------------4----------------|
--------------------------|--2-2------------------------|
--2-----------------------|-----------------------------|


  E  E  E  E  E  E  E  E     E  E  E  E  E  E  E  E
-----2-----------2--------|--------------------------|
--------2-----------2-----|-----6-----------6--------|
-----------2-----------2--|--------6-----------6-----|
--------------4-----------|-----------6-----------6--|
--------------------------|--------------------------|
--2-----------------------|--4-----------4-----------|


  E  E  E  E  E  E  E  E     S S E  E  E  S S  E  E  E
-----2-----------2--------|-----------------------------|
--------2-----------2-----|------3--------3-3p-2--------|
-----------2-----------2--|---------4-------------4--2--|
--------------4-----------|------------4----------------|
--------------------------|--2-2------------------------|
--2-----------------------|-----------------------------|


  E  E  E  E  E  E  E  E     E  E  E  E  E  E  E  E
--------0-----------------|--1-----------1-----------|
--------0--------0--------|-----2-----2-----2--------|
-----------1--------1-----|--------1-----------1-----|
-----------------------0--|-----------------------0--|
--------------------------|--------------------------|
--0--0--------0-----------|--------------------------|


Chorus 3: (Distortion Guitar 1) play along with distortion guitar 2

     E  E  E  E  E  E  E  E     E  E  E  E  E  E  E  E
E||--2--2--2--2--2--2--2--2--|--2--2--2--2--2--2--2--2--|
B||--2--2--2--2--2--2--2--2--|--3--3--3--3--3--3--3--3--|
G||--2--2--2--2--2--2--2--2--|--2--2--2--2--2--2--2--2--|
D||--4--4--4--4--2--2--2--2--|--0--0--0--0--0--0--0--0--|
A||--4--4--4--4--4--4--4--4--|--------------------------|
E||--2--2--2--2--2--2--2--2--|--------------------------|


  E  E  E  E  E  E  E  E     E  E  E  E  E  E  E  E
--0--0--0--0--0--0--0--0--|--1--1--1--1--1--1--1--1--|
--0--0--0--0--0--0--0--0--|--2--2--2--2--2--2--2--2--|
--1--1--1--1--1--1--1--1--|--1--1--1--1--1--1--1--1--|
--0--0--0--0--0--0--0--0--|--x--x--x--x--x--x--x--x--|
--2--2--2--2--2--2--2--2--|--x--x--x--x--x--x--x--x--|
--0--0--0--0--0--0--0--0--|--1--1--1--1--1--1--1--1--|


  E  E  E  E  E  E  E  E     E  E  E  E  E  E  E  E
--2--2--2--2--2--2--2--2--|--2--2--2--2--2--2--2--2--|
--2--2--2--2--2--2--2--2--|--3--3--3--3--3--3--3--3--|
--2--2--2--2--2--2--2--2--|--2--2--2--2--2--2--2--2--|
--4--4--4--4--2--2--2--2--|--0--0--0--0--0--0--0--0--|
--4--4--4--4--4--4--4--4--|--------------------------|
--2--2--2--2--2--2--2--2--|--------------------------|


  E  E  E  E  E  E  E  E     E  E  E  E  E  E  E  E
--0--0--0--0--0--0--0--0--|--------------------------|
--2--2--2--2--2--2--2--2--|--6--6--6--6--6--6--6--6--|
--2--2--2--2--2--2--2--2--|--6--6--6--6--6--6--6--6--|
--2--2--2--2--2--2--2--2--|--6--6--6--6--6--6--6--6--|
--0--0--0--0--0--0--0--0--|--x--x--x--x--x--x--x--x--|
--------------------------|--4--4--4--4--4--4--4--4--|


Chorus 3: (Distortion Guitar 2) play along with distortion guitar 1

     E  E  E  E  E  E  E  E     E  E  E  E  E  E  E  E
E||-----2-----------2--------|--------------2-----------|
B||--------2-----------2-----|--------3--------3--------|
G||-----------2-----------2--|-----2-----2--------2-----|
D||--4-----------2-----------|--0--------------------0--|
A||--------------------------|--------------------------|
E||--------------------------|--------------------------|


  E  E  E  E  E  E  E  E     E  E  E  E  E  E  E  E
-----0-----------0--------|--1-----------1-----------|
--------0-----------0-----|-----2-----2-----2--------|
-----------1-----------1--|--------1-----------1-----|
--------------------------|-----------------------0--|
--------------------------|--------------------------|
--0-----------0-----------|--------------------------|


  E  E  E  E  E  E  E  E     E  E  E  E  E  E  E  E
-----2-----------2--------|--------------2-----------|
--------2-----------2-----|--------3--------3--------|
-----------2-----------2--|-----2-----2--------2-----|
--4-----------2-----------|--0--------------------0--|
--------------------------|--------------------------|
--------------------------|--------------------------|


  E  E  E  E  E  E  E  E     E  E  E  E  E  E  E  E
--------------0-----------|--------------------------|
--------2--------2--------|-----6--------6-----------|
-----2-----2--------2-----|--------6--------6-----6--|
-----------------------0--|-----------6--------6-----|
--0-----------------------|--------------------------|
--------------------------|--4-----------------------|


Pre-Outro: (Guitar Distortion 1) play along with distortion guitar 2

     W                   E  E  E  E  E  E  E  E     E  E  E  E  E  E  E  E
E||-------------------|--2--2--2--2--2--2--2--2--|--2--2--2--2--2--2--2--2-|
B||-------------------|--2--2--2--2--3--3--3--3--|--2--2--2--2--3--3--3--3-|
G||-------------------|--2--2--2--2--4--4--4--4--|--2--2--2--2--4--4--4--4-|
D||-------------------|--4--4--4--4--4--4--4--4--|--4--4--4--4--4--4--4--4-|
A||-------------------|--4--4--4--4--2--2--2--2--|--4--4--4--4--2--2--2--2-|
E||-------------------|--2--2--2--2--2--2--2--2--|--2--2--2--2--2--2--2--2-|


  E  E  E  E  E  E  E  E
--2--2--2--2--2--2--2--2--|
--2--2--2--2--3--3--3--3--|
--2--2--2--2--4--4--4--4--|
--4--4--4--4--4--4--4--4--|
--4--4--4--4--2--2--2--2--|
--2--2--2--2--2--2--2--2--|


Pre-Outro: (Guitar Distortion 2) play along with distortion guitar 1

     Q    Q    Q    E  E     Q    E  E  S S E  E  E
E||--2----2---------------|--2----2--2---------------|
B||--2----2---------------|--2----2--2---------------|
G||--2----2---------------|--2----2--2---------------|
D||--4----4----4----4--4--|--4----4--4--4-4-4--4--4--|
A||--4----4----2----0--x--|--4----4--4--2-2-2--0--x--|
E||--2----2------------4--|--2----2--2------------4--|


  S S E  E  E  S S E  E  E     S S E  E  E  S S E  E  E 
----------------------------|----------------------------|
----------------------------|----------------------------|
----------------------------|----------------------------|
--4-4-4--4--4--4-4-4--4--4--|--4-4-4--4--4--4-4-4--4--4--|
--x-x-x--x--0--2-2-2--0--x--|--x-x-x--x--0--2-2-2--0--x--|
--2-2-2--4---------------4--|--2-2-2--4---------------4--|


Outro: (Distortion Guitar) play along with grand piano

     W                   W                   W
E||--2----------------|-------------------|-------------------|
B||--2----------------|-------------------|-------------------|
G||--2----------------|-------------------|-------------------|
D||--4----------------|-------------------|-------------------|
A||--4----------------|-------------------|-------------------|
E||--2----------------|-------------------|-------------------|


  W                   W
-------------------|-------------------||
-------------------|-------------------||
-------------------|-------------------||
-------------------|-------------------||
-------------------|-------------------||
-------------------|-------------------||


Outro: (Grand Piano) play along with distortion guitar

      S  S  S  S  S  S  S  S  S  S  S  S  S  S  S  S
E||--------------------------------------------------|
B||--10-10-10-10-10-10-10-10-14-14-14-12-12-12-10-10-|
G||--11-11-11-11-11-11-11-11-14-14-14-13-13-13-11-11-|
D||--------------------------------------------------|
A||--------------------------------------------------|
E||--------------------------------------------------|


   S  S  S  S  S  S  S  S  S  S  S  S  S  S  S  S
--------------------------------------------------|
--10-10-10-10--9--9--9--9-12-12-12-10-10-10--9--9-|
--11-11-11-11-10-10-10-10-13-13-13-11-11-11-10-10-|
--------------------------------------------------|
--------------------------------------------------|
--------------------------------------------------|


   S  S  S  S  S  S  S  S  S  S  S  S  S  S  S  S
--------------------------------------------------|
---9--9--9--9-10-10-10-10-14-14-14-14-14-14-14-14-|
--10-10-10-10-11-11-11-11-14-14-14-15-15-15-15-15-|
--------------------------------------------------|
--------------------------------------------------|
--------------------------------------------------|


                                                  ^                  
   S  S  S  S  S  S  S  S  S  S  S  S  E   E      W
----------------------------------------------|--14----------------||
--15-15-15-15-15-15-15-15-15-15-15-15-15--15--|--14----------------||
--16-16-16-16-16-16-16-16-16-16-16-16-16--16--|--14----------------||
----------------------------------------------|--16----------------||
----------------------------------------------|--------------------||
----------------------------------------------|--------------------||
comments
print report bad tab
12 comments total. Showing first comments.
+1 reply
Mega_Metal_Head wrote on February 7 2007, 08:13 am

Great tab mate... the best one there is!!!

+1 reply
BassPlayer_Dude wrote on February 7 2007, 12:37 pm

That's verry well done mate... thanks!!

+1 reply
MajaLeer wrote on February 7 2007, 02:35 pm

Woo! good job!

I want to post or [tab]
guest
You may want to rate the tab now too:
select rating
Please do not post tabs as comments. Select "correction" instead!