Oops, an error
Loading. Please wait.

Origin Of Symmetry Tab

by Muse
40,685 views 39 this week
no commentswrite comment
1 2 3 4 5
accurate
x 8
Autoscroll
+/-
esc
set tempo
stop
Contributor
Difficulty
intermediate
Hey! There's an official Ultimate Guitar app which is ideal
for learning songs when you're away from computer. Get the app
WARNING: You are trying to view
                                    content from Ultimate-Guitar.com
                                    in an unauthorized application,
                                    which is prohibited.

                                    Please use an official Ultimate
                                    Guitar Tabs application for iPhone,
                                    iPad or Android to access legitimate
                                    chords, guitar, bass, and drum tabs
                                    from Ultimate-Guitar.com database.

                                    Type "ultimate guitar tabs" in Apple
                                    App Store's or Android Market's
                                    search to find the application.
Note: These are NOT my tabs, i am just compiling them for easy reference. I have made 
adjustments where i saw fit, but other than that, none of my work.

I saw a bass album tab, but no guitar, so here it is.

Enjoy.

NEW BORN:

INTRO:
DROP D

e-------7-------7-------7-------7-------7------7-------7-------7---|
B-----8---8---8---8---7---7---7---7---8---8--8---8---7---7---7---7-|
G---9-------9-------8-------8-------9------9-------8-------8-------|
D------------------------------------------------------------------|
A------------------------------------------------------------------|
D------------------------------------------------------------------|


e-------7------7-------8-------8-------7-------7-------7------7----|
B-----8---8--8---8---8---8---8---8---8---8---8---8---7---7--7---7--|
G---9------9-------9-------9-------7-------7-------8------8--------|
D------------------------------------------------------------------|
A------------------------------------------------------------------|
D------------------------------------------------------------------|

REPEAT THIS A FEW TIMES THEN STRUM THE LAST BIT, THEN GO INTO MAIN
RIFF

RIFF:
REPEAT X3
e------------------------------------------------------------------|
B------------------------------------------------------------------|
G------------------------------------------------------------------|
D------------------------------------------------------------------|
A--------------------------0--0--0--0--3--0--3--4--5--------5------|
D--2--2--2--2--5--2--5--6-----------------------------0--0----0--0-|


e------------------------------------------------------------------||
B------------------------------------------------------------------||
G------------------------------------------------------------------||
D--------------------------------2--2--2--2--2--2--2--2--2--2--2--2||
A--------------------2--2--2--2--3--3--3--3--3--3--3--3--1--1--1--1||
D--3--4--5--5--5--5------------------------------------------------||


e------------------------------------------------------------------|
B------------------------------------------------------------------|
G------------------------------------------------------------------|
D--2--2--2--2--2--2--2--2--2--2--2--2--4--4--4--4--4--4--4--4------|
A--1--1--1--1--2--2--2--2--2--2--2--2--4--4--4--4--4--4--4--4------|
D------------------------------------------------------------------|

BASS PART:
REPEAT X4
G--------------|
D-----2--------|
A--------0--1--|
D--2-----------|


CHORUS:
REPEAT X4
e--12--12--12--12--7--7--7--7--12--12--12--12--7--7--7--7---------|
B--12--12--12--12--7--7--7--7--12--12--12--12--7--7--7--7---------|
G--12--12--12--12--8--8--8--8--12--12--12--12--8--8--8--8---------|
D-----------------------------------------------------------------|
A-----------------------------------------------------------------|
D-----------------------------------------------------------------|


e--12--12--12--12--12--12--12--12--12--12--12--12--7--7--7--7-----|
B--12--12--12--12--13--13--13--13--12--12--12--12--7--7--7--7-----|
G--12--12--12--12--12--12--12--12--12--12--12--12--8--8--8--8-----|
D-----------------------------------------------------------------|
A-----------------------------------------------------------------|
D-----------------------------------------------------------------|

THEN PLAY THIS X2 :
e-----------------------------------------------2--2--2--2------------|
B--------1--------------------------------------0--0--0--0------------|
G--------2--2-----------------------------------2--2--2--2------------|
D--------2--2--7--7/----12--12--12--5--5--5--5--1--1--1--1------------|
A--------------5--5/----10--10--10--3--3--3--3-------------2--2--2--2-|
D--2--5---------------------------------------------------------------|

e---------------------------------------------------------------|
B---------------------------------------------------------------|
G---------------------------------------------------------------|
D---------------------------------------------------------------|
A--4--4--4--4---------------------------------------------------|
D---------------<3>--<3>--<3>--<3>--<3>--<3>--<3>--<3>----------|

e---------------------------------------------------------------|
B---------------------------------------------------------------|
G---------------------------------------------------------------|
D---------------------------------------------------------------|
A---------------------------------------------------------------|
D--<2.5>--<2.5>--<2.5>--<2.5>--<2.5>--<2.5>--<2.5>--<2.5>-------|

e---------------------------------------------------------------|
B---------------------------------------------------------------|
G---------------------------------------------------------------|
D---------------------------------------------------------------|
A---------------------------------------------------------------|
D--<2>--<2>--<2>--<2>--<2>--<2>--<2>--<2>--<1.5>--<1.5>--<1.5>--|

e---------------------------------------------------------------|
B---------------------------------------------------------------|
G---------------------------------------------------------------|
D---------------------------------------------------------------|
A---------------------------------------------------------------|
D--<1.5>--<1.5>--<1.5>--<1.5>--<1.5>----------------------------|

SOLO:
PLAY THE SOLO WITH FAST TREMLO PICKING

e--19--15--12--15--11---19--14--11--14--10---19--15--12--15--11-|
B--//--//--//--//--//---//--//--//--//--//---//--//--//--//--//-|
G---------------------------------------------------------------|
D---------------------------------------------------------------|
A---------------------------------------------------------------|
D---------------------------------------------------------------|

e--19--14--11--14--10---19--15--12--19--20--15--12--20--19--15--|
B--//--//--//--//--//---//--//--//--//--//--//--//--//--//--//--|
G---------------------------------------------------------------|
D---------------------------------------------------------------|
A---------------------------------------------------------------|
D---------------------------------------------------------------|

e------------|
B--15--16^---|
G--//--//----|
D------------|
A------------|
D------------|

AFTER THE SOLO GO BACK TO THE CHORUS AND PLAY THE WHOLE THING
ALL THE WAY THROUGH BUT WHEN YOU GET TO THE SOLO PART PLAY THE
MAIN RIFF UNTIL THE END.


BLISS:

Intro
This is the synth, pretty tricky on guitar.
e|---------------------11-15-11--------------------|
B|------------------13----------13-----------------|
G|---------------12----------------12--------------|
D|---------10-13----------------------13-10--------|
A|------10----------------------------------10-----|
E|-8-11----------------------------------------11--|

e|---------------------10-13-10-------------------|
B|------------------11----------11----------------|
G|---------------10----------------10-------------|
D|------------12----------------------12----------|
A|---------13----------------------------13-------|
E|-6-10-13----------------------------------13-10-|

e|---------------4-8-4--------------|
B|-------------6-------6------------|
G|-----------5-----------5----------|
D|-------3-6---------------6-3------|
A|-----3-----------------------3----|
E|-1-4---------------------------4--|

e|---------------------11-15-11-------------------|
B|------------------13----------13----------------|
G|---------------12----------------12-------------|
D|---------10-13----------------------13-10-------|
A|------10----------------------------------10----|
E|-8-11----------------------------------------11-|

e|---------------------11-15-11--------------------|
B|------------------13----------13-----------------|
G|---------------12----------------12--------------|
D|---------10-13----------------------13-10--------|
A|------10----------------------------------10-----|
E|-8-11----------------------------------------11--|


Live Intro (This is the one Matt played at Glasto and is much easier)
e|-10-----------------|-10-----------------|-13-----------------|
B|-----13-------------|-----11-------------|-----13-------------|
G|---------12~--------|---------10~--------|---------13~--------|
D|--------------------|--------------------|--------------------|
A|--------------------|--------------------|--------------------|
E|--------------------|--------------------|--------------------|

Main Riff
e|------------------------------1--1--1--1----------------------------------1-1-----1-1---------------------------------|
B|-4--4--4--4-x-x-3-3-x-x-3-3-0-1--1--1--1-x-x-4-4-x-x-4-4-0-3--3--3--3-x-x-1-1-x-x-1-1---4--4--4--4--x-x-4-4-x-x-x-4-4-|
G|-5--5--5--5-x-x-3-3-x-x-3-3-0-1--1--1--1-x-x-5-5-x-x-5-5-0-3--3--3--3-x-x-1-1-x-x-1-1-0-5--5--5--5--x-x-5-5-x-x-x-5-5-|
D|-5--5--5--5-x-x-3-3-x-x-3-3-0-3--3--3--3-x-x-5-5-x-x-5-5-0-3--3--3--3-x-x-3-3-x-x-3-3-0-5--5--5--5--x-x-5-5-x-x-x-5-5-|
A|-3--3--3--3-x-x-1-1-x-x-1-1-0-3--3--3--3-x-x-3-3-x-x-3-3-0-1--1--1--1-x-x-3-3-x-x-3-3-0-3--3--3--3--x-x-3-3-x-x-x-3-3-|
E|------------------------------1--1--1--1-x-x------------------------------1-1-x-x-1-1-0-------------------------------|

Verse (This is my own version of what Matt plays)
e|-----------------------------------------------------|
B|-13----13--------------------------------------------|
G|----------15----15-10----10------------------------5-|
D|----------------------------10----10-8----8-3----3---| x2
A|-----------------------------------------------------|
E|-----------------------------------------------------|

Chorus
e|-----------------------------------|-----------------------------------|-1-1-1-1-1-1-1-1-|
B|-1-1-1-1--1-1-1-1--1-1-1-1-1-1-1-1-|-1-1-1-1--1-1-1-1------------------|-1-1-1-1-1-1-1-1-|
G|-0-0-0-0--2-2-2-2--0-0-0-0-0-0-0-0-|-0-0-0-0--2-2-2-2--1-1-1-1-1-1-1-1-|-1-1-1-1-1-1-1-1-|
D|-2-2-2-2--2-2-2-2--2-2-2-2-2-2-2-2-|-2-2-2-2--2-2-2-2--2-2-2-2-2-2-2-2-|-3-3-3-3-3-3-3-3-|
A|-3-3-3-3---------------------------|-3-3-3-3-----------2-2-2-2-2-2-2-2-|-3-3-3-3-3-3-3-3-|
E|-------------------3-3-3-3-3-3-3-3-|-------------------0-0-0-0-0-0-0-0-|-1-1-1-1-1-1-1-1-|

Back To Main Riff

2nd Verse same as first

2nd Chorus
e|-----------------------------------|-----------------------------------||-1-1-1-1-1-1-1-1-|
B|-1-1-1-1--1-1-1-1--1-1-1-1-1-1-1-1-|-1-1-1-1--1-1-1-1------------------||-1-1-1-1-1-1-1-1-|
G|-0-0-0-0--2-2-2-2--0-0-0-0-0-0-0-0-|-0-0-0-0--2-2-2-2--1-1-1-1-1-1-1-1-||-1-1-1-1-1-1-1-1-|
D|-2-2-2-2--2-2-2-2--2-2-2-2-2-2-2-2-|-2-2-2-2--2-2-2-2--2-2-2-2-2-2-2-2-||-3-3-3-3-3-3-3-3-|
A|-3-3-3-3---------------------------|-3-3-3-3-----------2-2-2-2-2-2-2-2-||-3-3-3-3-3-3-3-3-|
E|-------------------3-3-3-3-3-3-3-3-|-------------------0-0-0-0-0-0-0-0-||-1-1-1-1-1-1-1-1-|

Back To Intro

Bridge (Not too sure about this bit)
e|------------------------|----------------------------|--------------------------------|
B|------------------------|----------------------------|--------------------------------|
G|-5--5--5--5--5--5--5-5--|--7--7--7--7--7--7--7--7-7--|--10--10--10--8--8--8--7--7--7--|
D|------------------------|----------------------------|--------------------------------|
A|-3--3--3--3--3--3--3-3--|--5--5--5--5--5--5--5--5-5--|---8---8---8--6--6--6--5--5--5--|
E|------------------------|----------------------------|--------------------------------|

e|----------------------------|--------------------------|--------------------------|
B|----------------------------|--------------------------|--------------------------|
G|--8--8--8--7--7--7--5--5-5--|--7--7--7--5--5--5--3--3--|--------------------------|
D|----------------------------|--------------------------|--6--6--6--5--5--5--3--3--|
A|--6--6--6--5--5--5--3--3-3--|--5--5--5--3--3--3--1--1--|--------------------------|
E|----------------------------|--------------------------|--4--4--4--3--3--3--1--1--|

e|-------------------------------|-------------------------------|
B|-------------------------------|-------------------------------|
G|--5--5-5-5--5-5-5--5-5-5--5-5--|--5--5-5-5--5-5-5--5-5-5--5-5--|
D|-------------------------------|-------------------------------|
A|--3--3-3-3--3-3-3--3-3-3--3-3--|--3--3-3-3--3-3-3--3-3-3--3-3--|
E|-------------------------------|-------------------------------|

SPACE DEMENTIA:

Not much guitar, but here is what i found.

(5:11)its not accurate timing
e|-------------------------------------------------------------------------|
B|-------------------------------------------------------------------------|
G|-----------------------------------------------4-------------------------|
D|--2-------5------10-------9------8\4-------------------2------2-----4^---|
A|-----------------------------------------------2-------2-----------------|
E|--0-------3------8--------7------6\2-------------------0-----------------|

e|----------------------------------------|
B|----------------------------------------|
G|---------------------------------0------|
D|---------2----2-----1------------2------|
A|---------------------------------2------|
E|---------------------------------0------|

HYPER MUSIC:

DROP D TUNING-low to high(D-A-D-G-B-E)
CHORDS USED

D7#9
D7#9*
Dm
Am
G
Gm

INTRO                            Gtr.1(elec.)        D7#9
                                 w/heavy distortion
e||----------------------------||------------------||-------13---------------------|
B||--w/ad lib.pick scratching--||------------------||-------13-----12--13--12--11--|
G||----at top of neck----------||------------------||-------11---0-----------------|
D||----------------------------||------------------||-------12-----12--12--12--12--|
A||------Grad.accel.-----------||----------5/14\\--||------------------------------|
D||----------------------------||----x~~~----------||--0---------------------------|

                                                                         Gtr.1 + Gtr.2(elec.)
                                                                         w/crunch overdrive
e|-------13---------------------|-------13----------------------|-------12------------------||
B|-------13-----12--13--12--11--|-------13------12--13--12--11--|-------13------------------||
G|-------11---0-----------------|-------11---0------------------|-------12------------------||
D|-------12-----12--12--12--11--|-------12------12--12--12--12--|-------11------------------||
A|------------------------------|-------------------------------|---------------------------||
D|--0---------------------------|--0----------------------------|--0----------12-12--12\\\--||
                                                                                     Ooh,

   D7#9*
e||-------------------------------|--------------------------|
B||o------6-----------------------|-------6------------------|
G||-------5-----------------------|-------5------------------|
D||-------4-----------------------|-------4------3--3--3--3--|
A||o-----(5)----------------3--5--|------(5)-----2--3--2--1--|
D||--0--------0---3-3--5----------|--0--------0--------------|
    ooh.______________________________________________________

                                 [1.-----------------------------||
e|-------------------------------|-------------------------------||
B|-------6-----------------------|-------6----x--x-x----------o--||
G|-------5-----------------------|-------5----x--x-x--8--8--8----||
D|-------4-----------------------|-------4----x--x-x--7--7--7----||
A|------(5)----------------3--5--|------(5)---x--x-x----------o--||
D|--0--------0---3-3--5----------|--0----------------------------||
  ___________________________________                   Ooh,

 [2.---------------------------
                               Dm
                               Gtr.2 cont.in slashes  etc.
                                 v  v  v  v  v  v  v  v     v  v  v  v  v  v  v  v
                               Gtr.1
e|----------------------------|--------------------------|--------------------------||
B|-------6---x--x-x-----------|--------------------------|--------------------------||
G|-------5---x--x-x--8--8--8--|--------------------------|--------------------------||
D|-------4---x--x-x--7--7--7--|--------------------------|--------------------------||
A|------(5)--x--x-x-----------|--------------------------|--------------------------||
D|--0-------------------------|--0-----------------------|--------------------------||
  ___                                                           Mm___________________

   Dm                                  Am
                              cont.sim.
     v v v v v v v v v v v v v v v v
   Fuzz bass arr.for gtr.
e||-----------------------------------|------------------------------------|
B||o----------------------------------|------------------------------------|
G||-----------------------------------|------------------------------------|
D||-----------------------------------|------------------------------------|
A||o----------------------------------|------------------------------------|
D||--0---0---x-2---x-3---3---x-5---x--|--7---7---x-9---x-10--10--x-12---x--|
   ___ (Vocal ad lib.on rpt.)

                                     [1.---------------------------------][2.----------------------------------
    G                                 Gm                                   Gm
e|-----------------------------------|-----------------------------------||-----------------------------------||
B|-----------------------------------|----------------------------------o||-----------------------------------||
G|-----------------------------------|-----------------------------------||-----------------------------------||
D|-----------------------------------|-----------------------------------||-----------------------------------||
A|-----------------------------------|------------0---x-1---1---x-3---x-o||------------0---x-1---1---x-3---x--||
D|--5---5---x-5---x-5---5---x-5---x--|--5---5---x------------------------||--5---5---x------------------------||
                                                                           1.And   your gol-den skies__________

VERSE
    Dm                                   Am                                    G
                           cont.sim.
 Gtr.2 v  v  v  v  v  v  v  v
     2*Gtr.2 plays harmonics w/selector switch + whammy pedal
e||-----------------------------------|-------------------------------------|-----------------------------------|
B||o----------------------------------|-------------------------------------|-----------------------------------|
G||-----------------------------------|-------------------------------------|-----------------------------------|
D||-----------------------------------|-------------------------------------|-----------------------------------|
A||o----------------------------------|-------------------------------------|-----------------------------------|
D||--0---0---x-2---x-3---3---x-5---x--|--7---7---x-9--x-10---10---x-12---x--|--5---5---x-5---x-5---5---x-5---x--|
   _______________________________________              feed     my    role_____
   _______________________________________     than     I____    was   worth____

   Gm                                    Dm                                  Am
e|-------------------------------------|-----------------------------------|---------------------------------------|
B|-------------------------------------|-----------------------------------|---------------------------------------|
G|-------------------------------------|-----------------------------------|---------------------------------------|
D|-------------------------------------|-----------------------------------|---------------------------------------|
A|------------0---x---1---1---x-3---x--|-----------------------------------|---------------------------------------|
D|--5---5---x--------------------------|--0---0---x-2---x-3---3---x-5---x--|--7---7---x-9---x--10---10---x-12---x--|
       in this for - got-ten     space________________  race                   and und - 
   my     con - trol.__
       and you think  I  was     scared_______________ yeah.                       you  
- ed           proof__

    G                                  Gm                                  Dm
                                                                          2*Gtr.2 w/Fig.1
e|-----------------------------------|-----------------------------------|-----------------------------------|
B|-----------------------------------|-----------------------------------|-----------------------------------|
G|-----------------------------------|-----------------------------------|-----------------------------------|
D|-----------------------------------|-----------------------------------|-----------------------------------|
A|-----------------------------------|------------0---x-1---1---x-3---x--|-----------------------------------|
D|--5---5---x-5---x-5---5---x-5---x--|--5---5---x------------------------|--0---0---x-2---x-3---3---x-5---x--|
  ________________________________________                     Who's_________________________________________
  ________________________________________                     Who___________________________________________

   Am                                      G                                  Gm
e|--------------------------------------|-----------------------------------|-----------------------------------|
B|--------------------------------------|-----------------------------------|-----------------------------------|
G|--------------------------------------|-----------------------------------|-----------------------------------|
D|--------------------------------------|-----------------------------------|-----------------------------------|
A|--------------------------------------|-----------------------------------|------------0---x-1---1---x-3---x--|
D|--7---7---x-9---x-10---10---x-12---x--|--5---5---x-5---x-5---5---x-5---x--|--5---5---x------------------------|
  ___                              re - turned       from the  dead?____________                       Who______
  ___            really          cares                an - y - more?____________                       Who______

   Dm                                  Am                                      G
e|-----------------------------------|--------------------------------------|---------------------|
B|-----------------------------------|--------------------------------------|---------------------|
G|-----------------------------------|--------------------------------------|---------------------|
D|-----------------------------------|--------------------------------------|---------------------|
A|-----------------------------------|--------------------------------------|---------------------|
D|--0---0---x-2---x-3---3---x-5---x--|--7---7---x-9---x-10---10---x-12---x--|--5------------------|
  ______________________________________________________________     re  -  mains?
  ______________________________________________________________     re  -  strains?

**********************************************************************************************
* Fig.1                                                                                      *
* Gtr.2                                                                                      *
*     Dm                      Am                     G                                       *
* e|--10----------10----------|--8----------8---------|--7----------7--------|               *
* B|------10----------10------|-----10---------10-----|-----8----------8-----|               *
* G|----------10----------10--|---------9----------9--|--------7----------7--|               *
* D|--------------------------|-----------------------|----------------------|               *
* A|--------------------------|-----------------------|----------------------|               *
* D|--------------------------|-----------------------|----------------------|               *
*    Gm                      Dm                         Am                         G         *
* e|--6----------6--------|--10-------10--------------|--8---------8------------|--7------|| *
* B|-----8----------8-----|-----10-------10----10-----|----10--------10---10----|--8------|| *
* G|--------7----------7--|--------10-------10----10--|-------9---------9----9--|--7------|| *
* D|----------------------|---------------------------|-------------------------|---------|| *
* A|----------------------|---------------------------|-------------------------|---------|| *
* D|----------------------|---------------------------|-------------------------|---------|| *
*                                                                                            *
**********************************************************************************************

                                     D7#9
   */\ /\ /\ /\ /\ /\ /\ \/ /\ \/
e|--------------------------------|-------13---------------------|-------13---------------------|
B|--------------------------------|-------13-----12--13--12--11--|-------13-----12--13--12--11--|
G|--------------------------------|-------11---0-----------------|-------11---0-----------------|
D|--------------------------------|-------12-----12--12--12--12--|-------12-----12--12--12--12--|
A|--------------------------------|------------------------------|------------------------------|
D|--------------------------------|--0---------------------------|--0---------------------------|
  (just to spit it in your face)
 *Pick scrape /\=toward headstock
              \/=toward bridge

e|-------13---------------------|-----------13---------------------||
B|-------13-----12--13--12--11--|-----------13---------------------||
G|-------11---0-----------------|-----------11---------------------||
D|-------12-----12--12--12--12--|-----------12---------------------||
A|------------------------------|-------------------------5/15\\\--||
D|--0---------------------------|--0------------------x~~~~--------||
                                       You know  that I   don't

CHORUS
    D7#9*
   Gtrs 1+2
e||--------------------------|--------------------------|--------------------------|
B||-------6------------------|-------6------------------|-------6------------------|
G||-------5------------------|-------5------------------|-------5------------------|
D||-------4------------5--7--|-------4------3--3--3--3--|-------4------------5--7--|
A||------(5)-----3--5--3--5--|------(5)-----2--3--2--1--|------(5)-----3--5--3--5--|
D||--0--------0--3--5--------|--0--------0--------------|--0--------0--3--5--------|
   want  you.                    and I    nev-er  did.__________________
   love  you.

e|--------------------------|--------------------------|--------------------------|
B|-------6------------------|-------6------------------|-------6------------------|
G|-------5------------------|-------5------------------|-------5------------------|
D|-------4------3--3--3--3--|-------4------------5--7--|-------4------3--3--3--3--|
A|------(5)-----2--3--2--1--|------(5)-----3--5--3--5--|------(5)-----2--3--2--1--|
D|--0--------0--------------|--0--------0--3--5--------|--0--------0--------------|
                I   don't    want  you,                    and I    nev-er  will__

                            [1.----------------------------------------------
                                                         Dm
e|--------------------------|--------------------------|---------------------|
B|-------6------------------|-------6------------------|---------------------|
G|-------5------------------|-------5------------------|---------------------|
D|-------4------------5--7--|-------4------3--3--3--3--|---------------------|
A|------(5)-----3--5--3--5--|------(5)-----2--3--2--1--|---------------------|
D|--0 -------0--3--5--------|--0--------0--------------|--0------------------|
  ______________________________

  ----------------------------][2.------------------------------------------------------||
e|----------------------------||--------------------------|-----------------------------||
B|---------------------------o||-------6------------------|-------13--------------------||
G|----------------------------||-------5------------------|-------11--------------------||
D|----------------------------||-------4------3--3--3--3--|-------12---0-0/11--11--11---||
A|---------------------------o||------(5)-----2--3--2--1--|--------0--------------------||
D|----------------------------||--0--------0--------------|--0-----0--------------------||
  2.And you want-ed more______  ___    Waah!__________________

e|----------------------------|----------------------------|
B|-------13-------------------|-------13-------------------|
G|-------11-------------------|-------11-------------------|
D|-------12---0-0/11--11--11--|-------12---0-0/11--11--11--|
A|--------0-------------------|--------0-------------------|
D|--0-----0-------------------|--0-----0-------------------|

e|-------13-------------------------------|--------------------------|
B|-------13-------12b---------------------|--------------------------|
G|-------11-------12b--12-12-10h12p10-----|--10----------------------|
D|-------12--0-0----------------------12--|--------0-----------------|
A|--------0-------------------------------|--------------------3--5--|
D|--0-----0-------------------------------|------------0-4--5--------|

  D7#9
e|-----------------------------------|--------------------------|
B|-------6----12b--------------------|--------------------------|
G|-------5----12b--12-12-10-10-------|--10----------------------|
D|-------4---------------------12----|--------0-----------------|
A|-------5---------------------------|--------------------3--5--|
D|--0--------------------------------|------------0-4--5--------|

e|---------------------------------------|------------------------|-------------------||
B|-------6--x-x-14-14-14-14-14-14-14-14--|------------------------|-------------------||
G|-------5--x-x-13-13-13-13-13-13-13-13--|-------pb9--------------|------ad lib.------||
D|-------4--x-x--------------------------|------------------------|-------------------||
A|-------5--x-x--------------------------|------------------------|-------------------||
D|--0------------------------------------|--0---------------------|-------------------||

PLUG IN BABY:

STANDARD TUNING
CHORDS USED

F#5
F#(9b5)
G
Bm
Bm/F#
F#7aug
F#7
F#
D

INTRO
  Gtr.1(elec.)             [F#]
e|----------------------||--------------------------|---------------------------|
B|----------------------||o-------------------------|-----------7h8p7-----------|
G|--w/ad lib. feedback--||--------6--------6--7-----|--6--7--9---------9--7--6--|
D|----------------------||--8--9-----8--9--------9--|---------------------------|
A|----------------------||o-------------------------|---------------------------|
E|----------------------||--------------------------|---------------------------|

   [G]                                                      [D]
e|--------------------------|-----------------------------|--------------------------|
B|--------------------------|--------7--7h8p7------7------|--7-----------------7--9--|
G|-----6--7-----6--7--9--6--|--7--9------------10-----10--|-----7-----------7--------|
D|--9--------9--------------|-----------------------------|--------7-----7-----------|
A|--------------------------|-----------------------------|-----------9--------------|
E|--------------------------|-----------------------------|--------------------------|

    B                           [F#]
e|---------------------------||--------------------------|---------------------------||
B|--9br--7------7-----------o||--------------------------|-----------7h8p7-----------||
G|----------10-----7--6--7---||--------6--------6--7-----|--6--7--9---------9--7--6--||
D|---------------------------||--8--9-----8--9--------9--|---------------------------||
A|--------------------------o||--------------------------|---------------------------||
E|---------------------------||--------------------------|---------------------------||

VERSE
  Bass gtr.arr.for gtr.
     [G]                        Gtr.1 tacet                [D]
e||----------------------------|--------------------------|-------------------------|
B||o---------------------------|--------------------------|-------------------------|
G||----------------------------|--------------------------|-------7--------------7--|
D||--(9)-----5--------------5--|--------5--------------5--|-------------------7-----|
A||o---------------------5-----|--------------------5-----|--5--------x-5--5--------|
E||------3-------x-3--3--------|--3---------x-3--3--------|-------------------------|
                                1.I've ex  -  posed   your____  lies________________
                                           2.Don't    con - fuse

                            [F#]
e|-------------------------|-------------------------|--------------------------|
B|-------------------------|-------------------------|--------------------------|
G|-------7--------------7--|-------------------------|--------------------------|
D|-------------------7-----|-------4--------------4--|--------4--------------4--|
A|--5--------x-5--5--------|-------------------4-----|--------------------4-----|
E|-------------------------|--2--------x-2--2--------|--2---------x-2--2--------|
    _     ba      -     by.____                  The   un-der - neath's_   no
    _     ba - by you're gon-na           lose                  your____  own

     [G]                                               [D]
                                                      Gtr.1
e|-------------------------|-------------------------|------------------------|
B|-------------------------|-------------------------|--10--------------------|
G|-------------------------|-------------------------|------11----------------|
D|-------5--------------5--|-------5--------------5--|----------12------------|
A|-------------------5-----|-------------------5-----|------------------------|
E|--3--------x-3--3--------|--3--------x-3--3--------|------------------------|
   big    sur-prise,                now it's time_________              for
  game.

                    [F#]
e|----------------|------------------------|----------------|
B|----------------|--11--------------------|----------------|
G|----------------|------11----------------|----------------|
D|----------------|----------11------------|----------------|
A|----------------|------------------------|----------------|
E|----------------|------------------------|----------------|
   chan  -  ging____________________  and     clean-sing ev-
  Change    me______________________         re-place the en-

   [G]                                       [D]
e|------------------------|----------------|------------------------|
B|--12--------------------|----------------|--10--------------------|
G|------12----------------|----------------|------11----------------|
D|----------12------------|----------------|----------12------------|
A|------------------------|----------------|------------------------|
E|------------------------|----------------|------------------------|
        -    'ry - thing   to for-get your______  love.______________
        -     vy - ing     to for-get your______  love.______________

                    F#5                               F#(b5)
e|----------------|----------------------------------|----------------------------------||
B|----------------|----------------------------------|----------------------------------||
G|----------------|--11--11--11--11--11--11--11--11--|----------------------------------||
D|----------------|--11--11--11--11--11--11--11--11--|--10--10--10--10--10--10--10--10--||
A|----------------|---9---9---9---9---9---9---9---9--|---9---9---9---9---9---9---9---9--||
E|----------------|----------------------------------|----------------------------------||
  _                w/distortion                       Gtr.1 + Gtr.2(elec)
  _}

CHORUS
    G                                                     Bm
e|--3--3--3--3--3--3--3--3--|--3--3--3--3--3--3--3--3--|--2--2--2--2--2--2--2--2--|
B|--3--3--3--3--3--3--3--3--|--3--3--3--3--3--3--3--3--|--3--3--3--3--3--3--3--3--|
G|--4--4--4--4--4--4--4--4--|--4--4--4--4--4--4--4--4--|--4--4--4--4--4--4--4--4--|
D|--5--5--5--5--5--5--5--5--|--5--5--5--5--5--5--5--5--|--4--4--4--4--4--4--4--4--|
A|--5--5--5--5--5--5--5--5--|--5--5--5--5--5--5--5--5--|--2--2--2--2--2--2--2--2--|
E|--3--3--3--3--3--3--3--3--|--3--3--3--3--3--3--3--3--|--------------------------|
                  And my     plug-in    ba - by____________

    Bm/F#                      G
e|--2--2--2--2--2--2--2--2--|--3--3--3--3--3--3--3--3--|--3--3--3--3--3--3--3--3--|
B|--3--3--3--3--3--3--3--3--|--3--3--3--3--3--3--3--3--|--3--3--3--3--3--3--3--3--|
G|--4--4--4--4--4--4--4--4--|--4--4--4--4--4--4--4--4--|--4--4--4--4--4--4--4--4--|
D|--4--4--4--4--4--4--4--4--|--5--5--5--5--5--5--5--5--|--5--5--5--5--5--5--5--5--|
A|--2--2--2--2--2--2--2--2--|--5--5--5--5--5--5--5--5--|--5--5--5--5--5--5--5--5--|
E|--2--2--2--2--2--2--2--2--|--3--3--3--3--3--3--3--3--|--3--3--3--3--3--3--3--3--|
   cru-ci - fies__ my    en  -  em-ies.     When I'm    tired   of giv  -  ing.____

    Bm                       F#7aug       F#7             G
e|--2--2--2--2--2--2--2--2--|--0--0--0--0--0--0--0--0--|--3--3--3--3--3--3--3--3--|
B|--3--3--3--3--3--3--3--3--|--3--3--3--3--2--2--2--2--|--3--3--3--3--3--3--3--3--|
G|--4--4--4--4--4--4--4--4--|--3--3--3--3--3--3--3--3--|--4--4--4--4--4--4--4--4--|
D|--4--4--4--4--4--4--4--4--|--4--4--4--4--4--4--4--4--|--5--5--5--5--5--5--5--5--|
A|--2--2--2--2--2--2--2--2--|--------------------------|--5--5--5--5--5--5--5--5--|
E|--------------------------|--2--2--2--2--2--2--2--2--|--3--3--3--3--3--3--3--3--|
  ______________________________             Woh.__________             And my

                               Bm                       Bm/F#
e|--3--3--3--3--3--3--3--3--|--2--2--2--2--2--2--2--2--|--2--2--2--2--2--2--2--2---||
B|--3--3--3--3--3--3--3--3--|--3--3--3--3--3--3--3--3--|--3--3--3--3--3--3--3--3---||
G|--4--4--4--4--4--4--4--4--|--4--4--4--4--4--4--4--4--|--4--4--4--4--4--4--4--4---||
D|--5--5--5--5--5--5--5--5--|--4--4--4--4--4--4--4--4--|--4--4--4--4--4--4--4--4---||
A|--5--5--5--5--5--5--5--5--|--2--2--2--2--2--2--2--2--|--2--2--2--2--2--2--2--2---||
E|--3--3--3--3--3--3--3--3--|--------------------------|--2--2--2--2--2--2--2--2---||
  plug-in    ba - by____________             in  un   -  bro-ken  vir - gin re-al--||

    G                                                     D
e|--3--3--3--3--3--3--3--3--|--3--3--3--3--3--3--3--3--|--------------------------|
B|--3--3--3--3--3--3--3--3--|--3--3--3--3--3--3--3--3--|--7--7--7--7--7--7--7--7--|
G|--4--4--4--4--4--4--4--4--|--4--4--4--4--4--4--4--4--|--7--7--7--7--7--7--7--7--|
D|--5--5--5--5--5--5--5--5--|--5--5--5--5--5--5--5--5--|--7--7--7--7--7--7--7--7--|
A|--5--5--5--5--5--5--5--5--|--5--5--5--5--5--5--5--5--|--5--5--5--5--5--5--5--5--|
E|--3--3--3--3--3--3--3--3--|--3--3--3--3--3--3--3--3--|--------------------------|
    - it-ies,            is  tired  of liv - ing.__________

                            [1.-----------------------------------------------------
                               F#
e|--------------------------|--------------------------|---------------------------|
B|--7--7--7--7--7--7--7--7--|--------------------------|-----------7h8p7-----------|
G|--7--7--7--7--7--7--7--7--|--------6--------6--7-----|--6--7--9---------9--7--6--|
D|--7--7--7--7--7--7--7--7--|--8--9-----8--9--------9--|---------------------------|
A|--5--5--5--5--5--5--5--5--|--------------------------|---------------------------|
E|--------------------------|--------------------------|---------------------------|
        Ooh.________________________________________________

 -------------------------------------------------------------------------------------
    G                                                        D
e|--------------------------|-----------------------------|--------------------------|
B|--------------------------|--------7--7h8p7------7------|--7-----------------7--9--|
G|-----6--7-----6--7--9--6--|--7--9------------10-----10--|-----7-----------7--------|
D|--9--------9--------------|-----------------------------|--------7-----7-----------|
A|--------------------------|-----------------------------|-----------9--------------|
E|--------------------------|-----------------------------|--------------------------|

 ------------------------------------------------------------------------------------]
    B                          F#
e|--------------------------|--------------------------|----------------------------||
B|--9br--7------7-----------|--------------------------|-----------7h8p7-----------o||
G|----------10-----7--6--7--|--------6--------6--7-----|--6--7--9---------9--7--6---||
D|--------------------------|--8--9-----8--9--------9--|----------------------------||
A|--------------------------|--------------------------|---------------------------o||
E|--------------------------|--------------------------|----------------------------||

 [2.-------------------------
    F#                                                     G
e|--------------------------|---------------------------|--------------------------|
B|--------------------------|-----------7h8p7-----------|--------------------------|
G|--------6--------6--7-----|--6--7--9---------9--7--6--|-----6--7-----6--7--9--6--|
D|--8--9-----8--9--------9--|---------------------------|--9--------9--------------|
A|--------------------------|---------------------------|--------------------------|
E|--------------------------|---------------------------|--------------------------|
                               And I've seen__ your_      lov    -     ing._________

                                  D
e|-----------------------------|--------------------------|--------------------------|
B|--------7--7h8p7------7------|--7-----------------7--9--|--9br--7------7-----------|
G|--7--9------------10-----10--|-----7-----------7--------|----------10-----7--6--7--|
D|-----------------------------|--------7-----7-----------|--------------------------|
A|-----------------------------|-----------9--------------|--------------------------|
E|-----------------------------|--------------------------|--------------------------|
  ___          mine        is______  gone.____________________________________________

    F#                                                     G
e|--------------------------|---------------------------|--------------------------|
B|--------------------------|-----------7h8p7-----------|--------------------------|
G|--------6--------6--7-----|--6--7--9---------9--7--6--|-----6--7-----6--7--9--6--|
D|--8--9-----8--9--------9--|---------------------------|--9--------9--------------|
A|--------------------------|---------------------------|--------------------------|
E|--------------------------|---------------------------|--------------------------|
  ___             and I've       been_________ in___     trou    -    ble.

                                  D                          B
e|-----------------------------|--------------------------|--------------------------|
B|--------7--7h8p7------7------|--7-----------------7--9--|--9br--7------7-----------|
G|--7--9------------10-----10--|-----7-----------7--------|----------10-----7--6--7--|
D|-----------------------------|--------7-----7-----------|--------------------------|
A|-----------------------------|-----------9--------------|--------------------------|
E|-----------------------------|--------------------------|--------------------------|
             Woo,_________        Ahh,________________________________________________

    F#                                                     G
e|--------------------------|---------------------------|--------------------------|
B|--------------------------|-----------7h8p7-----------|--------------------------|
G|--------6--------6--7-----|--6--7--9---------9--7--6--|-----6--7-----6--7--9--6--|
D|--8--9-----8--9--------9--|---------------------------|--9--------9--------------|
A|--------------------------|---------------------------|--------------------------|
E|--------------------------|---------------------------|--------------------------|
  ___

                                  D                          B
e|-----------------------------|--------------------------|--------------------------|
B|--------7--7h8p7------7------|--7-----------------7--9--|--9br--7------7-----------|
G|--7--9------------10-----10--|-----7-----------7--------|----------10-----7--6--7--|
D|-----------------------------|--------7-----7-----------|--------------------------|
A|-----------------------------|-----------9--------------|--------------------------|
E|-----------------------------|--------------------------|--------------------------|

    F#                                                     G
e|--------------------------|---------------------------|------------------||
B|--------------------------|-----------7h8p7-----------|------------------||
G|--------6--------6--7-----|--6--7--9---------9--7--6--|------------------||
D|--8--9-----8--9--------9--|---------------------------|--9---------------||
A|--------------------------|---------------------------|------------------||
E|--------------------------|---------------------------|------------------||

CITIZEN ERASED:

Intro: Part one (All fretted notes are harmonics in this section)
To get these harmonics restring to a heavier guage...

e|---------------------------------------------------------------|
B|---------------------------------------------------------------|
G|---------------------------------------------------------------|
D|---------------------------------------------------------------|  x1
A|-----2-0-2-0-0-2-0--2-0-2-----2-0-2-0-2-0-2-0-2----------------|
E|-0-0-------------------------0-0-------------------------------|

e|---------------------------------------------------------------|
B|---------------------------------------------------------------|
G|---------------------------------------------------------------| x2
D|---------------------------------------------------------------|
A|-----3-0-3-3-0-3-3-0-3------3-0-3-3-0-3-3-0-3------------------|
E|-0-0----------------------0-0----------------------------------|

End on

e|---------------------------------------------------------------|
B|---------------------------------------------------------------|
G|---------------------------------------------------------------|
D|---------------------------------------------------------------|
A|-----3-0-3-----------------------------------------------------|
E|-0-0-----------------------------------------------------------|

Intro Part Two!

e|---------------------------------------------------------------|
B|---------------------------------------------------------------|
G|---------------------------------------------------------------|
D|---------------------------------------------------------------|
A|-0-0-12-0-12--12---12-12-0-12----------------------------------|
E|-0-0-12-0-12--12-0-12-12-0-12----------------------------------|

Play the same amount as the above, but instead of the twelve
use these, play the ame amount for each one, replacing the
last with the next eachtime, an queries about this just post.

e|---------------------------------------------------------------|
B|---------------------------------------------------------------|
G|---------------------------------------------------------------|
D|---------------------------------------------------------------|
A|-10-----8------7-----------------------------------------------|
E|-10-----8------7-----------------------------------------------|

Verse Part One (use distortion, delay and volume swells)

e|---------------------------------------------------------------|
B|---------------------------------------------------------------|
G|---------------------------------------------------------------|
D|---------------------------------------------------------------|
A|-0-12-12-0-12-12-0-12-0-12-12-0-12-0-12-12---------------------|
E|---------------------------------------------------------------|

Now do the same as for intro part two replace the twelves with

e|---------------------------------------------------------------|
B|---------------------------------------------------------------|
G|---------------------------------------------------------------|
D|---------------------------------------------------------------|
A|-14--------15-------17------15---------------------------------|
E|---------------------------------------------------------------|
Then

e|-------------------------------------------------------------------|
B|-------------------------------------------------------------------|
G|-------------------------------------------------------------------|
D|-------------------------------------------------------------------|
A|-12-14-14-12-14-14-12-14-12-12-14-14-12-14-12-14-12----------------|
E|-------------------------------------------------------------------|

e|---------------------------------------------------------------|
B|---------------------------------------------------------------|
G|---------------------------------------------------------------|
D|---------------------------------------------------------------|
A|-0-12-12-0-12-12-0-12-0-12-0-12-12-0-12-0-12/10----------------|
E|---------------------------------------------------------------|
End with

e|---------------------------------------------------------------|
B|---------------------------------------------------------------|
G|---------------------------------------------------------------|
D|---------------------------------------------------------------|
A|-0-11-0-11-11-0-11-0-11-11-0-11-0-11-0-------------------------|
E|---------------------------------------------------------------|

Verse Part Two: Play this whole section twice
Figure the strumming for yourself

e|----------------------------------------------------------------------|
B|----------------------------------------------------------------------|
G|------2---2-2-2-2-2-2-2-2-2------4---4-4-4-4-4-4-4-4-4----------------|
D|------x---x-x-x-x-x-x-x-x-x------x---x-x-x-x-x-x-x-x-x----------------|
A|------0---0-0-0-0-0-0-0-0-0------2---2-2-2-2-2-2-2-2-2----------------|
E|-0-0----------------------------0-0-----------------------------------|

e|----------------------------------------------------------------------|
B|----------------------------------------------------------------------|
G|-----5---5-5-5-5-5-5-5-5-5------7---7-7-7-7-7-7-7-7-7-----------------|
D|-----x---x-x-x-x-x-x-x-x-x------x---x-x-x-x-x-x-x-x-x-----------------|
A|-----3---3-3-3-3-3-3-3-3-3------5---5-5-5-5-5-5-5-5-5-----------------|
E|-0-0---------------------------0-0------------------------------------|

Remember to play twice ^

Verse Part Three!
Once again work out the strumming
On the second section the 8's and 10's are one chord

e|-----------------------------------------------------------------------|
B|-----------------------------------------------------------------------|
G|-------------------5-5-5-5-5-5-5-5-------------------------------------|
D|-7-7-7-7-7-7-7-7-5-5-5-5-5-5-5-5-6-6-6-6-6-6-6-6-7-7-7-7---------------|
A|-8-8-8-8-8-8-8-8-3-3-3-3-3-3-3-3-7-7-7-7-7-7-7-7-0-0-0-0---------------|
E|-8-8-8-8-8-8-8-8-3-3-3-3-3-3-3-3-7-7-7-7-7-7-7-7-0-0-0-0---------------|

e|---------------------------------------------------------------------|
B|---------------------------------------------------------------------|
G|--------------10-10-10-10-10-10-10-10-- 5-5-5-5-5-5-5-5--------------|
D|--9--9---9--9-10-10-10-10-10-10-10-10---5-5-5-5-5-5-5-5--------------|
A|-10-10-10-10-8--8--8--8--8---8---8---8----3-3-3-3-3-3-3--------------|
E|-10-10-10-10-8--8--8--8--8---8---8---8----3-3-3-3-3-3-3--------------|

Verse finishes with this (there should be 16 my eyes are fuzzy)
e|-----------------------------------------------------------------------|
B|-----------------------------------------------------------------------|
G|-----------------------------------------------------------------------|
D|-9-9-9-9-9-9-9-9-9-9-9-9-9-9-9-9-9-9-----------------------------------|
A|-7-7-7-7-7-7-7-7-7-7-7-7-7-7-7-7-7-7-----------------------------------|
E|-7-7-7-7-7-7-7-7-7-7-7-7-7-7-7-7-7-7-----------------------------------|

Chorus! Now if your still awake, this is quite hard to play!
Erm your best chance is to use alternate picking!

e|----------1----------------0---1------------0-------------0--------0---|
B|-----1--------1-------1-----0---0------0-------0------1----1---1---1---|
G|---2---2---2---2---0---0------------1---1---1---1-2---------0----------|
D|-3----------------2----------------2-----------------------------------|
A|-----------------------------------------------------------------------|
E|-----------------------------------------------------------------------|

Play that three times then end part one of the
chorus with

e|------------1----------------0--------|------------------------------|
B|------1---------1-------1--------1----|------------------------------|
G|---2----2----2---2---0---0---0----0---|------------------------------|
D|-3------------------2-----------------|---9>-------------------------|
A|--------------------------------------|---7>-------------------------|
E|--------------------------------------|---7>-------------------------|

Chorus Part Two!

e|------5-----8-----7-----6-----5-----5----4-----3----------3------------|
B|--------5-----5-----5-----5-----3-----3----3-----3------3----3---------|
G|-2/5-----5-----5-----5-----5-----5-----5----5-----5-4------------------|
D|-----------------------------------------------------------------------|
A|-----------------------------------------------------------------------|
E|-----------------------------------------------------------------------|

e|-------3------2------1------2------3-------4-------4-------------------|
B|----1----1------1------1------1-----1---3---3---3---3------3-----------|
G|-2---------2------2------2------2-----4--------4----------4------4-----|
D|----------------------------------------------------------3------2-----|
A|-----------------------------------------------------------------------|
E|-----------------------------------------------------------------------|

e|-------5------6------7------8------7---------7------8------9-----------|
B|----5----5------5------5------5------0----8---8------8------8----------|
G|-5---------5------5------5------5-------7--------7------7------7-------|
D|-----------------------------------------------------------------------|
A|-----------------------------------------------------------------------|
E|-----------------------------------------------------------------------|

Pre - Solo Part One (Play Twice)

e|---------8--------9---------10---------11---------12------------12-----|
B|-----10---10-------10---------10---------10---------10------9----------|
G|-10-----------10-------10---------10---------10-----------9------------|
D|------------------------------------------------------------9----------|
A|-----------------------------------------------------------------------|
E|-----------------------------------------------------------------------|

e|-----------------------------------------------------------------------|
B|--------------------0-0-0-0-0-0-0-0-0----------------------------------|
G|-1-1-1-1-1-1-1-1-1-1-1-1-1-1-1-1-1-------------------------------------|
D|-2-2-2-2-2-2-2-2-2-2-2-2-2-2-2-2-2-------------------------------------|
A|-----------2-2-2-2-2-2-2-2-2-2-2-2-2-----------------------------------|
E|-----------------------------------------------------------------------|

Pre- Solo Part Two (Same rule as intro)

e|----------------------------------------------------------------------|
B|----------------------------------------------------------------------|
G|----------------------------------------------------------------------|
D|-2--------------------------------------------------------------------|
A|-0-----2-0-2-0-2-0-2-0-2-----2-0-2-0-2-0-2-0-2------------------------|
E|---0-0----------------------0-0---------------------------------------|

e|-----------------------------------------------------------------------|
B|-----------------------------------------------------------------------|
G|-----------------------------------------------------------------------|
D|-----------------------------------------------------------------------|
A|---3-0-3-3-0-3-3-0-3--------3-0----------------------------------------|
E|-0----------------------12-12------5/19\5/15\5-------------------------|

e|----------------------------------------------------------------------|
B|----------------------------------------------------------------------|
G|----------------------------------------------------------------------|
D|-2--------------------------------------------------------------------|
A|-0-----2-0-2-0-2-0-2-0-2-----2-0-2-0-2-0-2-0-2------------------------|
E|---0-0----------------------0-0---------------------------------------|

e|-----------------------------------------------------------------------|
B|--------------------------------12-------------------------------------|
G|-----------------------------------------------------------------------|
D|-----------------------------------------------------------------------|
A|------3-0-3-3-0-3-3-0-3------------------------------------------------|
E|-0-0-----------------------0-0-----0-----------------------------------|

Solo: A Crazy amount of effects are used, so tabbing this will
be very hard, use whammy and lots of feedback.

e|-----------------------------------------------------------------------|
B|--12b13----------------------------------------------------------------|
G|----------9b10--11b12-13b14-13~-13-13-14-14-14-14-14-------------------|
D|-----------------------------------------------------------------------|
A|-----------------------------------------------------------------------|
E|-----------------------------------------------------------------------|

e|-----------------------------------------------------------------------|
B|-----------------------------------------------------------------------|
G|-16-16-16-16-16-16-16-16-16-16b17-19-19-19-19b21-----------------------|
D|-----------------------------------------------------------------------|
A|-----------------------------------------------------------------------|
E|-----------------------------------------------------------------------|

e|-----------------------------------------------------------------------|
B|-----------------------------------------------------------------------|
G|-17-16-17-16-14-14-21b23-23b24-20-17-20-20-20b22-12b14-----------------|
D|-----------------------------------------------------------------------|
A|-----------------------------------------------------------------------|
E|-----------------------------------------------------------------------|

Solo ending

e|------------------------------------------0~*---------------------------|
B|---------------------------------------0--------------------------------|
G|------2--2b4---4~----0-4b6r4-2-1----------------------------------------|
D|-9------------0-------------------------------2b3-----------------------|
A|-7----------------------------------------------------------------------|
E|-7----------------------------------------------------------------------|

Play that twice then end on

e|-0---------------------------------------------------------------------|
B|-----------------------------------------------------------------------|
G|--------4/5------------------------------------------------------------|
D|---1/2-----------------------------------------------------------------|
A|-----------------------------------------------------------------------|
E|-----------------------------------------------------------------------|

Outro (Play Twice, then piano till end)

e|-0--------0---------0-------0-------0--------0--------0----------------|
B|---5---5----5----5---5---5---5---5---5---5---3---3----3----3-----------|
G|-----5---------5--------5-------5--------5-------4---------4-----------|
D|-----------------------------------------------------------------------|
A|-----------------------------------------------------------------------|
E|-----------------------------------------------------------------------|

e|-0-------0---------0-------0--------0----------------------------------|
B|---3---3---3----3---1---1---1---0--------------------------------------|
G|-----4--------4--------2-------1---------------------------------------|
D|-----------------------------------------------------------------------|
A|-----------------------------------------------------------------------|
E|-----------------------------------------------------------------------|

| / slide up
| \ slide down
| h hammer-on
| p pull-off
| ~ vibrato
| + harmonic
| x Mute note
| b Bend
| r Release
| ~* Whammy Bar!

MICROCUTS:

DROP-D TUNING (low to high) D A D G B E
CHORDS USED
Dm
Gm
D
A7
D7b9
E7#9
Adim
A7sus4
A7

INTRO
Gtr.1 (elec.)
     Dm
e||--------------10-----------|--------------10-----------|--------------10-----------|--------------10-----------||
B||o-------10-------10----10--|--------10-------10----10--|--------10-------10----10--|--------10-------10----10-o||
G||-----10----10-------10-----|-----10----10-------10-----|-----10----10-------10-----|-----10----10-------10-----||
D||--12-----------------------|--12-----------------------|--12-----------------------|--12-----------------------||
A||o--------------------------|---------------------------|---------------------------|--------------------------o||
D||---------------------------|---------------------------|---------------------------|---------------------------||
   w/slight distortion

                                       Gm(E bass)                         Dm(F bass)     D(F# bass)
e|------------------10--------------|------------------10--------------|--------------10-------------10--|
B|----------10----------10------10--|----------11----------11------11--|----------10-------------10------|
G|------10------10----------10------|------12------12----------12------|------10-------------11----------|
D|--12------------------------------|--12------------------------------|--12-------------12--------------|
A|----------------------------------|----------------------------------|---------------------------------|
D|----------------------------------|----------------------------------|---------------------------------|

    Gm                                                                              Dm
e|--------------10----------10-----------|--------------10----------10-----------|--------------10----------10-----------|
B|--------11-------11----11----11----11--|--------11-------11----11----11----11--|--------10-------10----10----10----10--|
G|-----12----12-------12----------12-----|-----12----12-------12----------12-----|-----10----10-------10----------10-----|
D|--12-----------------------------------|--12-----------------------------------|--12-----------------------------------|
A|---------------------------------------|---------------------------------------|---------------------------------------|
D|---------------------------------------|---------------------------------------|---------------------------------------|

    A7(C# bass)                             Dm
e|--------------12----------12-----------|--------------10----------10-----------|-----------10----------10----------10--||
B|--------10-------10----10----10----10--|--------10-------10----10----10----10--|--------10----------10----------10-----||
G|-----12----12-------12----------12-----|-----10----10-------10----------10-----|-----10----------10----------10--------||
D|--11-----------------------------------|--12-----------------------------------|--12----------12----------12-----------||
A|---------------------------------------|---------------------------------------|---------------------------------------||
D|---------------------------------------|---------------------------------------|---------------------------------------||

$
VERSE
    Dm                                 Gm(E bass)
e||------------------10--------------|------------------10--------------|
B||o---------10----------10------10--|----------11----------11------11--|
G||------10------10----------10------|------12------12----------12------|
D||--12------------------------------|--12------------------------------|
A||o---------------------------------|----------------------------------|
D||----------------------------------|----------------------------------|
   Hands                               are
   Whim               -                pers
   (Verses 3+4 see block lyric)

    Dm(F bass)      D(F# bass)         Gm
e|--------------10--------------10--|--------------10----------10-----------|--------------10----------10-----------|
B|----------10--------------10------|--------11-------11----11----11----11--|--------11-------11----11----11----11--|
G|------10--------------11----------|-----12----12-------12----------12-----|-----12----12-------12----------12-----|
D|--12--------------12--------------|--12-----------------------------------|--12-----------------------------------|
A|----------------------------------|---------------------------------------|---------------------------------------|
E|----------------------------------|---------------------------------------|---------------------------------------|
   red             with__________________   your   blame,_________________________
  some      -      one___________________     I    should    have    loved

    Dm                                      A7(C# bass)                             Dm
e|--------------10----------10-----------|--------------12----------12-----------|--------------10----------10-----------|
B|--------10-------10----10----10----10--|--------10-------10----10----10----10--|--------10-------10----10----10----10--|
G|-----10----10-------10----------10-----|-----12----12-------12----------12-----|-----10----10-------10----------10-----|
D|--12-----------------------------------|--11-----------------------------------|--12-----------------------------------|
A|---------------------------------------|---------------------------------------|---------------------------------------|
D|---------------------------------------|---------------------------------------|---------------------------------------|
   meg - a - phone_______                  screaming_________________     my       name._________________________________
   souls                                   weeping___________________     a   -   bove.__________________________________

 [1.3.----------------------------------------------][2.4.-------------------------
                                                       N.C.
e|--------------10--------------10--------------10--||--x--x----x--x----x--x------||
B|----------10--------------10--------------10-----o||--x--x----x--x----x--x------||
G|------10--------------10--------------10----------||--x--x----x--x----x--x------||
D|--12--------------12--------------12--------------||----------------------------||
A|-------------------------------------------------o||----------------------------||
D|--------------------------------------------------||----------------------------||
  ___                                                                  I've
  ___}

CHORUS
  Gtr.1+Gtr.2(elec.)
   (Gm)                       (D7b9)                       (Gm)
e||--6--6--6--6--6--6--6--6--|--------------------------|--6--6--6--6--6--6--6--6--|
B||--8--8--8--8--8--8--8--8--|--------------------------|--8--8--8--8--8--8--8--8--|
G||--7--7--7--7--7--7--7--7--|--------------------------|--7--7--7--7--7--7--7--7--|
D||--5--5--5--5--5--5--5--5--|--4--4--4--4--4--4--4--4--|--5--5--5--5--5--5--5--5--|
A||--5--5--5--5--5--5--5--5--|--0--0--0--0--0--0--0--0--|--5--5--5--5--5--5--5--5--|
D||--5--5--5--5--5--5--5--5--|--0--0--0--0--0--0--0--0--|--5--5--5--5--5--5--5--5--|
    seen___________________________________________________________________________
  Gtr.2 w/heavy distortion

                                                        (D7b9)
e|--6--6--6--6--6--6--6--6--|--6--6--6--6--6--6--6--6--|--------------------------|
B|--8--8--8--8--8--8--8--8--|--8--8--8--8--8--8--8--8--|--------------------------|
G|--7--7--7--7--7--7--7--7--|--7--7--7--7--7--7--7--7--|--------------------------|
D|--5--5--5--5--5--5--5--5--|--5--5--5--5--5--5--5--5--|--4--4--4--4--4--4--4--4--|
A|--5--5--5--5--5--5--5--5--|--5--5--5--5--5--5--5--5--|--0--0--0--0--0--0--0--0--|
D|--5--5--5--5--5--5--5--5--|--5--5--5--5--5--5--5--5--|--0--0--0--0--0--0--0--0--|
  ___            what you're  do             -            ing_______________  to

  (Gm)
e|--6--6--6--6--6--6--6--6--|--6--6--6--6--6--6--6--6--|--6--6--6--6--6--6--6--6--|
B|--8--8--8--8--8--8--8--8--|--8--8--8--8--8--8--8--8--|--8--8--8--8--8--8--8--8--|
G|--7--7--7--7--7--7--7--7--|--7--7--7--7--7--7--7--7--|--7--7--7--7--7--7--7--7--|
D|--5--5--5--5--5--5--5--5--|--5--5--5--5--5--5--5--5--|--5--5--5--5--5--5--5--5--|
A|--5--5--5--5--5--5--5--5--|--5--5--5--5--5--5--5--5--|--5--5--5--5--5--5--5--5--|
D|--5--5--5--5--5--5--5--5--|--5--5--5--5--5--5--5--5--|--5--5--5--5--5--5--5--5--|
   me.__________________________                De   -   stroy          -

  (D7b9)*                            (E7#9)                             (Abdim)
e|----------------------------------|--10--10--10--10--10--10--10--10--|----------------------------------|
B|--13--13--13--13--13--13--13--13--|---9---9---9---9---9---9---9---9--|--12--12--12--12--12--12--12--12--|
G|--11--11--11--11--11--11--11--11--|--12--12--12--12--12--12--12--12--|--10--10--10--10--10--10--10--10--|
D|--12--12--12--12--12--12--12--12--|--12--12--12--12--12--12--12--12--|--12--12--12--12--12--12--12--12--|
A|--12--12--12--12--12--12--12--12--|--10--10--10--10--10--10--10--10--|--11--11--11--11--11--11--11--11--|
D|---0---0---0---0---0---0---0---0--|----------------------------------|----------------------------------|
  - ing                               pup  -  pet     strings______________                   to     our

  (A7sus4)
e|----------------------------------|----------------------------------|
B|--10--10--10--10--10--10--10--10--|--10--10--10--10--10--10--10--10--|
G|--12--12--12--12--12--12--12--12--|--12--12--12--12--12--12--12--12--|
D|--12--12--12--12--12--12--12--12--|--12--12--12--12--12--12--12--12--|
A|--12--12--12--12--12--12--12--12--|--12--12--12--12--12--12--12--12--|
D|----------------------------------|----------------------------------|
  souls._______________________________________________________________

    A7                                                           To Coda@
e|----------------------------------|----------------------------------||
B|--10--10--10--10--10--10--10--10--|--10--10--10--10--10--10--10--10--||
G|--12--12--12--12--12--12--12--12--|--12--12--12--12--12--12--12--12--||
D|--11--11--11--11--11--11--11--11--|--11--11--11--11--11--11--11--11--||
A|--12--12--12--12--12--12--12--12--|--12--12--12--12--12--12--12--12--||
D|----------------------------------|----------------------------------||


     Dm
Gtr.1                                                                                    
               D.$.al Coda
Gtr.2 tacet                                                                              
                w/repeats
e||--------------10-----------|--------------10-----------|--------------10-----------|--------------10-----------||
B||--------10-------10----10--|--------10-------10----10--|--------10-------10----10--|--------10-------10----10--||
G||-----10----10-------10-----|-----10----10-------10-----|-----10----10-------10-----|-----10----10-------10-----||
D||--12-----------------------|--12-----------------------|--12-----------------------|--12-----------------------||
A||---------------------------|---------------------------|---------------------------|---------------------------||
D||---------------------------|---------------------------|---------------------------|---------------------------||

   @Coda
        Dm                                                                          Gtr.1
   e||--------------------|--------------------|--------------------|--------------------||
   B||--------------------|--------------------|--------------------|--------------------||
   G||--7*----------------|--------------------|--------------------|--------------------||
   D||--------------------|--------------------|--------------------|--------------------||
   A||--5*----------------|--------------------|--------------------|-----------------5--||
   D||--------------------|--------------------|--------------------|--------------------||
      w/ad lib.feedback+whammy fx
      *Hold notes down,do not strike

BRIDGE
   (D bass)                           (E bass)                                                          (G bass)
e||----------------------------------|--------------------------|--------------------------|--------------------------|
B||----------------------------------|--------------------------|--------------------------|--------------------------|
G||--10--10--10--10--10--10--10--10--|--9--9--9--9--7--7--7--7--|--6--6--6--6--6--6--6--6--|--4--4--4--4--6--6--6--6--|
D||----------------------------------|--------------------------|--------------------------|--------------------------|
A||---8---8---8---8---8---8---8---8--|--7--7--7--7--5--5--5--5--|--4--4--4--4--4--4--4--4--|--2--2--2--2--4--4--4--4--|
D||----------------------------------|--------------------------|--------------------------|--------------------------|
     Mm._______________________________________________________________________________________

  (F# bass)                                                 (A bass)
e|--------------------------|------------------------------|----------------------------------|-----------------------|
B|--------------------------|------------------------------|----------------------------------|-----------------------|
G|--7--7--7--7--7--7--7--7--|--9--9--9--9--10--10--10--10--|--11--11--11--11--11--11--11--11--|------------11--11--x--|
D|--------------------------|------------------------------|----------------------------------|-----------------------|
A|--5--5--5--5--5--5--5--5--|--7--7--7--7---8---8---8---8--|---9---9---9---9---9---9---9---9--|-------------9---9--x--|
D|--------------------------|------------------------------|----------------------------------|-----------------------|
   Mm.______________________________________________________________________________________________

                              (D bass)                           (C# bass)               
  (A bass)        (E bass)
e|---------------------------|----------------------------------|--------------------------|------------------------------|
B|--tr~~~~~~~~~~~~-----------|----------------------------------|--------------------------|------------------------------|
G|--(12 13)12-------x--x--x--|--12--12--12--12--10--10--10--10--|--9--9--9--9--9--9--9--9--|--10--10--10--10--9--9--9--9--|
D|---------------------------|----------------------------------|--------------------------|------------------------------|
A|------------------x--x--x--|--10--10--10--10---8---8---8---8--|--7--7--7--7--7--7--7--7--|---8---8---8---8--7--7--7--7--|
D|---------------------------|----------------------------------|--------------------------|------------------------------|
          Ah._______________________________________________________                     
   Ooh._________________________

  (A bass)
e|--------------------------|--------------------------|------------------|--------------------------||
B|--------------------------|--------------------------|------------------|--------------------------||
G|--7--7--7--7--7--7--7--7--|--7--7--7--7--7--7--7--7--|--6---------------|--------------------------||
D|--------------------------|--------------------------|------------------|--------------------------||
A|--5--5--5--5--5--5--5--5--|--5--5--5--5--5--5--5--5--|--4------------x--|--x--x--x--x--x--x--x--x--||
D|--------------------------|--------------------------|------------------|--------------------------||
  ____________________________________________________________________________

N.C.
e||--------------------------|--------------------------|--------------------------|--------------------------||
B||o-------------------------|--------------------------|--------------------------|-------------------------o||
G||--------------------------|--------------------------|--------------------------|--------------------------||
D||--------------------------|--------------------------|--------------------------|--------------------------||
A||o-5--4--3--0--------------|--------------------3--4--|--5--4--3--0--------------|--------------------3--4-o||
D||--------------6--5--3--0--|--3--0--5--6--7--0--------|--------------6--5--3--0--|--3--0--5--6--7--0--------||

e|--------------------------|--------------------------|--------------------------|--------------------||
B|--------------------------|--------------------------|--------------------------|--------------------||
G|--------------------------|--------------------------|--------------------------|--------------------||
D|--------------------------|--------------------------|--------------------------|--------------------||
A|--5--4--3--0--------------|--5--4--3--0--------------|--5--4--3--0--------------|--5--4--3/9--(9)\5--||
D|--------------6--5--3--0--|--------------6--5--3--0--|--------------6--5--3--0--|--------------------||

                                                                                   [1.------------------------||
e||--------------------------|--------------------------|--------------------------|--------------------------||
B||o-------------------------|--------------------------|--------------------------|------------------------o-||
G||--------------------------|--------------------------|--------------------------|--------------------------||
D||--------------------------|--------------------------|--------------------------|--------------------------||
A||o-5--4--3--0--------------|--5--4--3--0--------------|--5--4--3--0--------------|--5--4--3--0------------o-||
D||--------------6--5--3--0--|--------------6--5--3--0--|--------------6--5--3--0--|-------------6--5--3--0---||

 [2.---------------------------
                       (Dsus4)
e||-----------------------0--|------0------0---------|--0------------------||
B||-----------------------0--|------0------0---------|--0------------------||
G||-----------------------0--|------0------0---------|--0------------------||
D||-----------------------0--|------0------0---------|--0------------------||
A||--5--4--3--0-----------0--|------0------0---------|--0------------------||
D||--------------6--5--3--0--|------0------0---------|--0------------------||

VERSE 3:
Microwaves make me insane
A blade cuts into your brain.

VERSE 4:
To sounds like a fork on a plate
Blackboard scratched with hate.

SCREENAGER:

STANDARD TUNING
CHORDS USED-

Gm(maj7)
A7aug
D7*
Eb
Ebdim
D7/C
G/B
D7**
G
B
Em
Gm*9
A7
                           N.C.
INTRO                      Gtr.(Nylon str. acoustic)
e|----------------------||------------------------|------------------------|
B|----------------------||------------------------|------------------------|
G|--Ad lib. bells + fx--||-----3---3--------------|-----3---3--------------|
D|----------------------||--0----0-------0-----0--|--0----0-------0-----0--|
A|----------------------||-----------4-----4------|------------4-----4-----|
E|----------------------||------------------------|------------------------|
                           let ring
                           w/reverse delay
                                                  Gm(maj7)
e|------------------------|------------------------|--2----------------------------------|
B|------------------------|------------------------|--3----------------------------------|
G|-----3---3--------------|-----3---3--------------|--3--------------3-------------------|
D|--0----0-------0-----0--|--0----0-------0-----0--|--0-----------0----------0----0---0--|
A|------------4-----4-----|------------4-----4-----|----------------------4-----4---4----|
E|------------------------|------------------------|-------------------------------------|

                                    Gm(maj7)
e|----------------------------------|--2----------------------------------|
B|----------------------------------|--3----------------------------------|
G|---------------3------------------|--3--------------3-------------------|
D|------0-----0---------0----0---0--|--0-----------0----------0----0---0--|
A|-------------------4-----4---4----|----------------------4-----4---4----|
E|--3-------------------------------|-------------------------------------|


e|-----------------------------------------|----------0--9h10--------------------|
B|-----------------------------------------|------------------10h11--------------|
G|------------------------------------5h8--|--7--7------------------11h12--------|
D|------0-----------0------------5h7-------|------------------------------11h12--|
A|---------------1----------3h6------------|-------------------------------------|
E|--3---------3--------2--5----------------|-------------------------------------|


e|--------6--6-----6------------------|---------------------------------|
B|-----------5bu--5bu---3h4p3---------|--4------------------------------|
G|--0------------------------5--3-----|--5br--3-------------------------|
D|------------------------------------|-------------4p3-----------------|
A|------------------------------------|------------------5--4--3--1--0--|
E|------------------------------------|---------------------------------|


e|-----------------------||
B|-----------------------||
G|-------0---------------||
D|-----------------------||
A|-----------------------||
E|--3\1-----0---(0)---2--||

VERSE
e||----------------------------------|---------------------------------------------|
B||o---------------------------------|---------------------------------------------|
G||-----3-----3----------------------|-----3-----------3---------------------------|
D||---------0--------0------0-----0--|---------------0--------0-------0---------0--|
A||o-------------4-------4-----4-----|--------------------4-------4--------4-------|
E||--3-------------------------------|--3------------------------------------------|
   1.Who's              so___          pho - ney__  and           al-ways sur-ound -
   2.Hide              from the        mir - ror___          the cracks and the mem-

e|-----------------------------------------|-----------------------------------|
B|----------------2--3--------2--3---------|-----------------------------------|
G|------3-----3---------3-----------3------|-----3-----3-----------------------|
D|----------0--------------0-----------0---|---------0---------0------0-----0--|
A|-----------------------------------------|---------------4-------4-----4-----|
E|--3--------------------------------------|--3--------------------------------|
      -      ed?______________________________                          Stop____
     - or - ies.______________________________                          Hide____

                                    A7aug                         D7
e|---------------------------------|-------------------0-----------------------------------|
B|---------------------------------|----------------------2--------------------------------|
G|-----3-----3---------------------|--------3----------------3------------2----------------|
D|--0------0---------0----------0--|-----2-----2----------------2---0-------------0-----0--|
A|---------------4-------4---------|--0----------------------------------------4-----4-----|
E|---------------------------------|-------------------------------------------------------|
    _                       your_   scream - ing,_______           no    -    one__________
    _                     from your  fa-mi-ly___________   they   won't       know_________

  Gm(maj7)
e|--------------------------------------|---------------------------------------|
B|--------------------------------------|---------------------------------------|
G|--------------3-----------------------|--------------3------------------------|
D|------0---------------0------0-----0--|------0---------------0------0-----0---|
A|--------------------------4-----4-----|--------------------------4-----4------|
E|--3-------3-------3-------------------|--3-------3-------3--------------------|
   can  hear.________                                             All the  scars_
   you  now._________                                             For the  holes_

  E6                                                 Ebdim
e|--------------------------------------------------|--------------------------------------------------|
B|--------------8-----------------------8-----------|--------------7-----------7-----------7-----------|
G|--------8--------8-----8--------8--------8-----8--|--------5--------5-----------5-----------5--------|
D|-----8-----8--------8--------8-----8--------8-----|-----7-----7--------7-----------7-----------7-----|
A|--6-----------------------6-----------------------|--6--------------------6-----------6-----------6--|
E|--------------------------------------------------|--------------------------------------------------|
    _                                     on your     skin;                         "Post_______________
    _                                     in  our     souls                          host_______________

  D7*                     D7/C                        G/B                     D7
e|--------------------------------------------------|-----------------------------------------||
B|--------------7-----------------------7-----------|--------------8-----------------------7--||
G|--------5--------5--------------5--------5--------|--------7--------7----------------5------||
D|-----7-----7--------7--------7-----7--------7-----|-----5-----7--------5----------4---------||
A|--5--------------------5--3--------------------3--|-----------------------------5-----------||
E|--------------------------------------------------|--7--------------------7--5--------------||
    _  no       bills."_________________________________
    _  no       thrills.________________________________

CHORUS
   G(D bass)                                  B(D# bass)
e||-10--------10--------10--------10--------|-11--------11--------11--------11--------|
B||----0----0----0----0----0----0----0----0-|----0----0----0----0----0----0----0----0-|
G||------12--------12--------12--------12---|------12--------12--------12--------12---|
D||-----------------------------------------|-----------------------------------------|
A||-----------------------------------------|-----------------------------------------|
E||-----------------------------------------|-----------------------------------------|
   Who                                       you

  Em
e|-12--------12--------12--------12--------|-12--------12--------12--------12--------|
B|----0----0----0----0----0----0----0----0-|----0----0----0----0----0----0----0----0-|
G|------12--------12--------12--------12---|------12--------12--------12--------12---|
D|-----------------------------------------|-----------------------------------------|
A|-----------------------------------------|-----------------------------------------|
E|-----------------------------------------|-----------------------------------------|
   were_______________________________________                    was       so

  G(D bass)                                 B(D# bass)
e|-10--------10--------10--------10--------|-11--------11--------11--------11--------|
B|----0----0----0----0----0----0----0----0-|----0----0----0----0----0----0----0----0-|
G|------12--------12--------12--------12---|------12--------12--------11--------11---|
D|-----------------------------------------|-----------------------------------------|
A|-----------------------------------------|-----------------------------------------|
E|-----------------------------------------|-----------------------------------------|
   beau                                     -

  Em
e|-12--------12--------12--------12--------|-12--------12--------12--------12--------|
B|----0----0----0----0----0----0----0----0-|----0----0----0----0----0----0----0----0-|
G|------11--------11--------12--------12---|------12--------12--------12--------12---|
D|-----------------------------------------|-----------------------------------------|
A|-----------------------------------------|-----------------------------------------|
E|-----------------------------------------|-----------------------------------------|
           -      ti - ful.____________________             re - mem   -   ber________

  G(D bass)                                 B(D# bass)
e|-10--------10--------10--------10--------|-11--------11--------11--------11--------|
B|----0----0----0----0----0----0----0----0-|----0----0----0----0----0----0----0----0-|
G|------12--------12--------12--------12---|------11--------11--------11--------11---|
D|-----------------------------------------|-----------------------------------------|
A|-----------------------------------------|-----------------------------------------|
E|-----------------------------------------|-----------------------------------------|
  ____________________________________________________________________________________

  Em
e|-12--------12--------12--------12--------|-12--------12--------12--------12--------|
B|----0----0----0----0----0----0----0----0-|----0----0----0----0----0----0----0----0-|
G|------12--------12--------12--------12---|------12--------12--------12--------12---|
D|-----------------------------------------|-----------------------------------------|
A|-----------------------------------------|-----------------------------------------|
E|-----------------------------------------|-----------------------------------------|
  _____________________________________________                                 who.__

  G(D bass)                                 B(D# bass)
e|-10--------10--------10--------10--------|-11--------11--------11--------11--------|
B|----0----0----0----0----0----0----0----0-|----0----0----0----0----0----0----0----0-|
G|------12--------12--------12--------12---|------11--------11--------11--------11---|
A|-----------------------------------------|-----------------------------------------|
D|-----------------------------------------|-----------------------------------------|
E|-----------------------------------------|-----------------------------------------|
  __                                  who__________________           you       were__

  Em                                                          D7
e|-12--------12--------12--------12--------|----0---0--------------------------||
B|----0----0----0----0----0----0----0----0-|--4---4-----0---0------------------||
G|------12--------12--------12--------12---|----------3---3-----5---5----------||
D|-----------------------------------------|------------------0---0-----0---0--||
A|-----------------------------------------|--------------------------4---4----||
E|-----------------------------------------|-----------------------------------||
  ______________________________________________

 [1.-----------------------------------------------------------------
   Gm(maj7)
e||--2-----------------------------|--------------------------------|
B||--3-----3---3-------------------|--------------------------------|
G||--3---3---3---3-----------------|-------3---3---------------5h8--|
D||--0-----------------0----0---0--|----0----0---0---------5h7------|
A||-----------------4-----4---4----|-------------------3h6----------|
E||--------------------------------|-3-------------2-5--------------|

  ----------------------------------------------------------------------||
e|-------0-9h10-------------------|----------6-6------------------------||
B|--------------10h11-------------|----3----------6\5/6--------------o--||
G|--7-----------------11h12-------|-0------0----------------------------||
D|--------------------------11h12-|-------------------------------------||
A|--------------------------------|----------------------------------o--||
E|--------------------------------|-------------------------------------||

  [2.-----------------------------
   Gm(maj7)
e|--2----------------------------|-----------------------------|
B|--3----3---3-------------------|-----------------------------|
G|--3--3---3---3-----------------|--------3---3----------------|
D|--0----------------0----0---0--|-----0----0-------0----0---0-|
A|----------------4-----4---4----|---------------4-----4---4---|
E|-------------------------------|-3---------------------------|


   Gm6/9                  A7             D7         Gm(maj7)
e|--5--------------------|-------0---------------2-|-----------------||
B|--4---------3-------3--|---------2----------1----|--3--------------||
G|--3------3-------3-----|-----------0------2------|--3--------------||
D|--0----0-------0-------|----2--------2-0---------|--0--------------||
A|-----------------------|-0-----------------------|-----------------||
E|-----------------------|-------------------------|-----------------||
                                         rit.         Ad lib.


DARKSHINES:

STANDARD TUNING
CHORDS USED
Dsus4
Dm
A7
Gm
Ddim
Bb
A7*

4/4 Time.
110bpm.

INTRO
   Gtr.1(elec.)            Dm
e||---------------------||-----------------------|------------------------|
B||---------------------||-----------------------|------------------------|
G||---------------------||-----------------------|------------------------|
D||---------------------||-----------------------|----------/7---5---3----|
A||----------------5-7--||--8------7--5----------|--------4---------------|
E||---------------------||-----------------------|------------------------|

e|---------------------------|--------------------------|----------------------|
B|---------------------------|--------------------------|----------------------|
G|---------------------------|--------------------------|-------------6br------|
D|--2h3p2-------2------------|---------------7---5---7--|--7br--7--5-----------|
A|-----------4-----4--1h4p1p0h1p0-----------------------|----------------------|
E|---------------------------|-----------2/5------------|----------------------|

                                     w/bar
                               ~~~~~~~~~~~~~~~~
e|------------------------|-----------------------|----------------||
B|------------------------|--14-------------------|----------------||
G|---------7h9-10---9---7////12-------------------|----------------||
D|------------------------|-----------------------|----------------||
A|------------------------|-----------------------|----------------||
E|------------------------|-----------------------|----------------||

VERSE
   Dsus4                  Dm                 A7
e||--------3----------1h3p1--------0--------|--------------------|
B||o----3----------------|------------------|-------2------------|
G||--2-------------------|------------------|----0---------------|
D||----------------------|------------------|--------------------|
A||o---------------------|------------------|--------------------|
E||----------------------|------------------|--------------------|
   let ring
   2nd ad lib.

                   Gm                        Ddim
e|----------------|-------------------------|-----1------------|
B|----------------|--3----------------------|--0---------------|
G|----------------|--------3-------------1--|------------------|
D|----------------|-----0-------------0-----|------------------|
A|----------------|-------------------------|------------------|
E|----------------|-------------------------|------------------|

  A7                                 Dsus4
e|-----------------|----------------|--------3------------|
B|-----------------|----------------|-----3---------------|
G|------0----------|----------------|--2------------------|
D|-----------------|----------------|---------------------|
A|------0----------|----------------|---------------------|
E|-----------------|----------------|---------------------|

  Dm                  A7
e|--1----------------|--0------------------|----------------|
B|--3----------------|--------2------------|----------------|
G|--2----------------|-----0---------------|----------------|
D|-------------------|---------------------|----------------|
A|-------------------|---------------------|----------------|
E|-------------------|---------------------|----------------|

  Gm                    Ddim                A7
e|---------------------|--1----------------|-------------------|-------------------||
B|--3------------------|--0----------------|--2----------------|-------------------||
G|--------3------------|--1----------------|--0----------------|-------------------||
D|-----0---------------|--0----------------|--2----------------|-------------------||
A|---------------------|-------------------|--0----------------|------------12\\\--||
E|---------------------|-------------------|-------------------|-------------------||
                                                                w/heavy dist.
$
CHORUS
   Dm                                             A7
e||----------------------|-----------------------|-----------------------|
B||--6--6----6-----------|--6--6----6------------|-----------------------|
G||--7--7----7-----------|--7--7----7------------|--6--------------------|
D||--7--7----7-------6b--|--7--7----7--------6b--|--7----------------6b--|
A||--5--5----5-----------|--5--5----5------------|--7----------12/-------|
E||-------------10\------|-------------10\-------|--5--5----5------------|
   3rd($)Vocal Tacet

  A7                      Gm                     Bb
e|-----------------------|----------------------|--6--------------------|
B|-----------------------|--3-------------------|--6---------------9----|
G|--6--------------------|--3-------------------|--7---------------7----|
D|--7----------------6b--|--0---------------7b--|--8---------------8----|
A|--7----------12/-------|----------------------|--8---------------8----|
E|--5--5----5------------|--3--3----3--3--------|--6--6----6--6---------|

  A7*                     [1.----------------------||
e|-------------.----.----|-------------.----.------||
B|--8--8----8--8----8----|--8--8----8--8----8------||
G|--6--6----6--6----6----|--6--6----6--6----6------||
D|--7--7----7--7----7----|--7--7----7--7----7------||
A|--7--7----7--7----7----|--7--7----7--7----7------||
E|-----------------------|-------------------------||

SOLO
  -------------------------------------------------------------------
  Dsus4                 Dm                     A7
e||--------------------|----------------------|-----------------------|
B||--10----------------|----------10---8---6--|--5------6p5---5-------|
G||--------------------|--------x-------------|-------------7---------|
D||--------------------|------x---------------|-----------------------|
A||--------------------|----------------------|-----------------------|
E||--------------------|----------------------|-----------------------|
  w/Roland VG8 trumpet fx

  -------------------------------------------------------------------
                         Gm                     Bb
e|----------------------|----------------------|---------------------|
B|----------10---8---6--|--5------6p5-3--------|------3-5-6---5---3--|
G|--------x-------------|----------------------|---------------------|
D|------x---------------|----------------------|---------------------|
A|----------------------|----------------------|---------------------|
E|----------------------|----------------------|---------------------|

  ------------------------------------][2.$.-------------------
  Asus4               A
e|-------------------|----------------||-------------.----.----||
B|--2----------------|---------------o||--8--8----8--8----8----||
G|-------------------|----------------||--6--6----6--6----6----||
D|-------------------|----------------||--7--7----7--7----7----||
A|-------------------|---------------o||--7--7----7--7----7----||
E|-------------------|----------------||-----------------------||
                      >>>>>>>>>>>>>>>>

CHORUS
   Dm                                             A7
e||----------------------|-----------------------|-----------------------|
B||--6--6----6-----------|--6--6----6------------|-----------------------|
G||--7--7----7-----------|--7--7----7------------|--6--------------------|
D||--7--7----7-------6b--|--7--7----7--------6b--|--7----------------6b--|
A||--5--5----5-----------|--5--5----5------------|--7----------12/-------|
E||-------------10\------|-------------10\-------|--5--5----5------------|

  A7                      Gm                     Bb
e|-----------------------|----------------------|--6--------------------|
B|-----------------------|--3-------------------|--6---------------9----|
G|--6--------------------|--3-------------------|--7---------------7----|
D|--7----------------6b--|--0---------------7b--|--8---------------8----|
A|--7----------12/-------|----------------------|--8---------------8----|
E|--5--5----5------------|--3--3----3--3--------|--6--6----6--6---------|

  A7                      To Coda@
e|-------------.----.----|-------------.----.----||
B|--8--8----8--8----8----|--8--8----8--8----8----||
G|--6--6----6--6----6----|--6--6----6--6----6----||
D|--7--7----7--7----7----|--7--7----7--7----7----||
A|--7--7----7--7----7----|--7--7----7--7----7----||
E|-----------------------|-----------------------||

SOLO
   Gm                                         Dm
e||------------------|-----------------------|---------------------|
B||----11------------|----------11---10---8--|--6------------------|
G||---x--------------|--------x--------------|---------7-----------|
D||--x---------------|------x----------------|------------7--------|
A||------------------|-----------------------|---------------------|
E||------------------|-----------------------|---------------------|
   w/Roland VG8 trumpet fx

                       Gm
e|--------------------|------------------|-----------------------|
B|--------------------|----11------------|----------11---10---8--|
G|--------------------|---x--------------|--------x--------------|
D|--------7---6---7---|--x---------------|------x----------------|
A|--------------------|------------------|-----------------------|
E|--------------------|------------------|-----------------------|

  Dm                                                            Gm
e|---------------------|--------------------|------------------|------------------|
B|--6------------------|--------------------|----13------------|----14------------|
G|---------7-----------|--------------------|---x--------------|---x--------------|
D|------------7--------|--------7---6---7---|--x---------------|--x---------------|
A|---------------------|--------------------|------------------|------------------|
E|---------------------|--------------------|------------------|------------------|

  Dm                                             Ddim
e|----------------------------|-----------------|--------------------|
B|----15------13p11-10--------|-----------------|--------------------|
G|---x------------------------|-----------------|-----------4--------|
D|--x-------------------------|-----------------|--6-----------------|
A|----------------------------|-----------------|--------------------|
E|----------------------------|-----------------|--------------------|

A7
e|---------------------|--------------------|-------------------||
B|---------------------|--10----------------|-------------------||
G|--7--------10--------|--------------------|--9----------------||
D|---------------------|--------------------|-------------------||
A|---------------------|--------------------|-------------------||
E|---------------------|--------------------|-------------------||
                                             <<<<<<<<<<<<<<<<<<<
                                             w/clean tone

  Gm                                          Dm
e|---------------------|---------------------|---------------------|
B|--------5------------|---------------------|---------------------|
G|-----7---------------|-----------9br----7--|--9br----7-----------|
D|--8------------------|----------x----------|--------------7------|
A|---------------------|---------x-----------|---------------------|
E|---------------------|--------x------------|---------------------|

                          Gm
e|-----------------------|--------------------|---------------------|
B|-----------------------|--------------------|---------------------|
G|-----------------------|--9-----------------|-----------9br----7--|
D|----------x7---6---7---|--------------------|----------x----------|
A|---------x-------------|--------------------|---------x-----------|
E|--------x--------------|--------------------|--------x------------|

  Dm                                            Gm
e|---------------------|-----------------------|---------------------------|
B|---------------------|-----------------------|---------------------------|
G|--9br----7-----------|-----------------------|---------------------------|
D|------------7--------|---------------7---8---|--11h12-------------12h14--|
A|---------------------|------7h8-10-----------|---------------------------|
E|---------------------|-----------------------|---------------------------|

                              Dm
e|---------------------------|---------------------------------------------|
B|---------------------------|--14h15p14-11-14-11p10----10h11-14h15p14-11--|
G|-------13--------13---14---|---------------------------------------------|
D|--15--------15-------------|---------------------------------------------|
A|---------------------------|---------------------------------------------|
E|---------------------------|---------------------------------------------|

                              Gm                    Ddim
e|---------------------------|---------------------|----------------------|
B|--14-11p10----10--10\\8\\6\\5\\3--------------3--|--3h5h6p5-------------|
G|---------------------------|---------------------|-----------------7----|
D|---------------------------|---------------------|----------------------|
A|---------------------------|---------------------|----------------------|
E|---------------------------|---------------------|----------------------|

                                                         D.$.al Coda
                                                         take 2nd ending
  A7
e|-------------------|-----------------|----------------|---------------||
B|-------------------|-----------------|----------------|---------------||
G|--7----------------|-----------------|----------------|---------------||
D|-------------------|-----------------|----------------|---------------||
A|-------------------|-----------------|----------------|---------------||
E|-------------------|-----------------|----------------|---------------||
                      w/feedback+whammy fx <<<<<<<<<<<<<<<<<<<<<<<<<<<<<

    @Coda
      A7
   e||-------------.--------|-------------.----------|
   B||--8--8----8--8--------|--8--8----8--8----8--8--|
   G||--6--6----6--6--------|--6--6----6--6----6--6--|
   D||--7--7----7--7--------|--7--7----7--7----7--7--|
   A||--7--7----7--7--------|--7--7----7--7----7--7--|
   E||----------------------|------------------------|

     Dm
   e|-----.---------------|-------------------|----------------||
   B|--8--8----8--8----8--|--3----------------|----------------||
   G|--6--6----6--6----6--|--2----------------|----------------||
   D|--7--7----7--7----7--|--0----------------|----------------||
   A|--7--7----7--7----7--|-------------------|----------------||
   E|---------------------|-------------------|----------------||

FEELING GOOD:

Tuning: Standard (EADGBe, Also mentions can be played with or without capo on the 12th
fret, this tab is WITH the capo.)

Intro
  Q.=72
  Ebsus2/C          Gm
 12/8
  Gtr I
    W.              E  E E E E E E E E E E E   E  E E E E E E E E E E E
|-^-6-------------|--------------------------|---------------------------||
|-^-6-------------|--------------------------|---------------------------||
|-^-8-------------|-3--3-3-3-3-3-3-3-3-3-3-3-|-3--3-3-3-3-3-3-3-3-3-3-3--||
|-^10-------------|-5--5-5-5-5-5-5-5-5-5-5-5-|-5--5-5-5-5-5-5-5-5-5-5-5--||
|-----------------|--------------------------|---------------------------||
|-----------------|--------------------------|---------------------------||
|
| Gtr II
|   W.              W.                         W.
|-----------------|--------------------------|---------------------------||
|-^-5-------------|--------------------------|---------------------------||
|-^-4-------------|--------------------------|---------------------------||
|-^-5-------------|--------------------------|---------------------------||
|-^-5-------------|--------------------------|---------------------------||
|-^-3-------------|--------------------------|---------------------------||


   Verse
    $
    Gm/D                            Gm/D
    E  E E  E  E E E  E E  E  E E   E  E E  E  E E E  E E E E E
||--------------------------------|-----------------------------|
||o-------------------------------|-----------------------------|
||--3--3-3--3--3-3-3--3-3--3--3-3-|-3--3-3--3--3-3-3--3-3-3-3-3-|
||--5--5-5--5--5-5-5--5-5--5--5-5-|-5--5-5--5--5-5-5--5-5-5-5-5-|
||o-5--5-5--5--5-5-5--5-5--5--5-5-|-5--5-5--5--5-5-5--5-5-5-5-5-|
||--------------------------------|-----------------------------|
|
|   Q.     +Q    E Q.     +Q    E   Q.     +Q    E Q.     E E E
||--------------------------------|-----------------------------|
||o-0------(0)---0----------------|-----------------------------|
||-----------------3------(3)---3-|-1------(1)---1-0------3-0-3-|
||--------------------------------|-----------------------------|
||o-------------------------------|-----------------------------|
||--------------------------------|-----------------------------|


  Gm/D                            Gm/D           Dsus4  F/D
  E  E E  E  E E E  E E  E  E E   E  E E  E  E E E  E E E  E E
|-------------------------------|------------------------------|
|-------------------------------|------------------------------|
|-3--3-3--3--3-3-3--3-3--3--3-3-|-3--3-3--3--3-3-2--2-2-2--2-2-|
|-5--5-5--5--5-5-5--5-5--5--5-5-|-5--5-5--5--5-5-5--5-5-3--3-3-|
|-5--5-5--5--5-5-5--5-5--5--5-5-|-5--5-5--5--5-5-5--5-5-5--5-5-|
|-------------------------------|------------------------------|
|
| Q.     +Q    E Q.     +Q    E   Q.     +Q    E Q.     Q.
|-------------------------------|------------------------------|
|-0------(0)---0----------------|------------------------------|
|----------------3------(3)---3-|-1------(1)---1-0------0------|
|-------------------------------|------------------------------|
|-------------------------------|------------------------------|
|-------------------------------|------------------------------|


  Gm/Bb          Bb               Gm6            Eb/G
  E  E E  E  E E E  E E  E  E E   E  E E  E  E E E  E E  E  E E
|-3--3-3--3--3-3-1--1-1--1--1-1-|-------------------------------|
|-3--3-3--3--3-3-3--3-3--3--3-3-|-5--5-5--5--5-5-4--4-4--4--4-4-|
|-3--3-3--3--3-3-3--3-3--3--3-3-|-3--3-3--3--3-3-3--3-3--3--3-3-|
|-------------------------------|-5--5-5--5--5-5-5--5-5--5--5-5-|
|-------------------------------|-------------------------------|
|-------------------------------|-------------------------------|
|
| Q.     +Q    E Q.     +Q    E   Q.     +Q    E Q.     +Q    E
|-------------------------------|-------------------------------|
|-0------(0)---0----------------|-------------------------------|
|----------------3------(3)---3-|-2------(2)---2-1------(1)---1-|
|-------------------------------|-------------------------------|
|-------------------------------|-------------------------------|
|-------------------------------|-------------------------------|


                                                    To Coda
  Bb/G                           Bb/G           D5/G
  E  E E  E  E E E E  E  E E E   E  E E  E  E E E  E E E E E
|------------------------------|-----------------------------|
|-3--3-3--3--3-3-3-3--3--3-3-3-|-3--3-3--3--3-3-3--3-3-3-3-3-|
|-3--3-3--3--3-3-3-3--3--3-3-3-|-3--3-3--3--3-3-2--2-2-2-2-2-|
|-5--5-5--5--5-5-5-5--5--5-5-5-|-5--5-5--5--5-5-5--5-5-5-5-5-|
|------------------------------|-----------------------------|
|------------------------------|-----------------------------|
|
| Q.     +Q    E Q   +Q.     E   Q.     +Q    E H.
|------------------------------|-----------------------------|
|------------------------------|-----------------------------|
|-0------(0)---0---------------|-----------------------------|
|----------------3---(3)-----3-|-1------(1)---1-0------------|
|------------------------------|-----------------------------|
|------------------------------|-----------------------------|


                            1.
  Bb/G           D5/G        Gm/D
  E  E E  E  E E e Q  Q.     E  E E  E  E E E  E E  E  E E
|--------------------------|-------------------------------|
|-3--3-3--3--3-3-3---------|-------------------------------|
|-3--3-3--3--3-3-2---------|-3--3-3--3--3-3-3--3-3--3--3-3-|
|-5--5-5--5--5-5-5---------|-5--5-5--5--5-5-5--5-5--5--5-5-|
|--------------------------|-5--5-5--5--5-5-5--5-5--5--5-5-|
|--------------------------|-------------------------------|
|
| Q.     +E  E E e Q  Q.     Q.     +Q    E Q.     +Q    E
|--------------------------|-------------------------------|
|--------------------------|-0------(0)---0----------------|
|--------------------------|----------------3------(3)---3-|
|------------3-4-5---------|-------------------------------|
|--------------------------|-------------------------------|
|-1------(1)---------------|-------------------------------|


  Gm/D
  E  E E  E  E E E  E E E E E
|------------------------------||
|-----------------------------o||
|-3--3-3--3--3-3-3--3-3-3-3-3--||
|-5--5-5--5--5-5-5--5-5-5-5-5--||
|-5--5-5--5--5-5-5--5-5-5-5-5-o||
|------------------------------||
|
| Q.     +Q    E Q.     E E E
|------------------------------||
|-----------------------------o||
|-1------(1)---1-0------3-0-3--||
|------------------------------||
|-----------------------------o||
|------------------------------||


 2.
  G5                        Em/G
  Q.   E E E E  E E E E E   E  E E a Q  a E +H.
|-------------------------|------------------------||
|------------3----3---3---|------------------------||
|--------3-5----5---5---5-|-3----------------------||
|--------5---5------5-5-5-|----5-5-3h5--3h5-(5)----||
|-------------------------|------------------------||
|-------------------------|------------------------||
|
| H.         H.             H.               H.
|-3----------4------------|-5----------------4-----||
|-0----------0------------|-0----------------0-----||
|-------------------------|------------------------||
|-------------------------|------------------------||
|-------------------------|------------------------||
|-------------------------|------------------------||


 Verse
  N.C.
  Gtr III
  W.              H.      E E E Q  E
|---------------|--------------------|
|---------------|--------------------|
|---------------|-------------3-5--6-|
|---------------|-----------5--------|
|---------------|--------------------|
|---------------|--------------------|


  N.C.
  W.              W.
|---------------|-------|
|-3-------------|-------|
|---------------|-------|
|---------------|-------|
|---------------|-------|
|---------------|-------|


  N.C.
  Q.   E E E Q.   +Q   E   H.      Q.   E E E
|----------1-3----(3)----|--------------------|
|--------3-------------3-|-4--------------1-3-|
|------------------------|----------------3---|
|------------------------|--------------------|
|------------------------|--------------------|
|------------------------|--------------------|


  N.C.
  Q.   +Q   E Q.   Q.     W.
|-------------3---------|-------|
|-3----(3)--3-----------|-------|
|-----------------------|-------|
|-----------------------|-------|
|-----------------------|-------|
|-----------------------|-------|


                                                D.S. al Coda
  Gm/D                            Gm/D
  Gtr I
  E  E E  E  E E E  E E  E  E E   E  E E  E  E E E  E E E E E
|-------------------------------|-----------------------------|
|-------------------------------|-----------------------------|
|-3--3-3--3--3-3-3--3-3--3--3-3-|-3--3-3--3--3-3-3--3-3-3-3-3-|
|-5--5-5--5--5-5-5--5-5--5--5-5-|-5--5-5--5--5-5-5--5-5-5-5-5-|
|-5--5-5--5--5-5-5--5-5--5--5-5-|-5--5-5--5--5-5-5--5-5-5-5-5-|
|-------------------------------|-----------------------------|
|
| Gtr II
| Q.     +Q    E Q.     +Q    E   Q.     +Q    E Q.     E E E
|-------------------------------|-----------------------------|
|-0------(0)---0----------------|-----------------------------|
|----------------3------(3)---3-|-1------(1)---1-0------3-0-3-|
|-------------------------------|-----------------------------|
|-------------------------------|-----------------------------|
|-------------------------------|-----------------------------|


 Bridge
  &
  Bbsus2/G                     C/A
  E  E E E E E  E  E E E E E   E  E E E E E  E  E E E E E
|----------------------------|-0--0-0-0-0-0--0--0-0-0-0-0-|
|-1--1-1-1-1-1--1--1-1-1-1-1-|-1--1-1-1-1-1--1--1-1-1-1-1-|
|-3--3-3-3-3-3--3--3-3-3-3-3-|-2--2-2-2-2-2--2--2-2-2-2-2-|
|-5--5-5-5-5-5--5--5-5-5-5-5-|----------------------------|
|----------------------------|----------------------------|
|----------------------------|----------------------------|
|
| H.           +Q.     E E E   H.           +Q.     E E E
|----------------------------|----------------------------|
|----------------------------|----------------------------|
|----------------------------|----------------------------|
|-3------------(3)-----3-2-1-|----------------------------|
|----------------------------|-5------------(5)-----5-3-2-|
|----------------------------|----------------------------|


  F                             Gm/Eb
  E  E E E E E E  E E  E  E E   E  E E E E E E  E E E E E
|-----------------------------|---------------------------|
|-1--1-1-1-1-1-1--1-1--1--1-1-|-3--3-3-3-3-3-3--3-3-3-3-3-|
|-2--2-2-2-2-2-2--2-2--2--2-2-|-3--3-3-3-3-3-3--3-3-3-3-3-|
|-3--3-3-3-3-3-3--3-3--3--3-3-|-5--5-5-5-5-5-5--5-5-5-5-5-|
|-----------------------------|-6--6-6-6-6-6-6--6-6-6-6-6-|
|-----------------------------|---------------------------|
|
| H.           Q.     +E  E E   H.           H.
|-----------------------------|---------------------------|
|-----------------------------|---------------------------|
|-----------------------------|---------------------------|
|-----------------------------|---------------------------|
|-----------------------------|---------------------------|
|-6------------6------(6)-6-5-|-4------------4------------|


  D           D             D7          D7
  E E E E E E E E E E E E   E E E E E E  q  E Q.
|-------------------------|------------------------|
|-------------------------|-1-1-1-1-1-1--3---------|
|-------------2-2-2-2-2-2-|-2-2-2-2-2-2--5---------|
|-4-4-4-4-4-4-4-4-4-4-4-4-|-4-4-4-4-4-4--7---------|
|-5-5-5-5-5-5-5-5-5-5-5-5-|-5-5-5-5-5-5--9---------|
|-------------------------|-------------10---------|
|
| E E E E E E E E E E E E   E E E E E E  q  E Q.
|-------------------------|------------------------|
|-------------------------|------------------------|
|-------------------------|------------------------|
|-------------------------|------------------------|
|-------------------------|------------------------|
|-3-3-3-3-3-3-3-3-3-3-3-3-|-3-3-3-3-3-3--3---------|


 Outro
  D                               D
  E  E E  E  E E E  E E  E  E E   E  E E  E  E E E  E E E E E
|-------------------------------|-----------------------------|
|-------------------------------|-----------------------------|
|----0-3-----0-3----0-3-----0-3-|----0-3-----0-3----0-3---0-3-|
|-0-------0------0-------0------|-0-------0------0------0-----|
|-------------------------------|-----------------------------|
|-------------------------------|-----------------------------|
|
| Q.     +Q    E Q.     +Q    E   Q.     +Q    E Q.     E E E
|-------------------------------|-----------------------------|
|-0------(0)---0----------------|-----------------------------|
|----------------3------(3)---3-|-1------(1)---1-0------3-0-3-|
|-------------------------------|-----------------------------|
|-------------------------------|-----------------------------|
|-------------------------------|-----------------------------|


  D                               D
  E  E E  E  E E E  E E  E  E E   E  E E  E  E E E  E E E E E
|-------------------------------|-----------------------------|
|-------------------------------|-----------------------------|
|----0-3-----0-3----0-3-----0-3-|----0-3-----0-3----0-3---0-3-|
|-0-------0------0-------0------|-0-------0------0------0-----|
|-------------------------------|-----------------------------|
|-------------------------------|-----------------------------|
|
| Q.     +Q    E Q.     +Q    E   Q.     +Q    E Q.     E E E
|-------------------------------|-----------------------------|
|-0------(0)---0----------------|-----------------------------|
|----------------3------(3)---3-|-1------(1)---1-0------3-0-3-|
|-------------------------------|-----------------------------|
|-------------------------------|-----------------------------|
|-------------------------------|-----------------------------|


  D                               C
  E  E E  E  E E E  E E  E  E E   E  E E +E  E E E  E E  E  E E
|----------------1------------1-|-------------------------------|
|-------------------------------|-5----5-(5)---5------4-------4-|
|----0-3-----0-3----0-3--0--3---|-3--0-3-(3)-3---0--3----0--3---|
|-0-------0---------------------|-------------------------------|
|-------------------------------|-------------------------------|
|-------------------------------|-------------------------------|
|
| Q.     +Q    E Q.     +Q    E   Q.     +Q    E Q.     +Q    E
|-------------------------------|-------------------------------|
|-0------(0)---0----------------|-------------------------------|
|----------------3------(3)---3-|-2------(2)---2-1------(1)---1-|
|-------------------------------|-------------------------------|
|-------------------------------|-------------------------------|
|-------------------------------|-------------------------------|


  D                              D
  <
  E  E E  E  E E E E  E  E E E   E  E E  E  E E E  E E E E E
|------------------------------|-----------------------------|
|------------------------------|-----------------------------|
|----0-3-----0-3---0--3----0-3-|----0-3-----0-3----0-3-----3-|
|-0-------0------0-------0-----|-0-------0------0------0-4---|
|------------------------------|-----------------------------|
|------------------------------|-----------------------------|
|
| <
| Q.     +Q    E Q   +Q.     E   Q.     +Q    E H.
|------------------------------|-----------------------------|
|------------------------------|-----------------------------|
|-0------(0)---0---------------|-----------------------------|
|----------------3---(3)-----3-|-1------(1)---1-0------------|
|------------------------------|-----------------------------|
|------------------------------|-----------------------------|


  Bb/G        D5/G        N.C.
  E E E E E E q  E Q.     W.
|-----------------------|-------*|
|-3-3-3-3-3-3-3---------|-------*|
|-3-3-3-3-3-3-2---------|-------*|
|-5-5-5-5-5-5-5---------|-------*|
|-----------------------|-------*|
|-----------------------|-------*|
|
| E E E E E E q  E Q.     W.
|-----------------------|-------*|
|-----------------------|-------*|
|-----------------------|-------*|
|-3-3-3-3-3-4-5---------|-------*|
|-----------------------|-3-----*|
|-----------------------|-------*|

MEGALOMANIA:

i know this song is normally played on organ / keyboard, but it can be played like this
on the guitar, using arpeggio and then chords.

INTRO

  E |----------0---------------0---------------0---------------0--------|
  B |--------0---0-----------0---0-----------0---0-----------0---0------|
  G |------0-------0-------0-------0-------0-------0-------0-------0----|
  D |----2-----------2---2-----------2---2-----------2---2-----------0--| x2
  A |------------------2-------2-----------------------2-------2--------|
  E |--0-----------0-------------------0-----------0--------------------|

VERSE
                       Paradise...
  E |----------0---------------0---------------0-------------0--------|
  B |--------0---0-----------0---0-----------0---0---------0---0------|
  G |------0-------0-------0-------0-------0-------0-----0-------0----|
  D |----2-----------2---2-----------2---2-------------2-----------0--|
  A |------------------2-----------------------------2----------------|
  E |--0-------------------------------0------------------------------|

  E |----------0-------------------------------0---------------2--------|
  B |--------0---0-------------2-------------1---1-----------0---0------|
  G |------0-------0---------3---3---------2-------2-------2-------2----|
  D |----2-----------2-----2-------2-----2-----------2---1-----------1--|
  A |--------------------4-----------4-0---------------2----------------|
  E |--0---------------2------------------------------------------------|

  E |----------0---------------0-------------------------------0--------|
  B |--------0---0-----------1---1-------------3-------------1---1------|
  G |------0-------0-------2-------2---------4---4---------2-------2----|
  D |----2-----------2---2-----------2-----5-------5-----2-----------2--|
  A |------------------3-----------------5-----------5-0----------------|
  E |--0-------------------------------3--------------------------------|

  E |----------0---------------0---------------0---------------2--------|
  B |--------0---0-----------0---0-----------1---1-----------0---0------|
  G |------0-------0-------1-------1-------2-------2-------2-------2----|
  D |----2-----------2---2-----------2---2-----------2---1-----------1--|
  A |----------------------------------0---------------2----------------|
  E |--3---------------4------------------------------------------------|

(repeat verse)

CHORUS

  E |---------------|
  B |--3-3-3-3-3-4--|
  G |--4-4-4-4-4-4--|
  D |--4-4-4-4-4-4--|
  A |--5-5-5-5-5-2--|
  E |---------------|

      Take.......off Your Dis-Guise. I Know that Under-Neath it's You...
  E |--0---0---5------3---3---8---------3--------2-----5-----------7---|
  B |--1---1---7------3---4---8---------5--------4-----5-----------7---|
  G |--2---2---7------4---4---9---------5--------2-----5-----------9---|
  D |--2---2---7------5---5---10--------5--------4-----7-----------7---|
  A |--0---3---5------5---5---10--------3--------2-----7-----------9---|
  E |-----------------3---3---8------------------------5-----------7---|

There we have it, a great album all in one place.
comments
print report bad tab
I want to post or [tab]
guest
You may want to rate the tab now too:
select rating
Please do not post tabs as comments. Select "correction" instead!