Oops, an error
Loading. Please wait.

Plug In Baby Live Tab

by Muse
ver1
ver1

Whole song

Interactive

More versions @911Tabs.com
20,975 views 60 this week
5 commentsread comments
1 2 3 4 5
excellent!
x 10
Autoscroll
+/-
esc
set tempo
stop
Contributor
Hey! There's an official Ultimate Guitar app which is ideal
for learning songs when you're away from computer. Get the app
WARNING: You are trying to view
                                    content from Ultimate-Guitar.com
                                    in an unauthorized application,
                                    which is prohibited.

                                    Please use an official Ultimate
                                    Guitar Tabs application for iPhone,
                                    iPad or Android to access legitimate
                                    chords, guitar, bass, and drum tabs
                                    from Ultimate-Guitar.com database.

                                    Type "ultimate guitar tabs" in Apple
                                    App Store's or Android Market's
                                    search to find the application.
Plug In Baby Live At Wembley

Tuning: Standard

*Fuzzy Factory*

Code:
Intro:
e|-----------------|--------------------|-----------------|
B|-----------------|-------7h8p7--------|-----------------|
G|-----6-----6-7---|-6-7-9-------9-7-6--|---6-7---6-7-9-6-|
D|-8-9---8-9-----9-|--------------------|-9-----9---------|
A|-----------------|--------------------|-----------------|
E|-----------------|--------------------|-----------------|

e|-------------------------|---------------|-------------------|
B|-----7-7h8p7h8p7----7----|-7-----------7-|-9b-7----7---------|
G|-7-9-------------10---10-|---7-------7---|------10---7-6-7p6-|
D|-------------------------|-----7---7-----|-------------------|
A|-------------------------|-------9-------|-------------------|
E|-------------------------|---------------|-------------------|

e|-----------------|------------------------|-----------------|
B|-----------------|-------7h8p7h8p7--------|-----------------|
G|-----6-----6-7---|-6-7-9-----------9-7-6--|---6-7---6-7-9-6-|
D|-8-9---8-9-----9-|------------------------|-9-----9---------|
A|-----------------|------------------------|-----------------|
E|-----------------|------------------------|-----------------|

e|--------------------|---------------|-------------------|
B|-----7-7h8p7h8p7----|-7-----------7-|-9b-7----7---------|
G|-7-9-------------x--|---7-------7---|------10---7-6-7p6-|
D|--------------------|-----7---7-----|-------------------|
A|--------------------|-------9-------|-------------------|
E|--------------------|---------------|-------------------|

e|-----------------|------------------------|
B|-----------------|-------7h8p7h8p7--------|
G|-----6-----6-7---|-6-7-9-----------9-7-6--|
D|-8-9---8-9-----9-|------------------------|
A|-----------------|------------------------|
E|-----------------|------------------------|


Verse:
e|-----------------|-----------------|----------------|---------------|
B|-----------------|-----------------|----------------|---------------|
G|-9~--9/~~~~~~----|-7~~~~~~---------|-8~~~~~~~-------|-9~~~~~~-------|
D|-----------------|-----------------|----------------|---------------|
A|-----------------|-----------------|----------------|---------------|
E|-----------------|-----------------|----------------|---------------|

e|-------------------|-------------------|------------------|
B|-10----------------|-11----------------|-12---------------|
G|---11--11--11------|---11--11--11------|---12--12---------|
D|-----12--12--12~---|-----11--11--11~---|-----12--12~------|
A|-------------------|-------------------|------------------|
E|-------------------|-------------------|------------------|

e|--------------------------|-------------------------|------------------------|
B|-10-----------10----------|-------------------------|------------------------|
G|---11--11-------11--11----|-11-11-11-11-11-11-11-11-|------------------------|
D|-----12--12~------12--12--|-11-11-11-11-11-11-11-11-|-10-10-10-10-10-10-10-x-|
A|--------------------------|-9--9--9--9--9--9--9--9--|-9--9--9--9--9--9--9--x-|
E|--------------------------|-------------------------|------------------------|


Chorus:
e|-----------------|-----------------|-----------------|-----------------|
B|-3-3-3-3-3-3-3-3-|-3-3-3-3-3-3-3-3-|-3-3-3-3-3-3-3-3-|-3-3-3-3-3-3-3-3-|
G|-4-4-4-4-4-4-4-4-|-4-4-4-4-4-4-4-4-|-4-4-4-4-4-4-4-4-|-4-4-4-4-4-4-4-4-|
D|-5-5-5-5-5-5-5-5-|-5-5-5-5-5-5-5-5-|-4-4-4-4-4-4-4-4-|-4-4-4-4-4-4-4-4-|
A|-5-5-5-5-5-5-5-5-|-5-5-5-5-5-5-5-5-|-2-2-2-2-2-2-2-2-|-2-2-2-2-2-2-2-2-|
E|-3-3-3-3-3-3-3-3-|-3-3-3-3-3-3-3-3-|-----------------|-2-2-2-2-2-2-2-2-|

e|-----------------|-----------------|-----------------|-0-0-0-0-0-0-0-0-|
B|-3-3-3-3-3-3-3-3-|-3-3-3-3-3-3-3-3-|-3-3-3-3-3-3-3-3-|-3-3-3-3-2-2-2-2-|
G|-4-4-4-4-4-4-4-4-|-4-4-4-4-4-4-4-4-|-4-4-4-4-4-4-4-4-|-3-3-3-3-3-3-3-3-|
D|-5-5-5-5-5-5-5-5-|-5-5-5-5-5-5-5-5-|-4-4-4-4-4-4-4-4-|-4-4-4-4-4-4-4-4-|
A|-5-5-5-5-5-5-5-5-|-5-5-5-5-5-5-5-5-|-2-2-2-2-2-2-2-2-|-4-4-4-4-4-4-4-4-|
E|-3-3-3-3-3-3-3-3-|-3-3-3-3-3-3-3-3-|-----------------|-2-2-2-2-2-2-2-2-|

e|-----------------|-----------------|-----------------|-----------------|
B|-3-3-3-3-3-3-3-3-|-3-3-3-3-3-3-3-3-|-3-3-3-3-3-3-3-3-|-3-3-3-3-3-3-3-3-|
G|-4-4-4-4-4-4-4-4-|-4-4-4-4-4-4-4-4-|-4-4-4-4-4-4-4-4-|-4-4-4-4-4-4-4-4-|
D|-5-5-5-5-5-5-5-5-|-5-5-5-5-5-5-5-5-|-4-4-4-4-4-4-4-4-|-4-4-4-4-4-4-4-4-|
A|-5-5-5-5-5-5-5-5-|-5-5-5-5-5-5-5-5-|-2-2-2-2-2-2-2-2-|-2-2-2-2-2-2-2-2-|
E|-3-3-3-3-3-3-3-3-|-3-3-3-3-3-3-3-3-|-----------------|-2-2-2-2-2-2-2-2-|

e|-----------------|-----------------|-------------|---------------|
B|-3-3-3-3-3-3-3-3-|-3-3-3-3-3-3-5-5-|-7-----------|---------------|
G|-4-4-4-4-4-4-4-4-|-4-4-4-4-4-4-6-6-|-7---F-U-Z-Z-|-F-A-C-T-O-R-Y-|
D|-5-5-5-5-5-5-5-5-|-5-5-5-5-5-5-7-7-|-7-----------|---------------|
A|-5-5-5-5-5-5-5-5-|-5-5-5-5-5-5-7-7-|-5-----------|---------------|
E|-3-3-3-3-3-3-3-3-|-3-3-3-3-3-3-5-5-|-------------|---------------|


Bridge:
e|-----------------|------------------------|-----------------|
B|-----------------|-------7h8p7h8p7--------|-----------------|
G|-----6-----6-7---|-6-7-9-----------9-7-6--|---6-7---6-7-9-6-|
D|-8-9---8-9-----9-|------------------------|-9-----9---------|
A|-----------------|------------------------|-----------------|
E|-----------------|------------------------|-----------------|

e|-------------------|---------------|-------------------|
B|-----7-7h8p7h8p7---|-7-----------7-|-9b-7----7---------|
G|-7-9-------------x-|---7-------7---|------10---7-6-7p6-|
D|-------------------|-----7---7-----|-------------------|
A|-------------------|-------9-------|-------------------|
E|-------------------|---------------|-------------------|

e|-----------------|------------------------|
B|-----------------|-------7h8p7h8p7--------|
G|-----6-----6-7---|-6-7-9-----------9-7-6--|
D|-8-9---8-9-----9-|------------------------|
A|-----------------|------------------------|
E|-----------------|------------------------|


Verse 2:
e|-----------------|-----------------|----------------|---------------|
B|-----------------|-----------------|----------------|---------------|
G|-9~--9/~~~-------|-----------------|----------------|---------------|
D|-----------------|-----------------|----------------|---------------|
A|-----------------|-----------------|----------------|---------------|
E|-----------------|-----------------|----------------|---------------|

e|-----------------|--------------|----------------|
B|-10--------------|-11-----------|-12-------------|
G|---11--11--------|---11--11-----|---12--12-------|
D|-----12--12------|-----11--11~--|-----12--12-----|
A|-----------------|--------------|----------------|
E|-----------------|--------------|----------------|

e|--------------------------|-------------------------|-------------------------|
B|-10-----------10----------|-------------------------|-------------------------|
G|---11--11-------11--11----|-11-11-11-11-11-11-11-11-|-------------------------|
D|-----12--12~------12--12--|-11-11-11-11-11-11-11-11-|-10-10-10-10-10-10-10-10-|
A|--------------------------|-9--9--9--9--9--9--9--9--|-9--9--9--9--9--9--9--9--|
E|--------------------------|-------------------------|-------------------------|


Chorus:
e|-----------------|-----------------|-----------------|-----------------|
B|-3-3-3-3-3-3-3-3-|-3-3-3-3-3-3-3-3-|-3-3-3-3-3-3-3-3-|-3-3-3-3-3-3-3-3-|
G|-4-4-4-4-4-4-4-4-|-4-4-4-4-4-4-4-4-|-4-4-4-4-4-4-4-4-|-4-4-4-4-4-4-4-4-|
D|-5-5-5-5-5-5-5-5-|-5-5-5-5-5-5-5-5-|-4-4-4-4-4-4-4-4-|-4-4-4-4-4-4-4-4-|
A|-5-5-5-5-5-5-5-5-|-5-5-5-5-5-5-5-5-|-2-2-2-2-2-2-2-2-|-2-2-2-2-2-2-2-2-|
E|-3-3-3-3-3-3-3-3-|-3-3-3-3-3-3-3-3-|-----------------|-2-2-2-2-2-2-2-2-|

e|-----------------|-----------------|-----------------|-0-0-0-0-0-0-0-0-|
B|-3-3-3-3-3-3-3-3-|-3-3-3-3-3-3-3-3-|-3-3-3-3-3-3-3-3-|-2-2-2-2-2-2-2-2-|
G|-4-4-4-4-4-4-4-4-|-4-4-4-4-4-4-4-4-|-4-4-4-4-4-4-4-4-|-3-3-3-3-3-3-3-3-|
D|-5-5-5-5-5-5-5-5-|-5-5-5-5-5-5-5-5-|-4-4-4-4-4-4-4-4-|-4-4-4-4-4-4-4-4-|
A|-5-5-5-5-5-5-5-5-|-5-5-5-5-5-5-5-5-|-2-2-2-2-2-2-2-2-|-4-4-4-4-4-4-4-4-|
E|-3-3-3-3-3-3-3-3-|-3-3-3-3-3-3-3-3-|-----------------|-2-2-2-2-2-2-2-2-|

e|-----------------|-----------------|-2-2-2-2-2-2-2-2-|-2-2-2-2-2-2-2-2-|
B|-3-3-3-3-3-3-3-3-|-3-3-3-3-3-3-3-3-|-3-3-3-3-3-3-3-3-|-3-3-3-3-3-3-3-3-|
G|-4-4-4-4-4-4-4-4-|-4-4-4-4-4-4-4-4-|-4-4-4-4-4-4-4-4-|-4-4-4-4-4-4-4-4-|
D|-5-5-5-5-5-5-5-5-|-5-5-5-5-5-5-5-5-|-4-4-4-4-4-4-4-4-|-4-4-4-4-4-4-4-4-|
A|-5-5-5-5-5-5-5-5-|-5-5-5-5-5-5-5-5-|-2-2-2-2-2-2-2-2-|-2-2-2-2-2-2-2-2-|
E|-3-3-3-3-3-3-3-3-|-3-3-3-3-3-3-3-3-|-----------------|-2-2-2-2-2-2-2-2-|

e|-----------------|-----------------|-----------------|---------------|
B|-3-3-3-3-3-3-3-3-|-3-3-3-3-3-3-5-5-|-7---------------|---------------|
G|-4-4-4-4-4-4-4-4-|-4-4-4-4-4-4-6-6-|-7-------F-U-Z-Z-|-F-A-C-T-O-R-Y-|
D|-5-5-5-5-5-5-5-5-|-5-5-5-5-5-5-7-7-|-7---------------|---------------|
A|-5-5-5-5-5-5-5-5-|-5-5-5-5-5-5-7-7-|-5---------------|---------------|
E|-3-3-3-3-3-3-3-3-|-3-3-3-3-3-3-5-5-|-----------------|---------------|


Post Chorus:
   |-3-|  |-3-|  |-3-|  |-3-|    |-3-|  |-3-|  |-3-|  |-3------|
e|-----------------------------|-------------------------------|
B|-11-----11-----11-----11-----|-11-----11-----11-----11-------|
G|---11-----11-----11-----11---|---11-----11-----11-----11-----|
D|-----11-----11-----11-----11-|-----11-----11-----11-----11---|
A|-----------------------------|-------------------------------|
E|-----------------------------|-------------------------------|

   |-3-|  |-3-|  |-3-|  |-3-|    |-3-|  |-3-|  |-3-|  |-3------|
e|-----------------------------|-------------------------------|
B|-12-----12-----12-----12-----|-12-----12-----12-----12-------|
G|---12-----12-----12-----12---|---12-----12-----12-----12-----|
D|-----12-----12-----12-----12-|-----12-----12-----12-----12---|
A|-----------------------------|-------------------------------|
E|-----------------------------|-------------------------------|

   |-3-|  |-3-|  |-3-|  |-3-|    |-3-|  |-3-|  |-3-|  |-3------|
e|-----------------------------|-------------------------------|
B|-10-----10-----10-----10-----|-10-----10-----10-----10-------|
G|---11-----11-----11-----11---|---11-----11-----11-----11-----|
D|-----12-----12-----12-----12-|-----12-----12-----12-----12---|
A|-----------------------------|-------------------------------|
E|-----------------------------|-------------------------------|

   |-3-|  |-3-|  |-3-|  |-3-|    |-3-|  |-3-|  |-3-|  |-3------|
e|-----------------------------|-------------------------------|
B|-11-----11-----11-----11-----|-11-----11-----11-----11-------|
G|---11-----11-----11-----11---|---11-----11-----11-----11-----|
D|-----11-----11-----11-----11-|-----11-----11-----11-----11---|
A|-----------------------------|-------------------------------|
E|-----------------------------|-------------------------------|

   |-3-|  |-3-|  |-3-|  |-3------------------------------------|
e|-----------------------------|-------------------------------|
B|-12-----12-----12-----12-----|-------------------------------|
G|---12-----12-----12-----12---|-------------------------------|
D|-----12-----12-----12-----12-|-------------------------------|
A|-----------------------------|-------------------------------|
E|-----------------------------|-------------------------------|

e|-----------------------------|-----------------------------|
B|-----------------------------|-----------------------------|
G|-----------------------------|-----------------------------|
A|---------------------F-U-Z-Z-|-F-A-C-T-O-R-Y---------------|
A|-----------------------------|-----------------------------|
E|-----------------------------|-----------------------------|


Final Riff:
e|-----------------|------------------------|-----------------|
B|-----------------|-------7h8p7h8p7--------|-----------------|
G|-----6-----6-7---|-6-7-9-----------9-7-6--|---6-7---6-7-9-6-|
D|-8-9---8-9-----9-|------------------------|-9-----9---------|
A|-----------------|------------------------|-----------------|
E|-----------------|------------------------|-----------------|

e|-----------------|---------------|-------------------|
B|-----7-7h8---7---|-7-----------7-|-9b-7----7---------|
G|-7-9-------x---x-|---7-------7---|------10---7-6-7p6-|
D|-----------------|-----7---7-----|-------------------|
A|-----------------|-------9-------|-------------------|
E|-----------------|---------------|-------------------|

e|-----------------|----------------|
B|-----------------|-------7h8p7--0-|
G|-----6-----6-7---|-6-7-9--------0-|
D|-8-9---8-9-----9-|----------------|
A|-----------------|----------------|
E|-----------------|----------------|


Outro:
e|-----------------------------------------------|
B|-----------------------------------------------|
G|-----------------------------------------------|
D|-----------------------------------------------|
A|----------------------------------------0------|
E|--3~------3-2-3-2-3-2-3-2-3-2-3-2-3--4~--------|

e|--------------------------------------------------|
B|--------------------------------------------------|
G|--------------------------------------------------|
D|---x2---x2---x2---x2---x2---x2---x2----x2---------|
A|--0h2--0h3--0h4--0h5--0h7--0h8--0h9--0h10--0h12~--|
E|--------------------------------------------------|

e|---------------------------14-------14-17----14-17-17-15-17-15-|
B|---------------15p14-15-17----15-17-------17-------------------|
G|---------14-17-------------------------------------------------|
D|---------------------------------------------------------------|
A|-2///16~-------------------------------------------------------|
E|---------------------------------------------------------------|

e|-17/18~--17~--15h17p15h17p15h17p15-14h15p15---------------|
B|---------------------------------------------15-----------|
G|------------------------------------------------14--12----|
D|----------------------------------------------------------|
A|----------------------------------------------------------|
E|----------------------------------------------------------|

e|---------------------------------------------------------|
B|----------------------------0----------------------------|
G|--11-12-14--12--11--------0--Enter lots of noise,--------|
D|---------------------12~~---0--can't hear the notes------|
A|---------------------------------------------------------|
E|---------------------------------------------------------|

e|---------------------------------------------0~---|
B|---------------------------------------------0~---|
G|---------------------------------------------0~---|
D|---------------------------------------------0~---|
D|------------------------------------------0--0~---|
A|-----------------Enter Fuzz factory-------0--0~---|
E|--5-5-5-3-7/---------------------------------0~---|
comments
print report bad tab
5 comments total. Showing first comments.
0 reply
Debml wrote on August 7 2009, 06:43 am

Excellent tab man! keep up the good work ;)

0 reply
whammypedalftw wrote on January 15 2010, 12:04 pm

spot on outro like it was at wembley

0 reply
mcraddict81592 wrote on February 21 2010, 04:15 pm

Hahahah, FUZZ FACTORY

..That made me laugh. Good tab btw.

I want to post or [tab]
guest
You may want to rate the tab now too:
select rating
Please do not post tabs as comments. Select "correction" instead!