Oops, an error
Loading. Please wait.

Save Me Bass Tab

by Muse
ver2
ver2

Whole song

More versions @911Tabs.com
524 views 6 this week
no commentswrite comment
1 2 3 4 5
accurate
x 1
Autoscroll
+/-
esc
set tempo
stop
Contributor
Difficulty
Tuning
intermediate
D A D G B E
WARNING: You are trying to view
                                    content from Ultimate-Guitar.com
                                    in an unauthorized application,
                                    which is prohibited.

                                    Please use an official Ultimate
                                    Guitar Tabs application for iPhone,
                                    iPad or Android to access legitimate
                                    chords, guitar, bass, and drum tabs
                                    from Ultimate-Guitar.com database.

                                    Type "ultimate guitar tabs" in Apple
                                    App Store's or Android Market's
                                    search to find the application.
                                    Save Me                                     


                                                                            Muse
Track 2



G||-------|-------|-------|-------|-------|-------|-------|-------|-------|
D||-------|-------|-------|-------|-------|-------|-------|-------|-------|
A||-------|-------|-------|-------|-------|-------|-------|-------|-------|
D||-------|-------|-------|-------|-------|-------|-------|-------|-------|


-------|-------|-------|-------|-------|-------|-------|-------|-------|-------|
-------|-------|-------|-------|-------|-------|-------|-------|-------|-------|
-------|-------|-------|-------|-------|-------|-------|-------|-------|-------|
-------|-------|-------|-------|-------|-------|-------|-------|-------|-------|


-------|-------|-------|-------|-------|-------|-------|-------|-------|-------|
-------|-------|-------|-------|-------|-------|-------|-------|-------|-------|
-------|-------|-------|-------|-------|-------|-------|-------|-------|-------|
-------|-------|-------|-------|-------|-------|-------|-------|-------|-------|


                          H.              H.              H.            
-------|-------|-------|---------------|---------------|---------------|
-------|-------|-------|---------------|---------------|---------------|
-------|-------|-------|---------------|---------------|---------------|
-------|-------|-------|--0------------|--L------------|--L------------|


  H.              H.              H.              H.              H.            
---------------|---------------|---------------|---------------|---------------|
---------------|---------------|---------------|---------------|---------------|
---------------|---------------|---------------|---------------|---------------|
--L------------|--7------------|--L------------|--L------------|--L------------|


  H.              H.              H.              H.              H.            
---------------|---------------|---------------|---------------|---------------|
---------------|---------------|---------------|---------------|---------------|
---------------|---------------|---------------|---------------|---------------|
--0------------|--L------------|--L------------|--L------------|--7------------|


  H.              H.              H.               H.            
---------------|---------------|---------------|----------------|
---------------|---------------|---------------|----------------|
---------------|---------------|---------------|----------------|
--L------------|--L------------|--L------------|--10------------|


  H.              H.              H.              H.              H.            
---------------|---------------|---------------|---------------|---------------|
---------------|---------------|---------------|---------------|---------------|
---------------|---------------|---------------|---------------|---------------|
--L------------|--9------------|--L------------|--0------------|--L------------|


  H.              H.               H.              H.            
---------------|---------------|----------------|---------------|
---------------|---------------|----------------|---------------|
---------------|---------------|----------------|---------------|
--L------------|--L------------|--10------------|--L------------|


  H.              H.              H.              H.              H.            
---------------|---------------|---------------|---------------|---------------|
---------------|---------------|---------------|---------------|---------------|
---------------|---------------|---------------|---------------|---------------|
--9------------|--L------------|--8------------|--L------------|--L------------|


  H.              H.              H.              H.              H.            
---------------|---------------|---------------|---------------|---------------|
---------------|---------------|--L------------|--L------------|--L------------|
---------------|--5------------|--L------------|--L------------|--L------------|
--L------------|---------------|---------------|---------------|---------------|


  H.              H.              H.              H.            
---------------|---------------|---------------|---------------|
---------------|---------------|---------------|---------------|
---------------|---------------|---------------|---------------|
--0------------|--L------------|--L------------|--L------------|


   E  E   E  E   E  E      E  E   E  E   E  E      E  E   E  E   E  E   
-----------------------|-----------------------|-----------------------|
-----------------------|-----------------------|-----------------------|
-----------------------|-----------------------|-----------------------|
--10-----10-----10-----|--10-----10-----10-----|--10-----10-----10-----|


   E  E   E  E   E  E     E  E  E  E  E  E     E  E  E  E  E  E   
-----------------------|--------------------|--------------------|
-----------------------|--------------------|--------------------|
-----------------------|--------------------|--------------------|
--10-----10-----10-----|--7-----7-----7-----|--7-----7-----7-----|


  E  E  E  E  E  E     E  E  E  E  E  E      E  E   E  E   E  E   
--------------------|--------------------|-----------------------|
--------------------|--------------------|-----------------------|
--------------------|--------------------|-----------------------|
--7-----7-----7-----|--7-----7-----7-----|--10-----10-----10-----|


   E  E   E  E   E  E      E  E   E  E   E  E      E  E   E  E   E  E   
-----------------------|-----------------------|-----------------------|
-----------------------|-----------------------|-----------------------|
-----------------------|-----------------------|-----------------------|
--10-----10-----10-----|--10-----10-----10-----|--10-----10-----10-----|


  E  E  E  E  E  E     E  E  E  E  E  E     E  E  E  E  E  E   
--------------------|--------------------|--------------------|
--------------------|--------------------|--------------------|
--------------------|--------------------|--------------------|
--7-----7-----7-----|--7-----7-----7-----|--7-----7-----7-----|


  E  E  E  E  E  E      E  E   E  E   E  E      E  E   E  E   E  E   
--------------------|-----------------------|-----------------------|
--------------------|-----------------------|-----------------------|
--------------------|-----------------------|-----------------------|
--7-----7-----7-----|--10-----10-----10-----|--10-----10-----10-----|


   E  E   E  E   E  E      E  E   E  E   E  E     E  E  E  E  E  E   
-----------------------|-----------------------|--------------------|
-----------------------|-----------------------|--------------------|
-----------------------|-----------------------|--------------------|
--10-----10-----10-----|--10-----10-----10-----|--7-----7-----7-----|


  E  E  E  E  E  E     E  E  E  E  E  E     E  E  E  E  E  E   
--------------------|--------------------|--------------------|
--------------------|--------------------|--------------------|
--------------------|--------------------|--------------------|
--7-----7-----7-----|--7-----7-----7-----|--7-----7-----7-----|


   E  E   E  E   E  E      E  E   E  E   E  E      E  E   E  E   E  E   
-----------------------|-----------------------|-----------------------|
-----------------------|-----------------------|-----------------------|
-----------------------|-----------------------|-----------------------|
--10-----10-----10-----|--10-----10-----10-----|--10-----10-----10-----|


   E  E   E  E   E  E     E  E  E  E  E  E     E  E  E  E  E  E   
-----------------------|--------------------|--------------------|
-----------------------|--------------------|--------------------|
-----------------------|--------------------|--------------------|
--10-----10-----10-----|--7-----7-----7-----|--7-----7-----7-----|


  E  E  E  E  E  E     E  E  E  E  E  E     H.              H.            
--------------------|--------------------|---------------|--7------------|
--------------------|--------------------|---------------|---------------|
--------------------|--------------------|---------------|---------------|
--7-----7-----7-----|--7-----7-----7-----|--0------------|---------------|


  H.              Q.     Q.         H.              H.            
---------------|----------------|----------------|---------------|
---------------|--7------9------|--10------------|--9------------|
---------------|----------------|----------------|---------------|
--0------------|----------------|----------------|---------------|


  H.              H.              H.              H.              H.            
---------------|---------------|---------------|--7------------|---------------|
--7------------|--5------------|---------------|---------------|---------------|
---------------|---------------|---------------|---------------|---------------|
---------------|---------------|--0------------|---------------|--0------------|


  Q.     Q.         H.              H.              H.            
----------------|----------------|---------------|---------------|
--7------9------|--10------------|--9------------|--7------------|
----------------|----------------|---------------|---------------|
----------------|----------------|---------------|---------------|


  H.               H.               H.              H.            
---------------|----------------|----------------|---------------|
--5------------|--10------------|--12------------|--9------------|
---------------|----------------|----------------|---------------|
---------------|----------------|----------------|---------------|


   H.              H.              H.              H.            
----------------|---------------|--7------------|--9------------|
--12------------|---------------|---------------|---------------|
----------------|--5------------|---------------|---------------|
----------------|---------------|---------------|---------------|


   H.               H.               H.              H.            
--11------------|----------------|----------------|---------------|
----------------|--10------------|--12------------|--9------------|
----------------|----------------|----------------|---------------|
----------------|----------------|----------------|---------------|


   H.              H.               H.               H.            
----------------|---------------|----------------|----------------|
--12------------|--8------------|--10------------|--12------------|
----------------|---------------|----------------|----------------|
----------------|---------------|----------------|----------------|


  H.              H.              H.              H.              H.            
--9------------|---------------|--7------------|---------------|--7------------|
---------------|---------------|---------------|---------------|---------------|
---------------|--5------------|---------------|--5------------|---------------|
---------------|---------------|---------------|---------------|---------------|


  H.              H.              H.              H.            
---------------|--7------------|---------------|--7------------|
---------------|---------------|---------------|---------------|
--5------------|---------------|--5------------|---------------|
---------------|---------------|---------------|---------------|


   H.               H.               H.               H.            
----------------|----------------|----------------|----------------|
----------------|--10------------|----------------|--10------------|
----------------|----------------|----------------|----------------|
--10------------|----------------|--10------------|----------------|


  H.              H.              H.              H.            
---------------|---------------|---------------|---------------|
---------------|--7------------|---------------|--7------------|
---------------|---------------|---------------|---------------|
--7------------|---------------|--7------------|---------------|


   H.               H.               Q.      Q.        Q.      Q.      
----------------|----------------|------------------|--9------11------|
----------------|--10------------|--10------12------|-----------------|
----------------|----------------|------------------|-----------------|
--10------------|----------------|------------------|-----------------|


  H.              H.              E   E  Q    Q       E  E  Q     Q     
---------------|---------------|-------------------|--7--9--7----------|
---------------|--7------------|--9--10--9----7----|-------------10----|
---------------|---------------|-------------------|-------------------|
--7------------|---------------|-------------------|-------------------|


   H.               H.               H.               H.            
----------------|----------------|----------------|----------------|
----------------|--10------------|----------------|--10------------|
----------------|----------------|----------------|----------------|
--10------------|----------------|--10------------|----------------|


  H.              H.              H.              H.            
---------------|---------------|---------------|---------------|
---------------|--7------------|---------------|--7------------|
---------------|---------------|---------------|---------------|
--7------------|---------------|--7------------|---------------|


   H.               H.               Q.      Q.        Q.      Q.      
----------------|----------------|------------------|--9------11------|
----------------|--10------------|--10------12------|-----------------|
----------------|----------------|------------------|-----------------|
--10------------|----------------|------------------|-----------------|


  H.              H.              E   E  Q    Q       E  E  Q     Q     
---------------|---------------|-------------------|--7--9--7----------|
---------------|--7------------|--9--10--9----7----|-------------10----|
---------------|---------------|-------------------|-------------------|
--7------------|---------------|-------------------|-------------------|


  H.              H.              H.              H.            
---------------|---------------|---------------|---------------|
---------------|---------------|---------------|---------------|
---------------|---------------|---------------|---------------|
--5------------|--L------------|--L------------|--L------------|


   E   E   E   E   E   E      E   E   E   E   E   E   
--------------------------|--------------------------|
--------------------------|--------------------------|
--10--10--10--10--10--10--|--10--10--10--10--10--10--|
--------------------------|--------------------------|


   E   E   E   E   E   E      E   E   E   E   E   E      H        E  E    
--------------------------|---------------------------|------------------|
--------------------------|---------------------------|------------------|
--10--10--10--10--10--10--|--10--10--10--10--10--10\--|--3--------L--LS--|
--------------------------|---------------------------|------------------|


   H.              E  Q    Q    E       H.              H        E  E    
----------------|-------------------|----------------|------------------|
----------------|-------------------|----------------|------------------|
--15------------|--3--3----3----3S--|--15------------|------------------|
----------------|-------------------|----------------|--7--------L--LS--|


   H.              E  Q    Q    E       H.              H        E  E    
----------------|-------------------|----------------|------------------|
----------------|-------------------|----------------|------------------|
----------------|-------------------|----------------|--3--------L--LS--|
--19------------|--7--7----7----7S--|--19------------|------------------|


   H.              E  Q    Q    E       H.              H        E  E    
----------------|-------------------|----------------|------------------|
----------------|-------------------|----------------|------------------|
--15------------|--3--3----3----3S--|--15------------|------------------|
----------------|-------------------|----------------|--7--------L--LS--|


   H.              E  Q    Q    E       E   E   E   E   Q      
----------------|-------------------|-------------------------|
----------------|-------------------|-------------------------|
----------------|-------------------|-------------------------|
--19------------|--7--7----7----7S--|--19--19--19--19--19\----|


   E  E   E  E   E  E      E  E   E  E   E  E      E  E   E  E   E  E   
-----------------------|-----------------------|-----------------------|
-----------------------|-----------------------|-----------------------|
-----------------------|-----------------------|-----------------------|
--10-----10-----10-----|--10-----10-----10-----|--10-----10-----10-----|


   E  E   E  E   E  E     E  E  E  E  E  E     E  E  E  E  E  E   
-----------------------|--------------------|--------------------|
-----------------------|--------------------|--------------------|
-----------------------|--------------------|--------------------|
--10-----10-----10-----|--7-----7-----7-----|--7-----7-----7-----|


  E  E  E  E  E  E     E  E  E  E  E  E      E  E   E  E   E  E   
--------------------|--------------------|-----------------------|
--------------------|--------------------|-----------------------|
--------------------|--------------------|-----------------------|
--7-----7-----7-----|--7-----7-----7-----|--10-----10-----10-----|


   E  E   E  E   E  E      E  E   E  E   E  E      E  E   E  E   E  E   
-----------------------|-----------------------|-----------------------|
-----------------------|-----------------------|-----------------------|
-----------------------|-----------------------|-----------------------|
--10-----10-----10-----|--10-----10-----10-----|--10-----10-----10-----|


  E  E  E  E  E  E     E  E  E  E  E  E     E  E  E  E  E  E   
--------------------|--------------------|--------------------|
--------------------|--------------------|--------------------|
--------------------|--------------------|--------------------|
--7-----7-----7-----|--7-----7-----7-----|--7-----7-----7-----|


  E  E  E  E  E  E      E  E   E  E   E  E      E  E   E  E   E  E   
--------------------|-----------------------|-----------------------|
--------------------|-----------------------|-----------------------|
--------------------|-----------------------|-----------------------|
--7-----7-----7-----|--10-----10-----10-----|--10-----10-----10-----|


   E  E   E  E   E  E      E  E   E  E   E  E     E  E  E  E  E  E   
-----------------------|-----------------------|--------------------|
-----------------------|-----------------------|--------------------|
-----------------------|-----------------------|--------------------|
--10-----10-----10-----|--10-----10-----10-----|--7-----7-----7-----|


  E  E  E  E  E  E     E  E  E  E  E  E     E  E  E  E  E  E   
--------------------|--------------------|--------------------|
--------------------|--------------------|--------------------|
--------------------|--------------------|--------------------|
--7-----7-----7-----|--7-----7-----7-----|--7-----7-----7-----|


   E  E   E  E   E  E      E  E   E  E   E  E      E  E   E  E   E  E   
-----------------------|-----------------------|-----------------------|
-----------------------|-----------------------|-----------------------|
-----------------------|-----------------------|-----------------------|
--10-----10-----10-----|--10-----10-----10-----|--10-----10-----10-----|


   E  E   E  E   E  E     E  E  E  E  E  E     E  E  E  E  E  E   
-----------------------|--------------------|--------------------|
-----------------------|--------------------|--------------------|
-----------------------|--------------------|--------------------|
--10-----10-----10-----|--7-----7-----7-----|--7-----7-----7-----|


  E  E  E  E  E  E     E  E  E  E  E  E     H.              H.            
--------------------|--------------------|---------------|---------------|
--------------------|--------------------|---------------|---------------|
--------------------|--------------------|---------------|---------------|
--7-----7-----7-----|--7-----7-----7-----|--5------------|--L------------|


  H.              H.              H.              H.              H.            
---------------|---------------|---------------|---------------|---------------|
---------------|---------------|---------------|---------------|---------------|
---------------|---------------|---------------|---------------|---------------|
--L------------|--L------------|--L------------|--L------------|--L------------|


  H.                                                                            
---------------|---------------|---------------|---------------|---------------|
---------------|---------------|---------------|---------------|---------------|
---------------|---------------|---------------|---------------|---------------|
--L------------|---------------|---------------|---------------|---------------|


---------------|---------------|---------------|---------------|---------------|
---------------|---------------|---------------|---------------|---------------|
---------------|---------------|---------------|---------------|---------------|
---------------|---------------|---------------|---------------|---------------|


---------------|---------------|---------------|---------------|---------------|
---------------|---------------|---------------|---------------|---------------|
---------------|---------------|---------------|---------------|---------------|
---------------|---------------|---------------|---------------|---------------|


---------------|---------------||
---------------|---------------||
---------------|---------------||
---------------|---------------||




Duration Legend
---------------
W - whole
H - half
Q - quarter
E - 8th
S - 16th
T - 32nd
X - 64th
. - note dotted
|-n-|  - n-tuplets


Tablature Legend
----------------
L - tied note
x - dead note
g - grace note
(n) - ghost note
> - accentuded note
NH - natural harmonic
AH - artificial harmonic
TH - tapped harmonic
SH - semi harmonic
PH - pitch harmonic
h - hammer on
p - pull off
b - bend
br - bendRelease
pb - preBend
pbr - preBendRelease
brb - bendReleaseBend
\n/ - tremolo bar dip
\n - tremolo bar dive
-/n - tremolo bar Release up
/n\ - tremolo bar inverted dip
/n - tremolo bar return
-\n - tremolo bar Release down
S - shift slide
s - legato slide
/ -  slide into from below or out of upwards
\ -  slide into from above or out of downwards
~ - vibrato
W - wide vibrato
tr - trill
TP - tremolo picking
T - tapping
S - slap
P - pop
< - fade in
^ - brush up
v - brush down
comments
We did not receive enough feedback on this tab! Please rate:
1 2 3 4 5
I want to post or [tab]
guest
You may want to rate the tab now too:
select rating
Please do not post tabs as comments. Select "correction" instead!