Oops, an error
Loading. Please wait.

Showbiz Bass Tab

by Muse
ver1
ver1

Album

Whole song

More versions @911Tabs.com
10,104 views 30 this week
1 commentread comment
1 2 3 4 5
excellent!
x 2
Autoscroll
+/-
esc
set tempo
stop
Difficulty
intermediate
WARNING: You are trying to view
                                    content from Ultimate-Guitar.com
                                    in an unauthorized application,
                                    which is prohibited.

                                    Please use an official Ultimate
                                    Guitar Tabs application for iPhone,
                                    iPad or Android to access legitimate
                                    chords, guitar, bass, and drum tabs
                                    from Ultimate-Guitar.com database.

                                    Type "ultimate guitar tabs" in Apple
                                    App Store's or Android Market's
                                    search to find the application.

This is just a collection of tabs from this site, since there wasn't an album tab
for this.


01. Sunburn
02. Muscle Museum
03. Fillip
04. Falling Down
05. Cave
06. Showbiz
07. Unintended
08. Uno
09. Sober
10. Escape
11. Overdue
12. Hate this and I'll love you


01. Sunburn
                
G|--------------------|--------------------|-------------------|
D|--------------------|--------------------|-------------------|
A|--7--------0--------|--3--------0--------|--L----------------|
E|--------------------|--------------------|-------------------|


  W                   H        H           H        H         
-------------------|--------------------|--------------------|
-------------------|--------------------|--------------------|
-------------------|--7--------0--------|--3--------0--------|
-------------------|--------------------|--------------------|


  W                   H        Q    Q        E  E  S S S S S S S S S S S S  
-------------------|----------------------|--------------------------------|
-------------------|----------------------|--------7---5-6-7-5-6-7-5-7-----|
-------------------|----------------------|--0--0----0-----------------5-6-|
-------------------|----------------7/----|--------------------------------|


  E  E  E  S S S S S S S S S S    E  E  S S S S S S S S S S S S  
-------------------------------|--------------------------------|
-------------------------------|--------7---5-6-7-5-6-7-5-7-----|
--7--7--7----------------------|--0--0----0-----------------5-6-|
-----------0-1-2-0-1-2-0-2-0-2-|--------------------------------|


  E  E  E  S S S S S S S S S S    E  E  S S S S S S S S S S S S  
-------------------------------|--------------------------------|
-------------------------------|--------7---5-6-7-5-6-7-5-7-----|
--7--7--7----------------------|--0--0----0-----------------5-6-|
-----------0-1-2-0-1-2-0-2-0-2-|--------------------------------|


  E  E  E  S S S S S S S S S S    E  E  S S S S S S S S S S S S  
-------------------------------|--------------------------------|
-------------------------------|--------7---5-6-7-5-6-7-5-7-----|
--7--7--7----------------------|--0--0----0-----------------5-6-|
-----------0-1-2-0-1-2-0-2-0-2-|--------------------------------|


  E  E  E  S S S S S S S S S S    H        H           W                 
-------------------------------|--------------------|-------------------|
-------------------------------|--2-----------------|-------------------|
--7--7--7----------------------|--------------------|-------------------|
-----------0-1-2-0-1-2-0-2-0-2-|--------------------|-------------------|


  W                   W                   H        H         
-------------------|-------------------|--------------------|
-------------------|-------------------|--------------------|
-------------------|-------------------|--7--------0--------|
-------------------|-------------------|--------------------|


  H        H           W                   W                 
--------------------|-------------------|-------------------|
--------------------|-------------------|-------------------|
--3--------0--------|-------------------|-------------------|
--------------------|-------------------|-------------------|


  H        H           H        H           W                 
--------------------|--------------------|-------------------|
--------------------|--------------------|-------------------|
--7--------0--------|--3--------0--------|-------------------|
--------------------|--------------------|-------------------|


  H        Q    Q        E  E  S S S S S S S S S S S S  
----------------------|--------------------------------|
----------------------|--------7---5-6-7-5-6-7-5-7-----|
----------------------|--0--0----0-----------------5-6-|
----------------7/----|--------------------------------|


  E  E  E  S S S S S S S S S S    E  E  S S S S S S S S S S S S  
-------------------------------|--------------------------------|
-------------------------------|--------7---5-6-7-5-6-7-5-7-----|
--7--7--7----------------------|--0--0----0-----------------5-6-|
-----------0-1-2-0-1-2-0-2-0-2-|--------------------------------|


  E  E  E  S S S S S S S S S S    E  E  S S S S S S S S S S S S  
-------------------------------|--------------------------------|
-------------------------------|--------7---5-6-7-5-6-7-5-7-----|
--7--7--7----------------------|--0--0----0-----------------5-6-|
-----------0-1-2-0-1-2-0-2-0-2-|--------------------------------|


  E  E  E  S S S S S S S S S S    E  E  S S S S S S S S S S S S  
-------------------------------|--------------------------------|
-------------------------------|--------7---5-6-7-5-6-7-5-7-----|
--7--7--7----------------------|--0--0----0-----------------5-6-|
-----------0-1-2-0-1-2-0-2-0-2-|--------------------------------|


  E  E  E  S S S S S S S S S S    W                   W                 
-------------------------------|-------------------|-------------------|
-------------------------------|-------------------|-------------------|
--7--7--7----------------------|-------------------|-------------------|
-----------0-1-2-0-1-2-0-2-0-2-|-------------------|-------------------|


02. Muscle Museum

Intro:  
G::----------------|
D::4---4---4---4---|
A::--4---4---4---4-|
E::----------------|
 
Verse:
G::----------------|----------------|--------------6-|7-4--------------|
D::4---4---4---4---|----------------|4---4---4---4---|----4------------|
A::--4---4---4---4-|4---4---4---4---|--4---4---4-----|------5---5--7-8-|
E::----------------|--4---4---4---4-|----------------|--------7--------| 

PreChorus:
G::----------------|7-----------------|
D::----------------|------------------| Then 1 bar of D and 1 bar
A::----------------|------------------| an octave higher (16th notes)
E::2-2-2/9---------|--4-4-4-----------|

The slide in the background sounds something improvised like this:
G::---------|
D::---------|
A::------9\0|
E::---------|

Chorus:
G::---------------------|-----------------------|
D::------4-2--------4-2-|-----------------------|
A::---------------------|4-4-4--4-4--4-4-4--4-4-|
E::2-2-2------2-2-2-----|-----------------------|

G::----------------|----------------------|
D::------4-2-4-2-4-|----------------------|
A::----------------|2-2-2--2-2--2-2-------|
E::2-2-2-----------|----------------5-4-5-|

G::---------------------|-----------------------|
D::------4-2--------4-2-|-----------------------|
A::---------------------|4-4-4--4-4--4-4-4--4-4-|
E::2-2-2------2-2-2-----|-----------------------|

G::----------------|----------------------|
D::------4-2-4-2-4-|------------------0-2-|
A::----------------|2-2-2--2-2--2-2-2-----|
E::2-2-2-----------|----------------------| 

Riff1:
G::----------------|----------------|----------------|----------------|
D::----2-------2---|----3-------3---|4---4---4---4---|4---4---4---4---|
A::----------------|----------------|--4---4---4---4-|--4---4---4---4-|
E::0-0---0-0-0---0-|1-1---1-1-1---1-|----------------|----------------| 

Bridge/End:
G::----------------|----------------|----------------|-----------------|
D::----2-------2---|----3-------3---|4-4-4-4-2-2-2-2-|-----------------|
A::----------------|----------------|----------------|5-5-5-5-5-5-5/12-|
E::0-0---0-0-0---0-|1-1---1-1-1---1-|----------------|-----------------|
                                                        
G::----------------|----------------|----------------|-----------------|
D::----2-------2---|----3-------3---|4-4-4-4-2-2-2-2-|-----------------|
A::----------------|----------------|----------------|5-5-5-5-5-5------|
E::0-0---0-0-0---0-|1-1---1-1-1---1-|----------------|------------10\0-|
          
G::----------------|----------------|----------------|----------------|
D::----------------|----------------|----------------|----------------|
A::0-0-0-0-0-0-0-0-|----------------|--------2-2-0-4-|--------2-2-0-4-|
E::----------------|4-4-4-4-4-4-4-4-|2-2-2-2---------|2-2-2-2---------|
                                                        
G::----------------|----------------|----------------|
D::----------------|----------------|----------------|
A::------0-2-2-0---|------0-2-2-0-4-|----------------|
E::2-2-4---------4-|2-2-4-----------|2---------------|


03. Fillip

Intro

G:----------------------------|
D:----------------------------|
A:----------------------------|
E:--3-3-3-----3-3-3---3-3-3---|

Verse (2x)

G:------------------------------------------------------|
D:------------------------------------------------------|
A:--0-2-0-2-5--0-2-0-2-7--0-2-0-2-7-5-3-3-2-0-2---------|
E:------------------------------------------------------|

Chorus

G:---------------------------------------------------------------------|
D:-------------------------------------------------44444444------------|
A:-------------------------------333333333355555555--------4-----------|
E:--33333332222222000000004444444---------------------------22222222---|

G:------------------------------|
D:------------------------------|
A:------------------------------|
E:--3-3-3-----3-3-3---3-3-3-----|

Verse

Chorus

G:---------------------------------------------------------------------|
D:-------------------------------------------------44444444------------|
A:-------------------------------333333333355555555--------4-----------|
E:--33333332222222000000004444444---------------------------22222222---|

G:---------------------------------------------------------------------|
D:---------------------------------------------------------------------|
A:--44444444-----------------------------------------------------------|
E:-----------22222222--3-----------------------------------------------|

Bridge

G:-------------------------------------------------------------------------|
D:--55------5---5----44-----4---4--5--5-5------5---5----44-----4---4-------|
A:-----5------5---------4-----4-----------5------5---------4-----4---------|
E:-------3--------2-------2------------------3--------2-----2 -------------|

G:---------------------------------------------------------------------|
D:---3-3------2-2----3---3-3------2-2----------------------------------|
A:-------3--------2----------3--------2--------------------------------|
E:-1-------0-------------------0---------0-----------------------------|

G:---------------------------------------------------------------------|
D:---------------------------------------------------------------------|
A:-----------------------555555-------777777---------5-----------------|
E:--000000000----7-7-5-7-------7-7-5-7-------7-7-5-7--8-8-8-7-5-7------|

G:--------------------------------------------------------|
D:--------------------------------------------------------|
A:----------555555-------777777---------5-----------------|
E:--7-7-5-7-------7-7-5-7-------7-7-5-7--8-8-8-7-5-7------|

Chorus

G:-------------------------------------------------------------|
D:-------------------------------------------------------------|
A:-------------------------------333333333355555555777777777---|
E:--33333332222222000000004444444------------------------------|

G:---------------------------------------------------------------------|
D:-------------------------------------------------44444444------------|
A:-------------------------------333333333355555555--------4-----------|
E:--33333332222222000000004444444---------------------------22222222---|

G:-----------------------------|
D:--4-------4------------------|
A:----4-------4----------------|
E:------2-------2-------2~-----|


04. Falling Down

Chorus (1:14)
G|----------------------------------------------------------|
D|----------------------------------------------------------|
A|---------------------1-23--33---4-(4)---5-55---6------6-6-|
E|-1-(1)---0---2-34--------------------------------6--------|

Verse (1:39)
G|-----------------------------------------------|
D|-----------------------------------------------|
A|----------------46-------------------4/6-------|
E|-5---5---5---5------5--3--0------5------5------|

G|--------------------------------------------|
D|--------------------------------------------|
A|------------------6-------------------4/6---|
E|-5---5---5---5---5----5--3--0----5--5----5--|

Chorus (2:27)
G|-------------------------------------------------------------------------|
D|-------------------------------------------------------------------------|
A|-------------------------------1-23--33---4-44---5-55---6-----6-6--------|
E|-3-31--1-1--1--0--0--2-34--4------------------------------6------------4-|

Verse (2:51)
G|---------------------------------------------|
D|-----------------------------------6---------|
A|----------------4/6------------------4/6-----|
E|-5---5---5---5------5--3--0------5------5----|

G|---------------------------------------------|
D|---------------------------------------------|
A|------------------6--------------------4/6---|
E|-5---5---5---5---5----5--3--0----5--5------5-|

Chorus (3:38)
G|-------------------------------------------------------------------------|
D|-------------------------------------------------------------------------|
A|-------------------------------1-23--33---4-44---5-55---6-----6-6--------|
E|-3-31--1-1--1--0--0--2-34--4------------------------------6------------4-|


05. Cave

Intro x1
G|--------------------------5h777-5h777-------------------------------------|
D|-00000-00000-00000-00000--------------------------------------------------|
A|--------------------------------------------------------------------------|
E|--------------------------------------------------------------------------|

Main Riff x8		Variation of main riff
G|----------------|     G-------------------|
D|-0000h30--------|     D--0~00h30----------|
A|-----------34---|     A------------34-----|
E|---------45-----|     E----------45-------|

End Main Riff x1
G|--5h777--5h777-------|
D|---------------------|
A|---------------------|
E|---------------------|

Main Riff x4

Chorus Prelude
G|----------2------3------5----00(12)0-----10------9-----7~-----------------|
D|--------------------------------------------------------------------------|
A|---5----00-0---11-1---33-3-------------88--8---77-7--66-------------------|
E|-33-3---------------------------------------------------------------------|

Main Riff x4
End Main Riff x1
Main Ruff x4
Chorus Prelude x1

Chorus x3
G|-------------------------------------------------------|
D|-00000000----------------------------------------------|
A|-------------------------------------------------------|
E|---------22222222-33333333-33333333--------------------|

Repeat entire song all over again ^^

Throughout 3:18 - 4:05, starting softly:
G|--------------------------------------------------------------------------|
D|-0000-00000-00000-etc-----------------------------------------------------|
A|--------------------------------------------------------------------------|
E|--------------------------------------------------------------------------|

4:05 x2
G|---------------------------------7----------------------------------------|
D|-0--0--0-0-000------------------------------------------------------------|
A|---------------1--1--1-1-111-1/5--5~4~3~2~-2-2-2-2222---------------------|
E|--------------------------------------------------------------------------|

End on:
G|-----------|
D|-----------|
A|-2/5~------|
E|-----------|


06. Showbiz

Riff A x4
G|------------------------------------|
D|------------------------------------|
A|------------------------------------|
E|-2-2-2-2--2-2-2-2--2-2-2-2--2-2-2-2-|

Riff B x2
G|------------------------------------|------------------------------------|
D|------------------------------------|-------4-------------4--------------|
A|------------------------------------|--------------------------------4---|
E|-2-2-2-2--2-2-2-2--2-2-2-2--2-2-2-2-|-5-2-2----2-2-5-2--2---2-2--5-2---2-|
      
Riff c
G|--------------------------------------|---------------------------------|
D|--------------------------------------|---------------------------------|
A|-2-2-2-2-2-2-2-2-2-2-2-2-2-2-2-2------|---------------------------------|
E|--------------------------------------|-5-5-5-5-5-5-5-5-5-5-5-5-5-5-5-5-|

G|--------------------------------------|
D|--------------------------------------|
A|-2-2-2-2-2-2-2-2-2-2-2-2-2-2-2-2------|
E|--------------------------------------|

G|------------------------------------|------------------------------------|
D|------------------------------------|------------------------------------|
A|------------------------------------|-5-5-5-5--5-5-5-5--5-5-5-5--5-5-5-5-|
E|-2-2-2-2--2-2-2-2--2-2-2-2--2-2-2-2-|------------------------------------|
     
G|------------------------------------|------------------------------------|
D|------------------------------------|------------------------------------|
A|-4-4-4-4--4-4-4-4--4-4-4-4--4-4-4-4-|-2-2-2-2--2-2-2-2--2-2-2-2--2-2-2-0-|
E|------------------------------------|------------------------------------|
    
Riff D x2
G|---------------------------------------|
D|---------------------------------------|
A|---------------------------------------|
E|-2-2-2-2--2-2-2-2--2-2-2-2--2-2-2-2----|

G|---------------------------------------|
D|-4-----4------4-------4------4---4-----|
A|---------------------------------------|
E|---2-2----2-2---2--2---2-2----2---2----|


Riff E
G|------------------------------------|-------------------------------------|
D|------------------------------------|-------------------------------------|
A|-5-5-5-5--5-5-5-5--5-5-5-5--5-5-5-5-|-2-2-2-2--2-2-2-2--2-2-2-2--2-2-2-4--|
E|------------------------------------|-------------------------------------|

G|------------------------------------|-------------------------------------|
D|------------------------------------|-------------------------------------|
A|-5-5-5-5--5-5-5-5--5-5-5-5--5-5-5-5-|-2-2-2-2--2-2-2-2--/14-12/14-12/14---|
E|------------------------------------|-------------------------------------|

Riff F
G|------------------------------------|-------------------------------------|
D|------------------------------------|-------------------------------------|
A|------------------------------------|-5-5-5-5--5-5-5-5--5-5-5-5--5-5-5-5--|
E|-2-2-2-2--2-2-2-2--2-2-2-2--2-2-2-2-|-------------------------------------|

G|------------------------------------|-------------------------------------|
D|------------------------------------|-------------------------------------|
A|-4-4-4-4--4-4-4-4--4-4-4-4--4-4-4-4-|-2-2-2-2--2-2-2-2--2-2-2-2--2-2-2-2--|
E|------------------------------------|-------------------------------------|

G|------------------------------------|-------------------------------------|
D|------------------------------------|-------------------------------------|
A|------------------------------------|-5-5-5-5--5-5-5-5--5-5-5-5--5-5-5-5--|
E|-2-2-2-2--2-2-2-2--2-2-2-2--2-2-2-2-|-------------------------------------|

G|------------------------------------|-------------------------------------|
D|------------------------------------|-------------------------------------|
A|-4-4-4-4--4-4-4-4--4-4-4-4--4-4-4-4-|-2-2-2-2--2-2-2-2--/14-12/14-12/14---|
E|------------------------------------|-------------------------------------|

Riff G x3
G|------------------------------------|
D|-4-4-4-4--4-4-4-4--4-4-4-4--4-4-4-4-|
A|------------------------------------|
E|------------------------------------|

G|------------------------------------|------------------------------------|
D|---4---4----4---4----4---4----4---4-|---4---4----4---4----4---4----4---4-|
A|-5---5----5---5----5---5----5---5---|-2---2----2---2----2---2----2---2---|
E|------------------------------------|------------------------------------|

Structure:  A--B--C--D--E--F--G--F--F--F


07. Unintended

00:42
Main riff
g|--------------------------------|
d|---------0~---------------------| x3
a|-----0~----------3~--2~---------|
e|-0~----------3~----------0~--0~-| 

02:04
g|-----------------------------------------------------------|
d|-----2---------------0-----------------2-1-----------------|
a|---2---2-3-2-------0---0-2---------0-2-----3-2-------------|
e|-0-----------5-3-2---------5-3-2-0------------5-4~--3~--2~-|

02:32
g|--------------------------------|
d|---------0~---------------------| x2
a|-----0~----------3~--2~---------|
e|-0~----------3~----------0~--0~-|

03:27
Ending
g|---------------------------------|
d|---------------------------------|
a|-0~------------------------------|
e|-----3~--2~--1~--0~--0~--0~--0~--|


08. Uno

G|-----------|-----------|-----------|-----------|-----------|-----------|
D|-----------|-------2---|-------2---|-------2---|-------2---|-----1-4-1-|
A|-----------|-----2---2-|-----2---2-|-0-0-3---3-|-0-0-3---3-|-2-2-------|
E|----0/12\0-|-0-0-------|-000-------|-----------|-----------|-----------|

G|-----------|-----------|-----------|
D|-------2---|-------2---|------22---|
A|-000-3---3-|-----2---2-|-----2--22-|
E|-----------|-0-0-------|-000-------|

G|-----------|-----------|-----------|-----------|-----------|
D|-------2---|-------2---|-------2---|-------2---|-----1-4-1-|
A|-----2---2-|-----2---2-|-0-0-3---3-|-0-0-3---3-|-2-2-------|
E|-0-0-------|-000-------|-----------|-----------|-----------|

G|-----------|-----------|
D|-------2---|-----------|
A|-000-3---3-|-----------|
E|-----------|-0---------|

1:00 - 1:20 (no bass)

G|----------------|----------------|----------------|----------------|
D|----------14----|----------14----|----------14----|----------14----|
A|-------14----14-|-------14----14-|-12-12-15----15-|-12-12-15----15-|
E|-12-------------|-12-12----------|----------------|----------------|

G|----------11----|----------------|----------------|--------------------|
D|-------13----13-|----------14----|----------14----|--------------------|
A|-14-14----------|-12-12-15----15-|-------14----14-|--------------------|
E|----------------|----------------|-12-12----------|-12-x-x-0-12-0/12\0-|
                                                     play this bar softly

G|-----------|-----------|-----------|-----------|-----------|
D|-------2---|-------2---|-------2---|-------2---|-----1-4-1-|
A|-----2---2-|-----2---2-|-0-0-3---3-|-0-0-3---3-|-2-2-------|
E|-0-0-------|-000-------|-----------|-----------|-----------|

G|-----------|-----------|
D|-------2---|-----------|
A|-000-3---3-|-----------|
E|-----------|-0---------|

G|----------------|----------------|----------------|----------------|
D|----------14----|----------14----|----------14----|----------14----|
A|-------14----14-|-------14----14-|-12-12-15----15-|-12-12-15----15-|
E|-12-------------|-12-12----------|----------------|----------------|

G|----------11----|----------------|----------------|----------------|
D|-------13----13-|----------14----|----------14----|----------------|
A|-14-14----------|-12-12-15----15-|-------14----14-|----------------|
E|----------------|----------------|-12-12----------|-12-------------|

2:10 - 2:26 (no bass)

G|----------------|----------------|----------------|----------------|
D|----------14----|----------14----|----------14----|----------14----|
A|-------14----14-|-------14----14-|-12-12-15----15-|-12-12-15----15-|
E|-12-------------|-12-12----------|----------------|----------------|

G|----------11----|----------------|----------------|--------------------|
D|-------13----13-|----------14----|----------14----|--------------------|
A|-14-14----------|-12-12-15----15-|-------14----14-|--------------------|
E|----------------|----------------|-12-12----------|-12-x-x-7-7-8-12-12-|
                                                                 |
                               play last bar softly and bend this note 1/4

G|-----------|-----------|-----------|-----------|-----------|
D|-------2---|-------2---|-------2---|-------2---|-----1-4-1-|
A|-----2---2-|-----2---2-|-0-0-3---3-|-0-0-3---3-|-2-2-------|
E|-0-0-------|-000-------|-----------|-----------|-----------|

G|-----------|-----------|-----------|
D|-------2---|-------2---|------22---|
A|-000-3---3-|-----2---2-|-----2--22-|
E|-----------|-0-0-------|-000-------|

G|-----------|-----------|-----------|-----------|-----------|
D|-------2---|-------2---|-------2---|-------2---|-----1-4-1-|
A|-----2---2-|-----2---2-|-0-0-3---3-|-0-0-3---3-|-2-2-------|
E|-0-0-------|-000-------|-----------|-----------|-----------|

G|-----------|-----------|----------------------------|
D|-------2---|-------2---|----------------------------|
A|-000-3---3-|-----2---2-|----------------------------|
E|-----------|-0-0-------|-12-121212-12-12-1212121212-|
                             play this bar softly

G|-----------|-----------|-----------|-----------|-----------|
D|-------2---|-------2---|-------2---|-------2---|-----1-4-1-|
A|-----2---2-|-----2---2-|-0-0-3---3-|-0-0-3---3-|-2-2-------|
E|-0-0-------|-000-------|-----------|-----------|-----------|

G|-----------|-----------|-----------|
D|-------2---|-------2---|-----------|
A|-000-3---3-|-----2---2-|-----------|
E|-----------|-0-0-------|-0~--------|


09. Sober

Verse
G:-----------------------------------------| 
D:-----------------------------------------| 
A:-2222-2222--------------------------00-1-| x2
E:----------1111-1111-2222-2222-4444-4-----|

Pre-chorus
G:-----------------------------------------|
D:-----------------------------------------|
A:-----------------------------------------|
E:-3333-3333-3333-3333-4444-4444-4444-4444-|

G:---------------------------|
D:---------------------------|
A:---------------------------|
E:-3333-3333-3333-3333-4~~~~-|

CHORUS: 
G:-------------------------------------------------|
D:----2----------4----------5----0h5-0h5-0h4-0h3p0-|
A:-------------------------------------------------| x6
E:-0-0---0h2-0h2----0h3-0h3------------------------|

On seventh time, go to this

Post-chorus/Pre-verse
G:----------------------|
D:----------------------|
A:-----------------00-1-|
E:-0000-0002-3334-4-----|

Now repeat (Verse - Pre-chorus - Verse - Post-chorus)
Verse
G:-----------------------------------------| 
D:-----------------------------------------| 
A:-2222-2222--------------------------00-1-| x4
E:----------1111-1111-2222-2222-4444-4-----|

Pre-chorus
G:-----------------------------------------|
D:-----------------------------------------|
A:-----------------------------------------|
E:-3333-3333-3333-3333-4444-4444-4444-4444-|

G:---------------------------|
D:---------------------------|
A:---------------------------|
E:-3333-3333-3333-3333-4~~~~-|

CHORUS: 
G:-------------------------------------------------|
D:----2----------4----------5----0h5-0h5-0h4-0h3p0-|
A:-------------------------------------------------| x6
E:-0-0---0h2-0h2----0h3-0h3------------------------|

On seventh time, go to this

Post-chorus/Pre-verse
G:----------------------|
D:----------------------|
A:-----------------00-1-|
E:-0000-0002-3334-4-----|

Interlude/Guitar Solo
G|---------------------------|
D|---------------------------|
A|-222\---222\---222\---222\-|
E|---------------------------|

G:---------------------------------|
D:---------------------------------|
A:-----2-------4-------5-------7---| x4
E:-0-0---0-2-2---2-3-3---3-5-5---5-|

One round rest

Verse riff
G:-----------------------------------------| 
D:-----------------------------------------| 
A:-2222-2222--------------------------00-1-| x1
E:----------1111-1111-2222-2222-4444-4-----|

After solo pre-chorus      |----fill-----|
G:------------------------/4~~-----------|
D:------------------6~-----------4-6-4---|
A:-----------------------------6-------6-|
E:-3333-3~~---4444-----------------------|

G:---------------|
D:------5~~------|
A:---------------|
E:-3333-----4~~--|

One last chorus
G:-------------------------------------------------|
D:----2----------4----------5----0h5-0h5-0h4-0h3p0-|
A:-------------------------------------------------| x6
E:-0-0---0h2-0h2----0h3-0h3------------------------|

On seventh time, go to this

G:----------------------|---------|
D:----------------------|---------|
A:-----------------00-1-|-7777-7\-|
E:-0000-0002-3334-4-----|---------|


10. Escape

Pre-Chorus 1

G-|--------------------|--------------------|
D-|--------------------|--------------------|
A-|-----------1--------|--2--------0--------|
E-|--2-----------------|--------------------|

G-|--------------------|--------------------|
D-|--------------------|--------------------|
A-|--------------------|--------------------|
E-|--4--------3--------|--2-----------------|

G-|--------------------|--------------------|
D-|--------------------|--------------------|
A-|-----------1--------|--2--------0--------|
E-|--2-----------------|--------------------|

G-|--------------------|--------------------|
D-|--------------------|-----------4~-------|
A-|--------------------|--------------------|
E-|--4--------3--------|--2-----------------|

Chorus 1 (slow)
G-|------------------|-------------------|
D-|------------------|-------------------|
A-|--2-2-------------|----------------0--|
E-|------------------|--3-3-3-3-3-3-3----|

G-|------------------|-------------------|
D-|------------------|-------------------|
A-|--2-2-------------|----------5-5-5-5--|
E-|------------------|--3-3-3-3----------|

G-|------------------|-------------------|
D-|------------------|-------------------|
A-|--2-2-------------|----------5-5-5-4--|
E-|------------------|--3-3-3-3----------|

G-|------------------|-------------------|
D-|------------------|-------------------|
A-|--2-2-------------|--5-5-5-5----------|
E-|------------------|----------3-3-3-3--|

Verse 2 x2
G-|-------------------|------------------|
D-|-------------------|------------------|
A-|--5-5-5-5-5-5-5-5--|------------------|
E-|-------------------|-3-3-3-3-3-3-3-3--|

G-|-------------------|------------------|
D-|-------------------|------------------|
A-|-------------------|------------------|
E-|--2-2-2-2-2-2-2-2--|-3-3-3-3-3-3-3-3--|

Pre-Chorus 2 x2
G-|------------------|------------------|
D-|------------------|------------------|
A-|----------1-1-1-1-|-2-2-2-2-0-0-0-0--|
E-|--2-2-2-2---------|------------------|

G-|------------------|------------------|
D-|------------------|------------------|
A-|------------------|------------------|
E-|--4-4-4-4-3-3-3-3-|-2----------------|

Chorus 2 (without singing)
G-|------------------|-------------------|
D-|------------------|-------------------|
A-|--2-2-------------|----------------0--|
E-|-------\3---------|--3-3-3-3-3-3-3----|

G-|------------------|-------------------|
D-|------------------|-------------------|
A-|--2-2--5\3--------|----------5-5-5-5--|
E-|-------5\3--------|--3-3-3-3----------|

G-|------------------|-------------------|
D-|------------------|-------------------|
A-|--2-2-------------|----------5-5-5-4--|
E-|------------------|--3-3-3-3----------|

G-|------------------|-------------------|
D-|------------------|-------------------|
A-|--2-2-------------|--5-5-5-5-5-5-5-5--|
E-|------------------|-------------------|

End
G-|------------------|-------------------|
D-|------------------|-------------------|
A-|--5---------------|-------------------|
E-|------------------|-------------------|


11. Overdue

G|-----------------------------|
D|------5----------------------|
A|0--5h7-7p5-7p5-7p5p3-4~-x-x--|x3 (on the last time, don't play the muted notes)
E|-----------------------------|

G|----------------------------|
D|3-3----3-3----3-3----3-3----|
A|----------------------------|
E|----------------------------|

G|---------------------------------------------------------|
D|3-3---3-3-3----2----2-2-2----3-3---3-3-3----/7-5-4--3----|
A|---------------------------------------------------------|x2
E|---------------------------------------------------------|

G|------------------------------------------------------------------|
D|3-3---3-3-3----2----2-2-2----3-3-3-3-3-3-1------------------------|
A|-------------------------------------------3----------------------|
E|---------------------------------------------1-1-1-1-1-1-1/(10)\--|

G|-----------------------------------|
D|------5----------------------------|
A|0--5h7-7p5-7p5-7p5p3-4--3h4h5p4p3--|x4
E|-----------------------------------|

G|----------------------------|
D|3-3----3-3----3-3----3-3----|
A|----------------------------|
E|----------------------------|

G|---------------------------------------------------------|
D|3-3---3-3-3----2----2-2-2----3-3---3-3-3----/7-5-4--3----|
A|---------------------------------------------------------|x2
E|---------------------------------------------------------|

G|------------------------------------------------------------------|
D|3-3---3-3-3----2----2-2-2----3-3-3-3-3-3-1------------------------|
A|-------------------------------------------3----------------------|
E|---------------------------------------------1-1-1-1-1-1-1/(10)\--|

G|-----------------------------------|
D|------5----------------------------|
A|0--5h7-7p5-7p5-7p5p3-4--3h4h5p4p3--|x12
E|-----------------------------------|


12. Hate this and I'll love you

Verse: Everything I had...

G|--------|---------|
D|---5-4--|--7-5-0--|
A|--------|---------|
E|--------|---------|

Chorus: Like I was born...

G|---------|---------|---------|---------|---------|---------|--------|
D|---------|---------|---------|---------|---------|---------|--------|
A|7-7-77--7/2-2-22--2|---------|---------|---------|---------|2~------|
E|---------|---------|2-2-22--2|2-2-22--2|0-0-00--0|2-2-22--2|--------|

Verse: You left us...

G|--------|---------|
D|-7-5-4--|--7-5-0--|
A|--------|---------|
E|--------|---------|x2

Chorus: Cause I was born...

G|---------|---------|---------|---------|---------|---------|---------|
D|---------|---------|---------|---------|---------|---------|---------|
A|7-7-77--7\2-2-22--2|---------|---------|---------|---------|2-2-22--2|
E|---------|---------|2-2-22--2|2-2-22--2|0-0-00--0|2-2-22--2|---------|

...And I'm getting strong   

G|---------|---------|---------|---------|---------|---------|---------|----|
D|---------|---------|---------|---------|---------|---------|---------|----|
A|---------|---------|---------|---------|---------|---------|---------|2~--|
E|5-5-55--5|4-4-44--4|3-3-33--3|0-0-00--0|3-3-33--3|0-0-00--0|2-2-22--2|----|

You led me on...

G|---------|---------|
D|9-7-5-4--|--7-5\0--|
A|---------|---------|
E|---------|---------|

G|--------|---------|
D|-7-5-4--|--7-5-0--|
A|--------|---------|
E|--------|---------| x2

Chorus:

G|---------|---------|---------|---------|---------|---------|---------|
D|---------|---------|---------|---------|---------|---------|---------|
A|7-7-77--7\2-2-22--2|---------|---------|---------|---------|2-2-22--2|
E|---------|---------|2-2-22--2|2-2-22--2|0-0-00--0|2-2-22--2|---------|

G|---------|---------|---------|---------|---------|---------|---------|
D|---------|---------|---------|---------|---------|---------|---------|
A|---------|---------|---------|---------|---------|---------|---------|
E|5-5-55--5|4-4-44--4|3-3-33--3|0-0-00--0|3-3-33--3|0-0-00--0|2-2-22--2|

G|---------|---------|---------|---------|---------|---------|---------|
D|---------|---------|---------|---------|---------|---------|---------|
A|2-2-22--2|---------|---------|---------|---------|---------|5-5-55--5|
E|---------|5-5-55--5|3-3-33--3|2-2-22--2|5-5-55--5|3-3-33--3|---------|

G|---------|---------|
D|---------|---------|
A|5---5----|---------|
E|---------|5~-------|
comments
We did not receive enough feedback on this tab! Please rate:
print report bad tab
1 2 3 4 5
1 comment total.
0 reply
4useless wrote on June 6 2010, 02:24 pm

2 of my tabs is here :D

I want to post or [tab]
guest
You may want to rate the tab now too:
select rating
Please do not post tabs as comments. Select "correction" instead!