Oops, an error
Loading. Please wait.

Starlight Tab

by Muse
ver4
ver4
More versions @911Tabs.com
12,243 views 3 this week
3 commentsread comments
1 2 3 4 5
accurate
x 2
Autoscroll
+/-
esc
set tempo
stop
Contributor
Difficulty
intermediate
WARNING: You are trying to view
                                    content from Ultimate-Guitar.com
                                    in an unauthorized application,
                                    which is prohibited.

                                    Please use an official Ultimate
                                    Guitar Tabs application for iPhone,
                                    iPad or Android to access legitimate
                                    chords, guitar, bass, and drum tabs
                                    from Ultimate-Guitar.com database.

                                    Type "ultimate guitar tabs" in Apple
                                    App Store's or Android Market's
                                    search to find the application.
----------------------------------------------------------------------------
                             STARLIGHT - Muse
----------------------------------------------------------------------------
Tabbed by: Jack Sweeney
Email: jack_sweeney_85@hotmail.com

Tuning: EADGBe (standard)

| /  slide up
| \  slide down
| ~  ring
| >  hold & bend

i hope it doesnt sound all tht bad... its a pretty easy song so yeh...
shouldnt be that hard...
if theres any mistakes just email them to me...


e|----------------|-----------------|-----------------|------------------|
B|----------------|-----------------|-----------------|------------------|
G|----------------|-----------------|-----------------|------------------|
D|----------------|-----------------|-----------------|------------------|
A|2-2-2-2-2-2-2-2-|-2-2-2-2-2-2-2-2-|-2-2-2-2-2-2-2-2-|-2-2-2-2-2-2-2-2--|
E|----------------|-----------------|-----------------|------------------|

e|11--------------11--12-|-12---------------12--11------|
B|-----12----------------|-----14-------------------14--|
G|----------11-----------|----------13~13---------------|
D|-----------------------|------------------------------|
A|-----------------------|------------------------------|
E|-----------------------|------------------------------|

e|11--------------11--12-|-12---------------12--11------|
B|-----12----------------|-----12-------------------14--|
G|----------13-----------|----------13~13---------------|
D|-----------------------|------------------------------|
A|-----------------------|------------------------------|
E|-----------------------|------------------------------|

e|----------------|-----------------|-----------------|------------------|
B|----------------|-----------------|-----------------|------------------|
G|----------------|-----------------|-----------------|------------------|
D|----------------|-----------------|-6-6-6-6-6-6-6-2-|-2-2-2-2-2-0-2-4--|
A|2-2-2-2-2-2-2-4-|-4-4-4-4-4-2-4-6-|-----------------|------------------|
E|----------------|-----------------|-----------------|------------------|

e|----------------|-----------------|-----------------|------------------|
B|----------------|-----------------|-----------------|------------------|
G|----------------|-----------------|-----------------|------------------|
D|----------------|-----------------|-6-6-6-6-6-6-6-2-|-2-2-2-2-2-0-2-4--|
A|2-2-2-2-2-2-2-4-|-4-4-4-4-4-2-4-6-|-----------------|------------------|
E|----------------|-----------------|-----------------|------------------|

e|----------------|-----------------|-----------------|------------------|
B|----------------|-----------------|-----------------|------------------|
G|----------------|-----------------|-----------------|------------------|
D|----------------|-----------------|-6-6-6-6-6-6-6-2-|-2-2-2-2-2-0-2-4--|
A|2-2-2-2-2-2-2-4-|-4-4-4-4-4-2-4-6-|-----------------|------------------|
E|----------------|-----------------|-----------------|------------------|

e|----------------|-----------------|-----------------|------------------|
B|----------------|-----------------|-----------------|------------------|
G|----------------|-----------------|-----------------|------------------|
D|----------------|-----------------|-6-6-6-6-6-6-6-2-|-2-2-2-2-2-0-2-4--|
A|2-2-2-2-2-2-2-4-|-4-4-4-4-4-2-4-6-|-----------------|------------------|
E|----------------|-----------------|-----------------|------------------|

e|----------------|-----------------|-----------------|------------------|
B|----------------|-----------------|-----------------|------------------|
G|----------------|-----------------|-----------------|------------------|
D|----------------|-----------------|-6-6-6-6-6-6-6-2-|-2-2-2-2-2-0-2-4--|
A|2-2-2-2-2-2-2-4-|-4-4-4-4-4-2-4-6-|-----------------|------------------|
E|----------------|-----------------|-----------------|------------------|

e|-----7-------------7----|-----7---------7----7-------7--|
B|7---------7---7-------5-|-5--------5--------------5-----|
G|------------------------|-------------------------------|
D|------------------------|-------------------------------|
A|------------------------|-------------------------------|
E|------------------------|-------------------------------|

e|------7-----------7-----|-7-----------7--7-----------7--|
B|4--4-----4--4--4-----4>-|-----4>--------------4>--------|
G|------------------------|-------------------------------|
D|------------------------|-------------------------------|
A|------------------------|-------------------------------|
E|------------------------|-------------------------------|

e|------7-----------7-----|-7-----------7--7-----------7--|
B|4--4-----4--4--4-----4>-|-----4>--------------4>--------|
G|------------------------|-------------------------------|
D|------------------------|-------------------------------|
A|------------------------|-------------------------------|
E|------------------------|-------------------------------|

e|-------------------------|------------------------|
B|-------------------------|------------------------|
G|-------------------------|------------------------|
D|11---11---11--11--11---4-|-4-----4----4--4--4--4--|
A|11---11---11--11--11---4-|-4-----4----4--4--4--4--|
E|-9----9----9---9---9---2-|-2-----2----2--2--2--2--|

e|------------------------|-------------------------|
B|------------------------|-------------------------|
G|8---8---8---8-----------|-------------------------|
D|8---8---8---8--------6~-|-6--6--6--6--6--6--6-----|
A|6---6---6---6--------6~-|-6--6--6--6--6--6--6-----|
E|---------------------4~-|-4--4--4--4--4--4--4-----|

e|---------------------------------------------------------|
B|---------------------------------------------------------|
G|----------------------9-|-9---9---9-------9---9---9------|
D|7----7----7---7---7---9-|-9---9---9-------9---9---9------|
A|7----7----7---7---7---7-|-7---7---7-------7---7---7------|
E|5----5----5---5---5---0-|-0---0---0---0---0---0---0---0--|

e|---------------------------------------------------------|
B|---------------------------------------------------------|
G|----------------------8-|-8---8---8---8---8---8---8---8--|
D|7----7----7---7---7---8-|-8---8---8---8---8---8---8---8--|
A|7----7----7---7---7---6-|-6---6---6---6---6---6---6---6--|
E|5----5----5---5---5-----|--------------------------------|

e|7---------7-------|-6--------6-------|-7--------7-------|----7-------------|
B|---9---------9----|----9--------9----|----9--------9----|-7-----7-----7----|
G|------8---------8-|-------8--------8-|-------9--------9-|----------9-----9-|
D|------------------|------------------|------------------|------------------|
A|------------------|------------------|------------------|------------------|
E|------------------|------------------|------------------|------------------|

e|7---------7-------|-6--------6-------|-7--------7-------|----7-------------|
B|---9---------9----|----9--------8----|----9--------9----|-7-----7-----7----|
G|------8---------8-|-------8--------8-|-------9--------9-|----------9-----9-|
D|------------------|------------------|------------------|------------------|
A|------------------|------------------|------------------|------------------|
E|------------------|------------------|------------------|------------------|

e|7-----------7-------|--9-----9-----9-----9---9--|
B|---9-----------9----|-----7-----------7---------|
G|------9-----------9-|---------------------------|
D|--------------------|---------------------------|
A|--------------------|---------------------------|
E|--------------------|---------------------------|

e|----------------|-----------------|-----------------|------------------|
B|----------------|-----------------|-----------------|------------------|
G|----------------|-----------------|-----------------|------------------|
D|----------------|-----------------|-----------------|------------------|
A|2-2-2-2-2-2-2-2-|-2-2-2-2-2-2-2-2-|-2-2-2-2-2-2-2-2-|-2-2-2-2-2-2-2-2--|
E|----------------|-----------------|-----------------|------------------|

e|-----------------------|------------------------|-------------------------|
B|---0--0-----0--0-------|----0--0-----0-----0--0-|-------0--0-----0--------|
G|4--------4--------4--3-|-3--------3-----3-------|-1--1--------1-----1-----|
D|-----------------------|------------------------|----------------------2--|
A|-----------------------|------------------------|-------------------------|
E|-----------------------|------------------------|-------------------------|

e|-----------------------|-----------------------|-------------------------|
B|------0--------0-----0-|---0--0-----0--0-------|----0--0--------0-----0--|
G|---1--------1-----3----|4--------4--------4--3-|-3--------3--3-----3-----|
D|2--------2-------------|-----------------------|-------------------------|
A|-----------------------|-----------------------|-------------------------|
E|-----------------------|-----------------------|-------------------------|

e|-----------------------|-------------------------|
B|---0-----0-----0-------|-------0--------0-----0--|
G|1-----1-----1-----1----|----1--------1-----4-----|
D|---------------------2-|-2--------2--------------|
A|-----------------------|-------------------------|
E|-----------------------|-------------------------|

e|---------------------------|-------------------------|
B|---------------------------|-------------------------|
G|---------------------------|-------------------------|
D|11--11--11--11--11--11--11-|-4--4--4--4--4--4--4--4--|
A|11--11--11--11--11--11--11-|-4--4--4--4--4--4--4--4--|
E|-9---9---9---9---9---9---9-|-2--4--2--2--2--2--2--2--|

e|-----------------|------------------------------|
B|-----------------|------------------------------|
G|8--8--8--8--8--8-|-4>----4----------------------|
D|8--8--8--8--8--8-|-----------6------------------|
A|6--6--6--6--6--6-|---------------6---6---6---6--|
E|-----------------|------------------------------|

e|---------------------------------------------------------|
B|---------------------------------------------------------|
G|----------------------9-|-9---9---9-------9---9---9------|
D|7----7----7---7---7---9-|-9---9---9-------9---9---9------|
A|7----7----7---7---7---7-|-7---7---7-------7---7---7------|
E|5----5----5---5---5---0-|-0---0---0---0---0---0---0---0--|

e|---------------------------------------------------------|
B|---------------------------------------------------------|
G|----------------------8-|-8---8---8---8---8---8---8---8--|
D|7----7----7---7---7---8-|-8---8---8---8---8---8---8---8--|
A|7----7----7---7---7---6-|-6---6---6---6---6---6---6---6--|
E|5----5----5---5---5-----|--------------------------------|

e|-----------------------|------------------------|-------------------------|
B|-----------------------|------------------------|-------------------------|
G|-----------------------|-8--8--8--8--8--8--8--8-|-9--9--9--9--9--9--9--9--|
D|6--6--6--6--6--6--6--6-|-8--8--8--8--8--8--8--8-|-9--9--9--9--9--9--9--9--|
A|6--6--6--6--6--6--6--6-|-6--6--6--6--6--6--6--6-|-7--7--7--7--7--7--7--7--|
E|4--4--4--4--4--4--4--4-|------------------------|-------------------------|

e|-----------------------|------------------------|------------------------|
B|-----------------------|------------------------|------------------------|
G|-----------------------|------------------------|-8--8--8--8--8--8--8--8-|
D|9--9--9--9--9--9--9--9-|-6--6--6--6--6--6--6--6-|-8--8--8--8--8--8--8--8-|
A|9--9--9--9--9--9--9--9-|-6--6--6--6--6--6--6--6-|-6--6--6--6--6--6--6--6-|
E|7--7--7--7--7--7--7--7-|-4--4--4--4--4--4--4--4-|------------------------|

e|-----------------------|-------------------------|
B|-----------------------|-------------------------|
G|9--9--9--9--9--9--9--9-|-9--9--9--9--9--9--9--9--|
D|9--9--9--9--9--9--9--9-|-9--9--9--9--9--9--9--9--|
A|7--7--7--7--7--7--7--7-|-7--7--7--7--7--7--7--7--|
E|-----------------------|-------------------------|

e|---------------------------|-------------------------|
B|---------------------------|-------------------------|
G|11--11--11--11--11--11--11-|-------------------------|
D|11--11--11--11--11--11--11-|-------------------------|
A|-9---9---9---9---9---9---9-|-2--2--2--2--2--2--2--2--|
E|---------------------------|-------------------------|

e|-----------------------|-------------------------|
B|-----------------------|-------------------------|
G|-----------------------|-------------------------|
D|-----------------------|-------------------------|
A|4--4--4--4--4--2--4--6-|-6--6--6--6--6--6--6--2--|
E|-----------------------|-------------------------|

e|-----------------------|-------------------------|
B|-----------------------|-------------------------|
G|-----------------------|-------------------------|
D|-----------------------|-------------------------|
A|2--2--2--2--2--0--2--4-|-2--2--2--2--2--2--2--2--|
E|-----------------------|-------------------------|

e|-----------------------|-------------------------|
B|-----------------------|-------------------------|
G|-----------------------|-------------------------|
D|-----------------------|-6--6--6--6--6--6--6-----|
A|4--4--4--4--4--2--4--6-|----------------------6--|
E|-----------------------|-------------------------|

e|--------------------------|------|
B|--------------------------|------|
G|--------------------------|------|
D|--------------------------|------|
A|7--7--7--7--7--7--6--7--9-|--7>--|
E|--------------------------|------|


============================================================================
comments
We did not receive enough feedback on this tab! Please rate:
print report bad tab
1 2 3 4 5
3 comments total.
+1 reply
Sairy Fairy wrote on March 8 2007, 02:05 pm

It's all correct but you should indicate that the first bar of fret 2 on A are played on Bass

-1 reply
BatPanther1x32 wrote on June 28 2008, 02:38 pm

the first part is wrong:

d|2-2-2-2-2-2-2-2-2-2-2-2-2-2-2-2
a|2-2-2-2-2-2-2-2-2-2-2-2-2-2-2-2
e|0-0-0-0-0-0-0-0-0-0-0-0-0-0-0-0
not:
A|2-2-2-2-2-2-2-2-2-2-2-2-2-2-2-2

0 reply
BatPanther1x32 wrote on June 28 2008, 02:45 pm

i think you over did it with notes in certain parts there are some that just don't exist on the song. most of it is really good though.

I want to post or [tab]
guest
You may want to rate the tab now too:
select rating
Please do not post tabs as comments. Select "correction" instead!