Oops, an error
Loading. Please wait.

Starlight Bass Tab

by Muse
13,822 views 36 this week
3 commentsread comments
1 2 3 4 5
excellent!
x 10
Autoscroll
+/-
esc
set tempo
stop
Contributor
Difficulty
novice
Hey! There's an official Ultimate Guitar app which is ideal
for learning songs when you're away from computer. Get the app
WARNING: You are trying to view
                                    content from Ultimate-Guitar.com
                                    in an unauthorized application,
                                    which is prohibited.

                                    Please use an official Ultimate
                                    Guitar Tabs application for iPhone,
                                    iPad or Android to access legitimate
                                    chords, guitar, bass, and drum tabs
                                    from Ultimate-Guitar.com database.

                                    Type "ultimate guitar tabs" in Apple
                                    App Store's or Android Market's
                                    search to find the application.
----------------------------------------------------------------------------
                                  Muse – Starlight
----------------------------------------------------------------------------

Tuning: Standard (EADG)

      E   E   E   E   E   E   E   E      E   E   E   E   E   E   E   E   
G||----------------------------------|----------------------------------|
D||----------------------------------|----------------------------------|
A||--14--14--14--14--14--14--14--14--|--14--14--14--14--14--14--14--14--|
E||----------------------------------|----------------------------------|


   E   E   E   E   E   E   E   E      E   E   E   E   E   E   E   E   
----------------------------------|----------------------------------|
----------------------------------|----------------------------------|
--14--14--14--14--14--14--14--14--|--14--14--14--14--14--14--14--14--|
----------------------------------|----------------------------------|


   E   E   E   E   E   E   E   E      E   E   E   E   E   E   E   E   
----------------------------------|----------------------------------|
----------------------------------|----------------------------------|
--14--14--14--14--14--14--14--16--|--16--16--16--16--16--14--16--14--|
----------------------------------|----------------------------------|


   E   E   E   E   E   E   E   E      E   E   E   E   E   E   E   E   
--13--13--13--13--13--13--13------|----------------------------------|
------------------------------14--|--14--14--14--14--14--13--14--16--|
----------------------------------|----------------------------------|
----------------------------------|----------------------------------|


   E   E   E   E   E   E   E   E      E   E   E   E   E   E   E   E   
----------------------------------|----------------------------------|
----------------------------------|----------------------------------|
--14--14--14--14--14--14--14--16--|--16--16--16--16--16--14--16--14--|
----------------------------------|----------------------------------|


   E   E   E   E   E   E   E   E      E   E   E   E   E   E   E   E   
--13--13--13--13--13--13--13------|----------------------------------|
------------------------------14--|--14--14--14--14--14--13--14--16--|
----------------------------------|----------------------------------|
----------------------------------|----------------------------------|


   E   E   E   E   E   E   E   E      E   E   E   E   E   E   E   E   
----------------------------------|----------------------------------|
----------------------------------|----------------------------------|
--14--14--14--14--14--14--14--16--|--16--16--16--16--16--14--16--14--|
----------------------------------|----------------------------------|


   E   E   E   E   E   E   E   E      E   E   E   E   E   E   E   E   
--13--13--13--13--13--13--13------|----------------------------------|
------------------------------14--|--14--14--14--14--14--13--14--16--|
----------------------------------|----------------------------------|
----------------------------------|----------------------------------|


   E   E   E   E   E   E   E   E      E   E   E   E   E   E   E   E   
----------------------------------|----------------------------------|
----------------------------------|----------------------------------|
--14--14--14--14--14--14--14--16--|--16--16--16--16--16--14--16--14--|
----------------------------------|----------------------------------|


   E   E   E   E   E   E   E   E      E   E   E   E   E   E   E   E   
--13--13--13--13--13--13--13------|----------------------------------|
------------------------------14--|--14--14--14--14--14--13--14--16--|
----------------------------------|----------------------------------|
----------------------------------|----------------------------------|


   E   E   E   E   E   E   E   E      E   E   E   E   E   E   E   E   
----------------------------------|----------------------------------|
----------------------------------|----------------------------------|
--14--14--14--14--14--14--14--16--|--16--16--16--16--16--14--16--14--|
----------------------------------|----------------------------------|


   E   E   E   E   E   E   E   E      E   E   E   E   E   E   E   E   
--13--13--13--13--13--13--13------|----------------------------------|
------------------------------14--|--14--14--14--14--14--13--14--16--|
----------------------------------|----------------------------------|
----------------------------------|----------------------------------|


   E   E   E   E   E   E   E   E      E   E   E   E   E   E   E   E   
----------------------------------|----------------------------------|
----------------------------------|----------------------------------|
--14--14--14--14--14--14--14--16--|--16--16--16--16--16--14--16--14--|
----------------------------------|----------------------------------|


   E   E   E   E   E   E   E   E      E   E   E   E   E   E   E   E   
--13--13--13--13--13--13--13------|----------------------------------|
------------------------------14--|--14--14--14--14--14--13--14--16--|
----------------------------------|----------------------------------|
----------------------------------|----------------------------------|


   E   E   E   E   E   E   E   E      E   E   E   E   E   E   E   E   
----------------------------------|----------------------------------|
----------------------------------|----------------------------------|
--14--14--14--14--14--14--14--16--|--16--16--16--16--16--14--16--14--|
----------------------------------|----------------------------------|


   E   E   E   E   E   E   E   E      E   E   E   E   E   E   E   E   
--13--13--13--13--13--13--13------|----------------------------------|
------------------------------14--|--14--14--14--14--14--13--14--16--|
----------------------------------|----------------------------------|
----------------------------------|----------------------------------|


   E   E   E   E   E   E   E   E      E   E   E   E   E   E   E   E   
----------------------------------|----------------------------------|
----------------------------------|----------------------------------|
--14--14--14--14--14--14--14--16--|--16--16--16--16--16--14--16--14--|
----------------------------------|----------------------------------|


   E   E   E   E   E   E   E   E      E   E   E   E   E   E   E   E   
--13--13--13--13--13--13--13------|----------------------------------|
------------------------------14--|--14--14--14--14--14--13--14--16--|
----------------------------------|----------------------------------|
----------------------------------|----------------------------------|


   E   E   E   E   E   E   E   E      E   E   E   E   E   E   E   E   
----------------------------------|----------------------------------|
----------------------------------|----------------------------------|
--14--14--14--14--14--14--14--16--|--16--16--16--16--16--14--16--14--|
----------------------------------|----------------------------------|


   E   E   E   E   E   E   E   E      E   E   E   E   E   E   E   E   
--13--13--13--13--13--13--13------|----------------------------------|
------------------------------14--|--14--14--14--14--14--13--14--16--|
----------------------------------|----------------------------------|
----------------------------------|----------------------------------|


   E   E   E   E   E   E   E   E      E   E   E   E   E   E   E   E   
----------------------------------|----------------------------------|
----------------------------------|----------------------------------|
--14--14--14--14--14--14--14--16--|--16--16--16--16--16--14--16--14--|
----------------------------------|----------------------------------|


   E   E   E   E   E   E   E   E      E   E   E   E   E   E   E   E   
--13--13--13--13--13--13--13------|----------------------------------|
------------------------------14--|--14--14--14--14--14--13--14--16--|
----------------------------------|----------------------------------|
----------------------------------|----------------------------------|


  E  E  E  E  E  E  E  E     E  E  E  E  E  E  E  E   
--------------------------|--------------------------|
--------------------------|--------------------------|
--4--4--4--4--4--4--4--4--|--------------------------|
--------------------------|--2--2--2--2--2--2--2--2--|


  E  E  E  E  E  E  E  E     E  E  E  E  E  E  E  E   
--------------------------|--------------------------|
--1--1--1--1--1--1--1--1--|--------------------------|
--------------------------|--------------------------|
--------------------------|--4--4--4--4--4--4--4--4--|


  E  E  E  E  E  E  E  E     E  E  E  E  E  E  E  E   
--------------------------|--------------------------|
--------------------------|--------------------------|
--------------------------|--------------------------|
--5--5--5--5--5--5--5--5--|--0--0--0--0--0--0--0--0--|


  E  E  E  E  E  E  E  E     E  E  E  E  E  E  E  E     Q     H.            
--------------------------|--------------------------|---------------------|
--------------------------|--------------------------|---------------------|
--------------------------|--6--6--6--6--6--6--6--6--|---------------------|
--5--5--5--5--5--5--5--5--|--------------------------|--4\-----------------|


  W                  W                  W                  W
------------------|------------------|------------------|------------------|
------------------|------------------|------------------|------------------|
------------------|------------------|------------------|------------------|
------------------|------------------|------------------|------------------|


  W                   W                   W                 
-------------------|-------------------|-------------------|
-------------------|-------------------|-------------------|
-------------------|-------------------|-------------------|
-------------------|-------------------|-------------------|


  E  E  E  E  E  E  E  E     E  E  E  E  E  E  E  E   
--------------------------|--------------------------|
--------------------------|--------------------------|
--------------------------|--6--6--6--6--6--6--6--6--|
--4--4--4--4--4--4--4--4--|--------------------------|


  E  E  E  E  E  E  E  E     E  E  E  E  E  E  E  E   
--------------------------|--------------------------|
--------------------------|--------------------------|
--7--7--7--7--7--7--7--7--|--------------------------|
--------------------------|--7--7--7--7--7--7--7--7--|


  E  E  E  E  E  E  E  E     E  E  E  E  E  E  E  E   
--------------------------|--------------------------|
--------------------------|--------------------------|
--------------------------|--6--6--6--6--6--6--6--6--|
--4--4--4--4--4--4--4--4--|--------------------------|


  E  E  E  E  E  E  E  E      E   E   E   E   E   E   E   E   
--------------------------|--11--11--11--11--11--11--11--11--|
--------------------------|----------------------------------|
--7--7--7--7--7--7--7--7--|----------------------------------|
--------------------------|----------------------------------|


   E   E   E   E   E   E   E   E      E   E   E   E   E   E   E   E   
----------------------------------|----------------------------------|
----------------------------------|----------------------------------|
--14--14--14--14--14--14--14--14--|--14--14--14--14--14--14--14--14--|
----------------------------------|----------------------------------|


   E   E   E   E   E   E   E   E      E   E   E   E   E   E   E   E   
----------------------------------|----------------------------------|
----------------------------------|----------------------------------|
--14--14--14--14--14--14--14--14--|--14--14--14--14--14--14--14--14--|
----------------------------------|----------------------------------|


   E   E   E   E   E   E   E   E      E   E   E   E   E   E   E   E   
----------------------------------|----------------------------------|
----------------------------------|----------------------------------|
--14--14--14--14--14--14--14--16--|--16--16--16--16--16--14--16--14--|
----------------------------------|----------------------------------|


   E   E   E   E   E   E   E   E      E   E   E   E   E   E   E   E   
--13--13--13--13--13--13--13------|----------------------------------|
------------------------------14--|--14--14--14--14--14--13--14--16--|
----------------------------------|----------------------------------|
----------------------------------|----------------------------------|


   E   E   E   E   E   E   E   E      E   E   E   E   E   E   E   E   
----------------------------------|----------------------------------|
----------------------------------|----------------------------------|
--14--14--14--14--14--14--14--16--|--16--16--16--16--16--14--16--14--|
----------------------------------|----------------------------------|


   E   E   E   E   E   E   E   E      E   E   E   E   E   E   E   E   
--13--13--13--13--13--13--13------|----------------------------------|
------------------------------14--|--14--14--14--14--14--13--14--16--|
----------------------------------|----------------------------------|
----------------------------------|----------------------------------|


   E   E   E   E   E   E   E   E      E   E   E   E   E   E   E   E   
----------------------------------|----------------------------------|
----------------------------------|----------------------------------|
--14--14--14--14--14--14--14--16--|--16--16--16--16--16--14--16--14--|
----------------------------------|----------------------------------|


   E   E   E   E   E   E   E   E      E   E   E   E   E   E   E   E   
--13--13--13--13--13--13--13------|----------------------------------|
------------------------------14--|--14--14--14--14--14--13--14--16--|
----------------------------------|----------------------------------|
----------------------------------|----------------------------------|


   E   E   E   E   E   E   E   E      E   E   E   E   E   E   E   E   
----------------------------------|----------------------------------|
----------------------------------|----------------------------------|
--14--14--14--14--14--14--14--16--|--16--16--16--16--16--14--16--14--|
----------------------------------|----------------------------------|


   E   E   E   E   E   E   E   E      E   E   E   E   E   E   E   E   
--13--13--13--13--13--13--13------|----------------------------------|
------------------------------14--|--14--14--14--14--14--13--14--16--|
----------------------------------|----------------------------------|
----------------------------------|----------------------------------|


  E  E  E  E  E  E  E  E     E  E  E  E  E  E  E  E   
--------------------------|--------------------------|
--------------------------|--------------------------|
--4--4--4--4--4--4--4--4--|--------------------------|
--------------------------|--2--2--2--2--2--2--2--2--|


  E  E  E  E  E  E  E  E     E  E  E  E  E  E  E  E   
--------------------------|--------------------------|
--1--1--1--1--1--1--1--1--|--------------------------|
--------------------------|--------------------------|
--------------------------|--4--4--4--4--4--4--4--4--|


  E  E  E  E  E  E  E  E     E  E  E  E  E  E  E  E   
--------------------------|--------------------------|
--------------------------|--------------------------|
--------------------------|--------------------------|
--5--5--5--5--5--5--5--5--|--0--0--0--0--0--0--0--0--|


  E  E  E  E  E  E  E  E     E  E  E  E  E  E  E  E   
--------------------------|--------------------------|
--------------------------|--------------------------|
--------------------------|--6--6--6--6--6--6--6--6--|
--5--5--5--5--5--5--5--5--|--------------------------|


  E  E  E  E  E  E  E  E     E  E  E  E  E  E  E  E   
--------------------------|--------------------------|
--------------------------|--------------------------|
--------------------------|--6--6--6--6--6--6--6--6--|
--4--4--4--4--4--4--4--4--|--------------------------|


  E  E  E  E  E  E  E  E     E  E  E  E  E  E  E  E   
--------------------------|--------------------------|
--------------------------|--------------------------|
--7--7--7--7--7--7--7--7--|--------------------------|
--------------------------|--7--7--7--7--7--7--7--7--|


  E  E  E  E  E  E  E  E     E  E  E  E  E  E  E  E   
--------------------------|--------------------------|
--------------------------|--------------------------|
--------------------------|--6--6--6--6--6--6--6--6--|
--4--4--4--4--4--4--4--4--|--------------------------|


  E  E  E  E  E  E  E  E     E  E  E  E   E  E  E  E   
--------------------------|---------------------------|
--------------------------|---------------9--9--9--9--|
--7--7--7--7--7--7--7--7--|---------------------------|
--------------------------|--7--7--7--7/--------------|


  E  E  E  E  E  E  E  E     E  E  E  E  E  E  E  E   
--------------------------|--------------------------|
--------------------------|--------------------------|
--------------------------|--6--6--6--6--6--6--6--6--|
--4--4--4--4--4--4--4--4--|--------------------------|


  E  E  E  E  E  E  E  E     E  E  E  E  E  E  E  E   
--------------------------|--------------------------|
--------------------------|--------------------------|
--7--7--7--7--7--7--7--7--|--------------------------|
--------------------------|--7--7--7--7--7--7--7--7--|


  E  E  E  E  E  E  E  E     E  E  E  E  E  E  E  E   
--------------------------|--------------------------|
--------------------------|--------------------------|
--------------------------|--6--6--6--6--6--6--6--6--|
--4--4--4--4--4--4--4--4--|--------------------------|


  E  E  E  E  E  E  E  E     E  E  E  E  E  E  E  E   
--------------------------|--------------------------|
--------------------------|--------------------------|
--7--7--7--7--7--7--7--7--|--9--9--9--9--9--9--9--9--|
--------------------------|--------------------------|


   E   E   E   E   E   E   E   E      E   E   E   E   E   E   E   E   
----------------------------------|----------------------------------|
----------------------------------|----------------------------------|
--14--14--14--14--14--14--14--16--|--16--16--16--16--16--14--16--14--|
----------------------------------|----------------------------------|


   E   E   E   E   E   E   E   E      E   E   E   E   E   E   E   E   
--13--13--13--13--13--13--13------|----------------------------------|
------------------------------14--|--14--14--14--14--14--13--14--16--|
----------------------------------|----------------------------------|
----------------------------------|----------------------------------|


   E   E   E   E   E   E   E   E      E   E   E   E   E   E   E   E   
----------------------------------|----------------------------------|
----------------------------------|----------------------------------|
--14--14--14--14--14--14--14--16--|--16--16--16--16--16--14--16--14--|
----------------------------------|----------------------------------|


   E   E   E   E   E   E   E   E      E   E   E   E   E   E   E   E   
--13--13--13--13--13--13--13------|----------------------------------|
------------------------------14--|--14--14--14--14--14--13--14--16--|
----------------------------------|----------------------------------|
----------------------------------|----------------------------------|


   Q     H.              W                  
----------------------|-------------------||
----------------------|-------------------||
--14\-----------------|-------------------||
----------------------|-------------------||


Duration Legend
---------------
W - whole
H - half
Q - quarter
E - 8th
S - 16th
T - 32nd
X - 64th
. - note dotted
|-n-|  - n-tuplets


Tablature Legend
----------------
L - tied note
x - dead note
g - grace note
(n) - ghost note
> - accentuded note
NH - natural harmonic
AH - artificial harmonic
TH - tapped harmonic
SH - semi harmonic
PH - pitch harmonic
h - hammer on
p - pull off
b - bend
br - bendRelease
pb - preBend
pbr - preBendRelease
brb - bendReleaseBend
\n/ - tremolo bar dip
\n - tremolo bar dive
-/n - tremolo bar Release up
/n\ - tremolo bar inverted dip
/n - tremolo bar return
-\n - tremolo bar Release down
S - shift slide
s - legato slide
/ -  slide into from below or out of upwards
\ -  slide into from above or out of downwards
~ - vibrato
W - wide vibrato
tr - trill
TP - tremolo picking
T - tapping
S - slap
P - pop
< - fade in
^ - brush up
v - brush down
----------------------------------------------------------------------------
comments
print report bad tab
3 comments total.
0 reply
josep94 wrote on January 15 2010, 08:47 pm

The last bit of this part sounds wrong but it might be only me... otherwise great tab :)

|----------------------------------|
|----------------------------------|
|--16--16--16--16--16--14--16--14--|
|----------------------------------|

0 reply
mooning wrote on May 6 2010, 08:41 am

i think this is too high, try to look at ver 3...

0 reply
jamesmuse wrote on June 4 2011, 06:00 pm

This s how it's played by Chris. He uses -1 octave effect during the intro/verse

I want to post or [tab]
guest
You may want to rate the tab now too:
select rating
Please do not post tabs as comments. Select "correction" instead!