Oops, an error
Loading. Please wait.

The 2nd Law Bass Tab

by Muse
5,305 views 93 this week
no commentswrite comment
1 2 3 4 5
excellent!
x 1
Autoscroll
+/-
esc
set tempo
stop
Contributor
Difficulty
intermediate
WARNING: You are trying to view
                                    content from Ultimate-Guitar.com
                                    in an unauthorized application,
                                    which is prohibited.

                                    Please use an official Ultimate
                                    Guitar Tabs application for iPhone,
                                    iPad or Android to access legitimate
                                    chords, guitar, bass, and drum tabs
                                    from Ultimate-Guitar.com database.

                                    Type "ultimate guitar tabs" in Apple
                                    App Store's or Android Market's
                                    search to find the application.
----------------------------------------------------------------------------
THE 2ND LAW - FULL ALBUM - Muse
----------------------------------------------------------------------------
Collected by: therobotfrom94
E-mail: john.shannon1994@hotmail.com

So I figured I'd collect the tabs for all the songs into one nice package as no-one else 
had already. In other words NONE OF THESE TABS ARE MINE!
this means that I'm not taking credit for making the tabs, only compiling.
This also means I'm not responsible for any errors in the tab.
If you have any issues, take them up with the authour
Big props to 4uselss for contributing the majority of these tabs

song list:
1.  Supremacy
2.  Madness
3.  Panic Station
4.  Prelude
5.  Survival
6.  Follow Me
7.  Animals
8.  Explorers
9.  Big Freeze
10. Save Me
11. Liquid State
12. The 2nd Law - Unsustainable
13. The 2nd Law - Isolated system


---------------------------------------------------------------------------
SUPREMACY - Tabbed By 4useless
----------------------------------------------------------------------------
Tuning: Standard

Intro:

G|--------------------------------------------------------------|
D|--------------------------------------------------------------|
A|--------0-0-0-0--------2-2-2-2--------3-3-3-3--------5-5-5-5--|
E|--------------------------------------------------------------|

No bass, just guitar till 0:21

Main Riff:

G|--------------------------------|-------------------------------5-|
D|---------2-----3-----2------567-|-----------2-----3-----2----567--|
A|0--3--0-----0-----0-----0--0---0|(0)--3--0-----0-----0-----0------|
E|--------------------------------|---------------------------------|

G|--------------------------------|
D|---------2-----3-----2------567-|
A|0--3--0-----0-----0-----0--0----|
E|--------------------------------|

G|------------------------------------------------------------------------|
D|---7-7-7-7----9-9-9-9----10-10-10-10----12-12-12-12---13-13-13-13-13-13-|
A|0----------0----------0--------------0--------------0-------------------|
E|------------------------------------------------------------------------|

Verse:

G|----------------------------------------------------------------------|
D|----------------------------------------------------------------------|
A|0---------------------------7------7------5------5----5---------------|
E|-----0-5----0-5----0-5----0------7------7------5--------5----0-5----0-|

G|--------------------------------------------------------|
D|--------------------------------------------------------|
A|--------------7------7------5------5----5---------------|
E|5----0-5----0------7------7------5--------5----0-5----0-|

G|------------------------------------------------------------|
D|------------------------------------------------------------|
A|8-8888-888-888-------------------------------7-7777-777-777-|
E|---------------8-8888-888-888-5-5555-555-555----------------|

G|------------------------------------------------------------|
D|------------------------------------------------------------|
A|8-8888-888-888-5-5555-555-555-7-7777-777-777----------------|
E|---------------------------------------------0~-------------|

Play Main Riff:

Play Verse part during guitar solo:

Play Intro part:

Fast part before Main Riff:

G|-------------------------------|------------------------------5\-|
D|---------222---333---222---7567|---------222---333---222---567---|
A|000333000---000---000---000----|000333000---000---000---000------|
E|-------------------------------|---------------------------------|

G|----------------------------------------------------------------|
D|7575757575757575757575757575757575757575757575757575757575757575|
A|----------------------------------------------------------------|
E|----------------------------------------------------------------|

(32 pairs of 7 and 5 if You're interested)

Play main riff one more time:

Last note - 0 on A string :)


----------------------------------------------------------------------------
MADNESS - Tabbed By 4useless
----------------------------------------------------------------------------
Chris plays this song on Misa Digital Kitara.

Intro:

G|-------------------------|
D|8-8-8-8-8-8-8-8----------|
A|-------------------------|
E|----------------6--6--6--| x4

Verse:

G|-------------------------|    |---------------|----------------|
D|8-8-8-8-8-8-8-8----------|    |---------------|----------------|
A|-------------------------|    |6--6--6--6--5--|6--6--6--6--5-6-|
E|----------------6--6--6--| x4 |---------------|----------------|

G|-------------------------|    |---------------|----------------|
D|8-8-8-8-8-8-8-8----------|    |---------------|----------------|
A|-------------------------|    |6--6--6--6--5--|6--6--6--6--5-6-|
E|----------------6--6--6--| x6 |---------------|----------------|

G|-------------------------|
D|8-8-8-8-8-8-8-8----------|
A|-------------------------|
E|----------------6--6--6--| x2

Chorus:

G|------------------------------|--------------------| |
D|------------------------------|--------------------| |
A|10--1010--1010--1010--1010-10-|8--88--88--88--88-8-| |
E|------------------------------|--------------------| |
                                                       | x2
G|---------------|----------------|                    |
D|---------------|----------------|                    |
A|6--6--6--6--5--|6--6--6--6--5-6-|                    |
E|---------------|----------------|                    |

Bridge and Verse:

G|-------------------------|    |---------------|----------------|
D|8-8-8-8-8-8-8-8----------|    |---------------|----------------|
A|-------------------------|    |6--6--6--6--5--|6--6--6--6--5-6-|
E|----------------6--6--6--| x8 |---------------|----------------|

G|-------------------------|    |---------------|----------------|
D|8-8-8-8-8-8-8-8----------|    |---------------|----------------|
A|-------------------------|    |6--6--6--6--5--|6--6--6--6--5-6-|
E|----------------6--6--6--| x6 |---------------|----------------|

G|-------------------------|
D|8-8-8-8-8-8-8-8----------|
A|-------------------------|
E|----------------6--6--6--| x2

Chorus:

G|------------------------------|--------------------| |
D|------------------------------|--------------------| |
A|10--1010--1010--1010--1010-10-|8--88--88--88--88-8-| |
E|------------------------------|--------------------| |
                                                       | x2
G|---------------|----------------|                    |
D|---------------|----------------|                    |
A|6--6--6--6--5--|6--6--6--6--5-6-|                    |
E|---------------|----------------|                    |

Bridge and Guitar solo:

G|-------------------------|    |----------------|----------------|
D|8-8-8-8-8-8-8-8----------|    |----------------|----------------|
A|-------------------------|    |6666666666665555|6666666666665566|
E|----------------6--6--6--| x8 |----------------|----------------|

G|-------------------------|
D|8-8-8-8-8-8-8-8----------|
A|-------------------------|
E|----------------6--6--6--| x2

Last chorus:

G|---------|--------|----------------|----------------|
D|---------|--------|----------------|----------------|
A|10(x16)--|8(x16)--|6666666666665555|6666666666665566|
E|---------|--------|----------------|----------------| x8

Outro:

G|-------------------------|
D|8-8-8-8-8-8-8-8----------|
A|-------------------------|
E|----------------6--6--6--| x4


----------------------------------------------------------------------------
PANIC STATION- Tabbed by rainwater34
----------------------------------------------------------------------------
Intro
G|-----------7/9-------------19191919---|
D|-----------7/9-------------19191919---| x2
A|--------------------------------------|
E|--0--0--0--------0-0-0-0--------------|

Verse
G|-----------7/9-------------19191919---|
D|-----------7/9-------------19191919---| x2
A|--------------------------------------|
E|--0--0--0--------0-0-0-0--------------|

G|-----------13/12-----------19191919---|
D|-----------13/12-----------19191919---|
A|--0--0--0-----------------------------|
E|-------------------3-3-3-3------------|

G|-----------7/9-------------19191919---|
D|-----------7/9-------------19191919---|
A|--------------------------------------|
E|--0--0--0--------0-0-0-0--------------|

Chorus
G|------------------------------------------|
D|---2-2-2-4-5-5-5-6-7-7-7-9-10-10--12--13--|
A|------------------------------------------|
E|--0-0-0-2-3-3-3-4-5-5-5-7-8--8--10--11----|

G|----------------------------------|
D|---2-2-2-4-5-5-5-6-7-7-7-9--------|
A|----------------------------------|
E|--0-0-0-2-3-3-3-4-5-5-5-7-8~------|


Those are all the parts you need to play the whole thing,

I have a cover on youtube if you wanna check it out:
http://www.youtube.com/watch?v=bdgQpkkZO5M&feature=youtu.be - Slap
http://www.youtube.com/watch?v=IVYsC0YTLjI&feature=vmdshb - Non Slap



----------------------------------------------------------------------------
PRELUDE- no bass, all orchestral shiz
----------------------------------------------------------------------------


----------------------------------------------------------------------------
SURVIVAL - Tabbed by museluva
----------------------------------------------------------------------------
Intro


NO BASS


Verse:0:34 Race, life's a race...
                                                     \
G |------------------------------------------------| |
D |------------------------------------------------| |
A |--------------------------------6------66------6| |
E |6------66------66------66------6----------------| |
                                                     |  x3
G |---------------------------8-9-10---------------| |
D |-------------------------------------------5-6-7| |
A |9------99------9----------6-7-8-9------99-------| |
E |----------------7------77-----------------3-4-5-| |
                          *(10, not 1 then 0)        /

Solo 1 : 1:27 Yeah, I'm gonna win!...
                     \
G |----------------| |
D |---8-------8----| |
A |----------------| | x11
E |6-6-6--66-6-6--6| |
                     /

                     \
G |---8-------8----| |
D |----------------| |
A |6-6-6--66-6-6--6| | x5
E |----------------| |
                     /

                     \
G |----------------| |
D |---6-------6----| |
A |----------------| | x2
E |4-4-4--44-4-4--4| |
                     /

Verse:  2:19 Race, it's a race...
                                                     \
G |------------------------------------------------| |
D |------------------------------------------------| |
A |--------------------------------4-444--44-444--4| |
E |4-444--44-444--44-444--44-444--4----------------| |
                                                     |  x2
G |---------------------------6-7-8----------------| |
D |-------------------------------------------3-4-5| |
A |7-777--77-777--7----------4-5-6-7-777--77-------| |
E |----------------5-555--55-----------------1-2-3-| |
                                                     /

Solo 2 : 2:54 Yes, I'm gonna win!...
                                     \
G |--------------------------------| |
D |--------------------------------| |
A |--------------------------------| | x10
E |4-444--44-444--44-444--44-112233| |
            *(Not 11, but 1 then 1)  /

Outro : 3:53 Fight, fight, fight...
                     \
G |----------------| |
D |----------------| |
A |----------------| | x4
E |--444-4---444-4-| |
                     /

End on (Let it ring): 4:05 Yes, I'm gonna win!
G |------------------|
D |------------------|
A |------------------|
E |4-----------------|



----------------------------------------------------------------------------
FOLLOW ME - Tabbed By CabiKJS0925
----------------------------------------------------------------------------


Bass starts at 1:11 when Matt sings for the first time "follow me".


Verse 1 (clear)

G|-----------------------------------------------------------------------|
D|-----------------------------------------------------------------------|
A|-11(x16)--15(x16)--6(x16)---------8(x16)---------5(x20)----------------|
E|--------------------------3(x32)---------8(x16)----------3(let ring)---|

Chorus (distortion)

G|------------------------------------------------------------------------------|
D|------------------------------------------------------------------------------|
A|-----------------------------6(x4)--------------------------------8(x8)-------|
E|-4(x8)-8-8-8-8-8-8-8-8/4(x8)-------3(x4)-4(x8)-8-8-8-8-8-8-8-8/4--------6(x8)-|

Verse 2 (clear)

G|----------------------------------------------------------------|
D|----------------------------------------------------------------|
A|----------------6(x16)--------------------------6(x16)----------|
E|-4(x16)--8(x16)----------6(x32)--4(x16)--8(x16)---------6(x20)--| Let ring the last 6

Chorus 2 (distortion)

G|------------------------------------------------------------------------------|
D|------------------------------------------------------------------------------|
A|-----------------------------6(x4)-------------------------------8(x8)-----6--|(let ring)
E|-4(x8)-8-8-8-8-8-8-8-8/4(x8)-------3(x4)-4(x8)-8-8-8-8-8-8-8-8/4------6(x8)---|

End (distortion)

A|----6(let it ring)----|| Play it every time Matt screams

This is my first tab and I think it's 90% correct.

If you have any corrections feel free to e-mail me at cesarxalbertyz253@hotmail.com

Enjoy your learning, cheers! :D




----------------------------------------------------------------------------
ANIMALS - Tabbed by 4useless
----------------------------------------------------------------------------
Tuning: Half-Step Down

Verse:

Gb|9--9-9--9-9-11-9-8-|7--7-7--7-7-9-7---|   |
Db|-------------------|----------------9-|   |
Ab|-------------------|------------------|   |
Eb|-------------------|------------------|   |
                                             | x6
Gb|-------------------|--------------6-7-|   |
Db|-7--7-7--7-7-9-7-6-|5--5-5--5-7-9-----|   |
Ab|-------------------|------------------|   |
Eb|-------------------|------------------|   |

Chorus:

Gb|-----------------|-----------------|-----------------|-----------------|
Db|7--7-7--7-7-7-7--|6--6-6--6-6-6-6--|5--5-5--5-5-5-5--|4--4-4--4-4-4-4--|
Ab|-----------------|-----------------|-----------------|-----------------|
Eb|-----------------|-----------------|-----------------|-----------------|

Gb|-----------------|-----------------|-----------------|-----------------|
Db|-----------------|-----------------|-----------------|-----------------|
Ab|5--5-5--5-5-5-5--|3--3-3--3-3-3-3--|1--1-1--1-1-1-1--|0--0-0--0-0-0-0--|
Eb|-----------------|-----------------|-----------------|-----------------|

Gb|-----------------|-----------------|-----------------|-----------------|
Db|5--5-5--5-5-5-5--|4--4-4--4-4-4-4--|2--2-2--2-2-2-2--|0--0-0--0-0-0-0--|
Ab|-----------------|-----------------|-----------------|-----------------|
Eb|-----------------|-----------------|-----------------|-----------------|

Gb|-----------------|-----------------|-----------------|-----------------|
Db|-----------------|-----------------|-----------------|-----------------|
Ab|3--3-3--3-3-3-3--|0--0-0--0-0-0-0--|2--2-2--2-2-2-2--|2--2-2--2-2-2-2-/|
Eb|-----------------|-----------------|-----------------|-----------------|

Gb|-----------------|-----------------|
Db|9--9-9--9-9-9-9--|9--9-9--9-9-9-9--|
Ab|-----------------|-----------------|
Eb|-----------------|-----------------|

Play verse (x6):
Play chorus:

Bridge:

Gb|-----9----7--------|
Db|--------------10---|
Ab|7--7----7---7----7-|
Eb|-------------------| x4

Guitar solo:

Gb|9--9-9--9-9-11-9-8-|7--7-7--7-7-9-7---|       |
Db|-------------------|----------------9-|       |
Ab|-------------------|------------------|       |
Eb|-------------------|------------------|       |
                                                 | x2
Gb|-------------------|------------------7-8-|   |
Db|-7--7-7--7-7-9-7-6-|5--5-5--5-5-5-7-9-----|   |
Ab|-------------------|----------------------|   |
Eb|-------------------|----------------------|   |

Chorus:

Gb|-----------------|-----------------|-----------------|-----------------|
Db|7--7-7--7-7-7-7--|6--6-6--6-6-6-6--|5--5-5--5-5-5-5--|4--4-4--4-4-4-4--|
Ab|-----------------|-----------------|-----------------|-----------------|
Eb|-----------------|-----------------|-----------------|-----------------|

Gb|-----------------|-----------------|-----------------|-----------------|
Db|-----------------|-----------------|-----------------|-----------------|
Ab|5--5-5--5-5-5-5--|3--3-3--3-3-3-3--|1--1-1--1-1-1-1--|0--0-0--0-0-0-0--|
Eb|-----------------|-----------------|-----------------|-----------------|

Gb|-----------------|-----------------|-----------------|-----------------|
Db|5--5-5--5-5-5-5--|4--4-4--4-4-4-4--|2--2-2--2-2-2-2--|0--0-0--0-0-0-0--|
Ab|-----------------|-----------------|-----------------|-----------------|
Eb|-----------------|-----------------|-----------------|-----------------|

Gb|-----------------|-----------------|-----------------|-----------------|
Db|-----------------|-----------------|-----------------|-----------------|
Ab|3--3-3--3-3-3-3--|0--0-0--0-0-0-0--|2--2-2--2-2-2-2--|2--2-2--2-2-2-2-/|
Eb|-----------------|-----------------|-----------------|-----------------|

Gb|-----------------|-----------------|
Db|9--9-9--9-9-9-9--|9--9-9-9-9-9-9-9-|
Ab|-----------------|-----------------|
Eb|-----------------|-----------------|

Play Bridge 4 times:

Ending:

Gb|-------------------|     |-------------------|
Db|-------------------|     |-------------------|
Ab|-------------------|     |-------------------|
Eb|0--0-12--0-10-0-8--| x15 |0--0-12--0-10-0-8\-|


----------------------------------------------------------------------------
EXPLORERS - Tabbed by 4useless
----------------------------------------------------------------------------
Tuning: Standard

"br" means bend and release. Those are 1/2 bends.

Verse: [0:44]
                       br           br
G|---------------17----21--17-------21--17-------|
D|---------14-17--------------18-----------16----|
A|15----17---------------------------------br----|
E|-----------------------------------------------|

G|------------br---------------------------------|
D|---14-15----14-------13------10-12~------------|
A|17-------------15---------10-------------------|
E|-----------------------------------------------|

Pre-chorus and Chorus:

G|-----------------------------------------------------------------|
D|-----------------------------------------------------------------|
A|---------------7(x8)--8(x8)--5(x8)------------------------2(x8)--|
E|8(x40)--5(x8)-----------------------3(x8)--4(x8)--5(x16)---------|

Post-chorus:

G|---------------17----------19---\-16-13-------------------|
D|---------14-17-------16-19--------------15-12-------------|
A|3---/(15)-------------------------------------14-11-------|
E|----------------------------------------------------13-10-|

Verse:

G|----------------|----------------|----------------|----------------|
D|----------------|----------------|----------------|----------------|
A|----------------|----------------|----------------|8-----8--8------|
E|8-----8--8------|8-----8--8------|8-----8--8------|----------------|

G|----------------|----------------|----------------|----------------|
D|----------------|----------------|----------------|----------------|
A|11----11--11----|----------------|----------------|8-----8--8------|
E|----------------|8-----8--8------|10----10--10----|----------------|

G|----------------|----------------|----------------|-----------------------|
D|----------------|----------------|----------------|-----------------------|
A|----------------|----------------|8-----8--8------|8----------10-10-10-10-|
E|8-----8--8------|11----11--11----|----------------|-----------------------|

G|--------------------------------------------------------------------------|
D|--------------------------------------------------------------------------|
A|-------8(x8)--11(x8)----------------8(x8)----------------8(x12)-10-10-10\-|
E|8(x24)----------------8(x8)--10(x8)--------8(x8)--11(x8)------------------|

Chorus:

G|----------------|----------------|----------------|----------------|
D|----------------|----------------|----------------|----------------|
A|3--3----3-3-3---|----------------|7--7----7-7-7---|8--8----8-8-8---|
E|------3-------3-|5--5--0-5-5-5-0-|------7-------7-|------8-------8-|

G|----------------|----------------|----------------|----------------|
D|----------------|5--5----5-5-5---|6--6----6-6-6---|7--7----7-7-7---|
A|5--5----5-5-5---|------5-------5-|------6-------7-|------7-------7-|
E|------5-------5-|----------------|----------------|----------------|

G|----------------|----------------|
D|7--7----7-7-7---|9--9----9-9-9-9-|
A|------7-------8-|------9---------|
E|----------------|----------------|

Interlude:

G|-------------------------------------------------------------------------|
D|-------------------------------------------------------------------------|
A|------5(x8)-------7(x8)--8(x8)-------5(x8)-------------------------------|
E|5(x8)-------3(x8)--------------5(x8)-------6(x8)--8(x8)--5(x12)--9-99999-|

Chorus:

G|----------------|----------------|----------------|----------------|
D|----------------|----------------|4--4----4-4-4---|5--5----5-5-5---|
A|5--5----5-5-5---|2--2----2-2-2---|------4-------4-|------5-------5-|
E|------5-------5-|------2-------2-|----------------|----------------|

G|----------------|----------------|----------------|----------------|
D|2--2----2-2-2---|----------------|----------------|----------------|
A|------2-------2-|----------------|1--1----1-1-1---|2--2----2-2-2---|
E|----------------|5--5--0-5-5-5-0-|------1-------2-|------2-------2-|

G|----------------|----------------|----------------|----------------|
D|----------------|----------------|----------------|------------2-3-|
A|2--2----2-2-2---|4--4----4-444444|5-5-5-5-5-5-5-4-|2-2-2-2-2-2-----|
E|------2-------2-|------4---------|----------------|----------------|

G|----------------|----------------|----------------|----------------|
D|4-4-4-4-4-4-2-4-|5-5-5-5-5-5-5-4-|2-2-2-2-2-2-2---|----------------|
A|----------------|----------------|--------------2-|----------------|
E|----------------|----------------|----------------|5-5-5-5-5-5-4-5-|

G|----------------|----------------|----------------|----------------|
D|----------------|----------------|----------------|----------------|
A|----------------|----------------|----------------|4-4-4-4-4-4-2-4-|
E|6-6-6-6-6-6-4-6-|7-7-7-7-7-7-7-7-|7-7-7-7-7-7-5-7-|----------------|

Ending:
                       br         br
G|---------------19----23--19-------23--19-------|
D|-----/14-16-19--------------20-----------18----|
A|5~---------------------------------------br----|
E|-----------------------------------------------|

G|------------br-----------------------------------------------------|
D|---16-17----16-------15------12-14---------\0~---------------------|
A|19-------------17---------12---------------------------------------|
E|-------------------------------------------------------------------|



----------------------------------------------------------------------------
BIG FREEZE - Tabbed by 4useless
----------------------------------------------------------------------------
Tuning: Standard

Intro:

G|----------------------------|13-131313-131313-131313-1313|
D|13-131313-131313-131313-1313|----------------------------|
A|----------------------------|----------------------------|
E|----------------------------|----------------------------|

G|----------------------------|----------------------------|
D|13-131313-131313-131313-1313|----------------------------|
A|----------------------------|13-131313-131313-131313-1313|
E|----------------------------|----------------------------| x2

G|----------------------------|----------------------------|
D|13-131313-131313-131313-1313|13-131313-131313-131313-1313|
A|----------------------------|----------------------------|
E|----------------------------|----------------------------|

G|----------------------------|12-121212-121212-121212-1212|
D|13-131313-131313-131313-1313|----------------------------|
A|----------------------------|----------------------------|
E|----------------------------|----------------------------|

G|13-131313-131313-131313-1313|13-131313-131313-131313-1313|
D|----------------------------|----------------------------|
A|----------------------------|----------------------------|
E|----------------------------|----------------------------|

G|----------------------------|12-121212-121212-121212-1212|
D|13-131313-131313-131313-1313|----------------------------|
A|----------------------------|----------------------------|
E|----------------------------|----------------------------|

G|13-131313-131313-131313-1313|14-141414-141414-141414-1414|
D|----------------------------|----------------------------|
A|----------------------------|----------------------------|
E|----------------------------|----------------------------|

G|15-151515-151515-151515-1515|----------------------------|
D|----------------------------|----------------------------|
A|----------------------------|13-131313-131313-131313-1313|
E|----------------------------|----------------------------|

G|----------------------------|----------------------------|
D|13-131313-131313-131313-1313|13-131313-131313-13---------|
A|----------------------------|---------------------13\----|
E|----------------------------|----------------------------|

Verse:

G|----------------|----------------|----------------|----------------|
D|----------------|----------------|----------------|----------------|
A|6666--6666--6666|----------------|6666--6666--6666|6666--6655--5555|
E|----------------|6666--6666--6666|----------------|----------------|

G|----------------|----------------|----------------|----------------|
D|----------------|----------------|----------------|----------------|
A|3333--3333--3333|----------------|6666--6666--6666|6666--6666--6\--|
E|----------------|4444--4444--4444|----------------|----------------|

G|----------------|----------------|----------------|----------------|
D|----------------|----------------|----------------|----------------|
A|6-6-6-6-6-6-6-6-|----------------|----------------|----------------|
E|----------------|3-3-3-3-3-3-3-3-|4-4-4-4-4-4-4-4-|5-5-5-5-5-5-5-5-|

G|----------------|----------------|----------------|----------------|
D|----------------|----------------|----------------|----------------|
A|----------------|----------------|6-6-6-6-6-6-6-6-|6666--6666--6\--|
E|6-6-6-6-6-6-6-6-|6-6-6-6-6-6-6-6-|----------------|----------------|

Chorus:

G|----------------|----------------|----------------|----------------|
D|----------------|----------------|----------------|----------------|
A|3--3-------3--3-|----------------|----------------|6--6-------6--6-|
E|----------------|3--3-------3--3-|4--4-------4--4-|----------------|

G|----------------|----------------|----------------|----------------|
D|----------------|----------------|----------------|----------------|
A|3--3-------3--3-|----------------|----------------|----------------|
E|----------------|3--3-------3--3-|4--4-------4--4-|6--6-------6--6-|


G|----------------------------|----------------------------|
D|13-131313-131313-131313-1313|----------------------------|
A|----------------------------|13-131313-131313-131313-1313|
E|----------------------------|----------------------------|

G|----------------------------|----------------------------|
D|13-131313-131313-131313-1313|13-131313-131313-131313-1313|
A|----------------------------|----------------------------|
E|----------------------------|----------------------------|

G|----------------------------|12-121212-121212-121212-1212|
D|13-131313-131313-131313-1313|----------------------------|
A|----------------------------|----------------------------|
E|----------------------------|----------------------------|

G|13-131313-131313-131313-1313|13-131313-131313-131313-1313|
D|----------------------------|----------------------------|
A|----------------------------|----------------------------|
E|----------------------------|----------------------------|

G|----------------------------|12-121212-121212-121212-1212|
D|13-131313-131313-131313-1313|----------------------------|
A|----------------------------|----------------------------|
E|----------------------------|----------------------------|

G|13-131313-131313-131313-1313|14-141414-141414-141414-1414|
D|----------------------------|----------------------------|
A|----------------------------|----------------------------|
E|----------------------------|----------------------------|

G|15-151515-151515-151515-1515|----------------------------|
D|----------------------------|----------------------------|
A|----------------------------|13-131313-131313-131313-1313|
E|----------------------------|----------------------------|

G|----------------------------|----------------------------|
D|13-131313-131313-131313-1313|13-131313-131313-13---------|
A|----------------------------|---------------------13\----|
E|----------------------------|----------------------------|

Verse:

G|----------------|----------------|----------------|----------------|
D|----------------|----------------|----------------|----------------|
A|6666--6666--6666|----------------|6666--6666--6666|6666--6655--5555|
E|----------------|6666--6666--6666|----------------|----------------|

G|----------------|----------------|----------------|----------------|
D|----------------|----------------|----------------|----------------|
A|3333--3333--3333|----------------|6666--6666--6666|6666--6666--6\--|
E|----------------|4444--4444--4444|----------------|----------------|

G|----------------|----------------|----------------|----------------|
D|----------------|----------------|----------------|----------------|
A|6-6-6-6-6-6-6-6-|----------------|----------------|----------------|
E|----------------|3-3-3-3-3-3-3-3-|4-4-4-4-4-4-4-4-|5-5-5-5-5-5-5-5-|

G|----------------|----------------|----------------|----------------|
D|----------------|----------------|----------------|----------------|
A|----------------|----------------|6-6-6-6-6-6-6-6-|6666--6666--6\--|
E|6-6-6-6-6-6-6-6-|6-6-6-6-6-6-6-6-|----------------|----------------|

Chorus:

G|----------------|----------------|----------------|----------------|
D|----------------|----------------|----------------|----------------|
A|3--3-------3--3-|----------------|----------------|6--6-------6--6-|
E|----------------|3--3-------3--3-|4--4-------4--4-|----------------|

G|----------------|----------------|----------------|----------------|
D|----------------|----------------|----------------|----------------|
A|3--3-------3--3-|----------------|----------------|----------------|
E|----------------|3--3-------3--3-|4--4-------4--4-|6--6-------6--6-|


G|----------------------------|13-131313-131313-131313-1313|
D|13-131313-131313-131313-1313|----------------------------|
A|----------------------------|----------------------------|
E|----------------------------|----------------------------|

G|----------------------------|----------------------------|
D|13-131313-131313-131313-1313|----------------------------|
A|----------------------------|13-131313-131313\-----------|
E|----------------------------|----------------------------|

Verse:

G|----------------|----------------|----------------|----------------|
D|----------------|----------------|----------------|----------------|
A|6666--6666--6666|----------------|6666--6666--6666|6666--6655--5555|
E|----------------|6666--6666--6666|----------------|----------------|

G|----------------|----------------|----------------|----------------|
D|----------------|----------------|----------------|----------------|
A|3333--3333--3333|----------------|6666--6666--6666|6666--6666--6\--|
E|----------------|4444--4444--4444|----------------|----------------|

G|----------------|----------------|----------------|----------------|
D|----------------|----------------|----------------|----------------|
A|6-6-6-6-6-6-6-6-|----------------|----------------|----------------|
E|----------------|3-3-3-3-3-3-3-3-|4-4-4-4-4-4-4-4-|5-5-5-5-5-5-5-5-|

G|----------------|----------------|----------------|----------------|
D|----------------|----------------|----------------|----------------|
A|----------------|----------------|6-6-6-6-6-6-6-6-|6666--6666--6\--|
E|6-6-6-6-6-6-6-6-|6-6-6-6-6-6-6-6-|----------------|----------------|

Guitar Solo and Chorus:

G|----------------|----------------|----------------|----------------|
D|----------------|----------------|----------------|----------------|
A|3--3-------3--3-|----------------|----------------|6--6-------6--6-|
E|----------------|3--3-------3--3-|4--4-------4--4-|----------------| x3

G|----------------|----------------|----------------|----------------|
D|----------------|----------------|----------------|----------------|
A|3--3-------3--3-|----------------|----------------|----------------|
E|----------------|3--3-------3--3-|4--4-------4--4-|6--6-------6--6-|

Ending:

G|----------------|----------------|----------------|----------------|
D|----------------|8~------8~------|----------------|8~------8~------|
A|6~------6~------|----------------|6~------6~------|----------------|
E|----------------|----------------|----------------|----------------|

G|----------------|----------------|----------------|----------------|
D|----------------|8~------8~------|----------------|8~------8~------|
A|6~------6~------|----------------|6~------6~------|----------------|
E|----------------|----------------|----------------|----------------|

G|----------------|
D|----------------|
A|6~--------------|
E|----------------|



----------------------------------------------------------------------------
SAVE ME - Tabbed By 4useless
----------------------------------------------------------------------------
Tuning: Standard


Verse: [0:39]

G|------------------------------------------------------------------------|
D|------------------------------------------------------------------------|
A|5~-----0~-----5~-----0~-----3~--2~--5~-----3~--2~--1~----/5~-----5~-----|
E|------------------------------------------------------------------------|

Chorus:

G|--------------------------------|
D|--------------------------------|
A|3(x12)----------3(x12)----------|
E|--------5(x12)----------5(x12)--| x2

Verse:

G|----------7-----------------4--5----4--------------|
D|-------------------------7---------------7----5----|
A|5--5-5--5------5--5-5--5---------------------------|
E|---------------------------------------------------| x2

G|5----7----4----7--------------7----9-----11----\---|
D|---------------------------------------------------|
A|--------------------5--5-5--5----------------------|
E|---------------------------------------------------|

G|5----7----4----7---\3----5----7----9----|   |----------7----|
D|----------------------------------------|   |---------------|
A|----------------------------------------|   |5--5-5--5------|
E|----------------------------------------| + |---------------| x4

Chorus:

G|----------5--------------5----------------------------------|           |
D|----------------------------------------7--------------7\---|           |
A|3--3-3--3------3--3-3--3------------------------------------|           |
E|------------------------------5--5-5--5------5--5-5--5------|           |
                                                                          |x2
G|----------5---5---7---9--11------------------4-5-4-4----7-9-7-7-------| |
D|----------------------------------------7------------7----------10\---| |
A|3--3-3--3-------------------------------------------------------------| |
E|------------------------------5--5-5--5-------------------------------| |

Play this part very quiet:

G|------------------------------------------------------------|
D|5~----------------------------5(x24)------------------------|
A|------------------------------------------------------------|
E|------------------------------------------------------------|

Guitar solo:

G|----------5--------------5----------------------------------|
D|----------------------------------------7--------------7\---|
A|3--3-3--3------3--3-3--3------------------------------------|
E|------------------------------5--5-5--5------5--5-5--5------| x2

Chorus:

G|--------------------------------|
D|--------------------------------|
A|3(x12)----------3(x12)----------|
E|--------5(x12)----------5(x12)--| x2

Last note - 5th fret on D string.



----------------------------------------------------------------------------
LIQUID STATE - Tabbed By Rainwater34
----------------------------------------------------------------------------
Intro/Outro
G|--------------------------------------------------------------------|
D|--------------------------------------------------------------------|
A|--2-3-0-0-0-0-0-0-2-3-0-0-0-0-0-0-2-3-0-0-3-6-0-0-6-5-3-6-5-3-6-5---| x2
D|--------------------------------------------------------------------|

Verse
G|--------------------------------------------------------------------|
D|--------------------------------------------------------------------|
A|--3-0-0-0-0-0-0-3-5-0-0-0-0-0-0-5-6-0-0-5-7-0-0-6-5-3-6-5-3-6-5-3---|
D|--------------------------------------------------------------------|

G|--------------------------------------------------------------------|
D|--------------------------------------------------------------------|
A|--3-------------3-5-------------5-7-----7-8-----6-5-3-6-5-3-6-5-3---|
D|----3-3-3-3-3-3-----3-3-3-3-3-3-----3-3-----3-3---------------------|

G|--------------------------------------------------------------------|
D|--------------------------------------------------------------------|
A|--5-------------5-7-------------7-8-----8-11-----6-5-3-6-5-3-6-5-3--|
D|----0-0-0-0-0-0-----0-0-0-0-0-0-----0-0------0-0--------------------|

G|--------------------------------------------------------------------|
D|--------------------------------------------------------------------| x3
A|--3-0-0-0-0-0-0-----------------------------------------------------|
D|----------------5-7-7-7-7-7-7-7-5-7-7-7-7-7-7-7-5-7-7-7-7-7-7-7-7---|

Chorus
G|-------------------------------------------------------------------|
D|--------------------------------------------------6-5-3-6-5-3-6-5--|
A|-------------------------------------------------------------------|
D|--3-0-0-0-0-0-0-0-3-0-0-0-0-0-0-0-3-0-0-0-5-0-0-0------------------|

G|-------------------------------------------------------------------|
D|--3---------------3---------------3-------5-------6-5-3-6-5-3-6-5--|
A|----1-1-1-1-1-1-1---1-1-1-1-1-1-1---1-1-1---1-1-1------------------|
D|-------------------------------------------------------------------|

G|-------------------------------------------------------------------|
D|--5---------------5---------------5-------7-------6-5-3-6-5-3-6-5--|
A|-------------------------------------------------------------------|
D|----5-5-5-5-5-5-5---5-5-5-5-5-5-5---5-5-5---5-5-5------------------|

G|-------------------------------------------------------------------|
D|-------------------------------------------------------------------|
A|--------------------------------------------------5---5---3-5-5----|
D|--3-0-0-0-0-0-0-0-3-0-0-0-0-0-0-0-3-0-0-0-5-0-0-0---0---0-------0--|

Those are all the parts you need for the song.
I've done a cover of this tab if you want to check it out:
http://www.youtube.com/watch?v=oRDy-6uwUU0&feature=channel&list=UL



----------------------------------------------------------------------------
THE 2ND LAW - UNSUSTAINABLE - Tabbed By Filippo199o
----------------------------------------------------------------------------
Tuning- (EADG)

No bass till 1:28
At 1:28 the bass kicks in-


Drop:

G|--------------------------------|--------------------------------|
D|--------------------------------|--------------------------------|
A|----------------12\-------------|--------------------------------|
E|--------------------------------|----5------5-------5-5-5--------|

G|--------------------------------|--------------------------------|
D|--------------------------------|--------------------------------|
A|--------------------------------|------12-12-12^-13-13-13^-13^13^|
E|-----------------5/-------------|--------------------------------|

G|--------------------------------|--------------------------------|
D|--------------------------------|--------------------------------|
A|----------------12\-------------|--------------------------------|
E|--------------------------------|--5--------------5--------------|

G|--------------------------------|--------------------------------|
D|--------------------------------|--------------------------------|
A|--------------------------------|--------------------------------|
E|-----------------5/-------------|----0--0--0--0--0--0--0--0------|

G|--------------------------------|----------------------------------|
D|--------------------------------|----------------------------------|
A|----------------12\-------------|----------------------------------|
E|--------------------------------|----5------5-------5-5-5----------|

G|--------------------------------|--------------------------------|
D|--------------------------------|--------------------------------|
A|--------------------------------|------12-12-12^-13-13-13^-13^13^|
E|-----------------5/-------------|--------------------------------|

G|--------------------------------|--------------------------------|
D|--------------------------------|--------------------------------|
A|----------------12\-------------|--------------------------------|
E|--------------------------------|--5--------------5--------------|

G|--------------------------------|--------------------------------|
D|--------------------------------|--------------------------------|
A|--------------------------------|--------------------------------|
E|-----------------12/------------|----------5--5--5--5--5--5------|


Chorus- x2

G|--------------------------------|
D|--------------------------------|
A|-----12-12-12-12-12-12-12-12----|
E|--------------------------------|

G|--------------------------------|
D|--------------------------------|
A|--------------------------------|
E|-----13-13-13-13-13-13-13-13----|

G|--------------------------------|
D|--------------------------------|
A|--------------------------------|
E|-----10-10-10-10-10-10-10-10----|

G|--------------------------------|
D|--------------------------------|
A|--------------------------------|
E|-----12-12-12-12-12-12-12-12----|

G|--------------------------------|
D|--------------------------------|
A|--------------------------------|
E|---5---5--5---5--5---5--5----5--|

G|--------------------------------|
D|--------------------------------|
A|--------------------------------|
E|---1---1--1---1--1---1--1----1--|

G|--------------------------------|
D|--------------------------------|
A|---0---0--0---0--0---0--0----0--|
E|--------------------------------|


Rest from 2:55 - 3:16

At 3:16 Play

Drop:

G|--------------------------------|--------------------------------|
D|--------------------------------|--------------------------------|
A|----------------12\-------------|--------------------------------|
E|--------------------------------|----5------5-------5-5-5--------|

G|--------------------------------|--------------------------------|
D|--------------------------------|--------------------------------|
A|--------------------------------|------12-12-12^-13-13-13^-13^13^|
E|-----------------5/-------------|--------------------------------|

G|--------------------------------|--------------------------------|
D|--------------------------------|--------------------------------|
A|----------------12\-------------|--------------------------------|
E|--------------------------------|--5--------------5--------------|

G|--------------------------------|--------------------------------|
D|--------------------------------|--------------------------------|
A|--------------------------------|--------------------------------|
E|-----------------5/-------------|----0--0--0--0--0--0--0--0------|

G|--------------------------------|--------------------------------|
D|--------------------------------|--------------------------------|
A|----------------12\-------------|--------------------------------|
E|--------------------------------|----5------5-------5-5-5--------|

G|--------------------------------|--------------------------------|
D|--------------------------------|--------------------------------|
A|--------------------------------|------12-12-12^-13-13-13^-13^13^|
E|-----------------5/-------------|--------------------------------|

G|--------------------------------|--------------------------------|
D|--------------------------------|--------------------------------|
A|----------------12\-------------|--------------------------------|
E|--------------------------------|--5--------------5--------------|

G|--------------------------------|--------------------------------|
D|--------------------------------|--------------------------------|
A|--------------------------------|--------------------------------|
E|-----------------12/------------|----------5--5--5--5--5--5------|

Sometimes you are going to have to listen the rhythm to figure out right timing in
the chorus. Have fun!


----------------------------------------------------------------------------
THE 2ND LAW - ISOLATED SYSTEM -Tabbed By 4useless
----------------------------------------------------------------------------
Tuning: Standard

This song sounds like there are two bass lines in first half. My
transcription represents main rhythmic part. Second part sounds more like
additional and consists of eight-notes with fade outs.

Note: There are some dotted notes and some staccatos. Examples:
(6.) <--- This means dotted note.

 .
(6)  <--- This means staccato.

Time signature 4/4
Tempo - 132

[0:58]

  +   +   +   +   +   +   +   +   +   +   +   +   +   +   +   +
G|---------------|---------------|---------------|---------------| |
D|---------------|---------------|---------------|---------------| |
A|---------------|---------------|---------------|---------------| |
E|6-6-6.-66-6-6.6|6-6-6.-66-6-6.6|8-8-8.-88-8-8.8|8-8-8.-88-8-8.8| |
                                                                   | x3
G|---------------|---------------|---------------|---------------| |
D|---------------|---------------|---------------|---------------| |
A|---------------|---------------|---------------|---------------| |
E|3-3-3.-33-3-3.3|3-3-3.-33-3-3.3|3-3-3.-33-3-3.3|3-3-3.-33-3-3.3| |

G|---------------|---------------|---------------|---------------|
D|---------------|---------------|---------------|---------------|
A|---------------|---------------|---------------|---------------|
E|6-6-6.-66-6-6.6|6-6-6.-66-6-6.6|8-8-8.-88-8-8.8|8-8-8.-88-8-8.8|

[1:49] Play this till it fade out completely at 2:06
(This is more like ending for that second bass line)

  +   +   +   +   +   +   +   +   +   +   +   +   +   +   +   +
G|---------------|---------------|---------------|---------------|
D|---------------|---------------|---------------|---------------|
A|.-.-.-.-.-.-.-.|.-.-.-.-.-.-.-.|.-.-.-.-.-.-.-.|.-.-.-.-.-.-.-.|
E|3-3-3-3-3-3-3-3|3-3-3-3-3-3-3-3|3-3-3-3-3-3-3-3|3-3-3-3-3-3-3-3|


[3:01]

  +   +   +   +   +   +   +   +   +   +   +   +   +   +   +   +
G|---------------|---------------|---------------|---------------| |
D|---------------|---------------|---------------|---------------| |
A|6-6-6.-66-6-6.6|6-6-6.-66-6-6.6|5-5-5.-55-5-5.5|5-5-5.-55-5-5.5| |
E|---------------|---------------|---------------|---------------| |
                                                                   | x4
G|---------------|---------------|---------------|---------------| |
D|---------------|---------------|---------------|---------------| |
A|---------------|---------------|---------------|---------------| |
E|8-8-8.-88-8-8.8|8-8-8.-88-8-8.8|6-6-6.-66-6-6.6|6-6-6.-66-6-6.6| |

You can repeat that "fade out" part above.





Thanks for reading. Hope this album tab was useful.
Laters!
comments
We did not receive enough feedback on this tab! Please rate:
1 2 3 4 5
I want to post or [tab]
guest
You may want to rate the tab now too:
select rating
Please do not post tabs as comments. Select "correction" instead!