Oops, an error
Loading. Please wait.

The 2nd Law Unsustainable Bass Tab

by Muse
ver1
ver1

Whole song

More versions @911Tabs.com
6,002 views 27 this week
no commentswrite comment
1 2 3 4 5
accurate
x 4
Autoscroll
+/-
esc
set tempo
stop
Contributor
Difficulty
novice
WARNING: You are trying to view
                                    content from Ultimate-Guitar.com
                                    in an unauthorized application,
                                    which is prohibited.

                                    Please use an official Ultimate
                                    Guitar Tabs application for iPhone,
                                    iPad or Android to access legitimate
                                    chords, guitar, bass, and drum tabs
                                    from Ultimate-Guitar.com database.

                                    Type "ultimate guitar tabs" in Apple
                                    App Store's or Android Market's
                                    search to find the application.
First Tab so might be a bit wrong but generally OK. 

Artist: Muse
Album: The 2nd Law
Tuning: Standard (EADG)


rest till 0:20

Verse:

G|--------------------------------|
D|--------------------------------|
A|--------------------------------|
E|--5/----------------------------|

G|--------------------------------|
D|--------------------------------|
A|--------------------------------|
E|--5/----------------------------|

G|--------------------------------|--------------------------------|
D|--------------------------------|--------------------------------|
A|--------------------------------|--8-----------------------------|
E|--5-----------------------------|--------------------------------|

G|--------------------------------|--------------------------------|
D|--7-----------------------------|--9-----------------------------|
A|--------------------------------|--------------------------------|
E|--------------------------------|--------------------------------|

G|--------------------------------|--------------------------------|
D|--7-----------------------------|--------------------------------|
A|--------------------------------|--8-----------------------------|
E|--------------------------------|--------------------------------|

G|--------------------------------|--------------------------------|
D|--------------------------------|--------------------------------|
A|--7-----------------------------|--------------------------------|
E|--------------------------------|--------------------------------|

                 Vocals come in here (1:02)

G|--------------------------------|--------------------------------|
D|--------------------------------|--------------------------------|
A|--------------------------------|--8-----------------------------|
E|--5-----------------------------|--------------------------------|

G|--------------------------------|--------------------------------|
D|--------------------------------|--------------------------------|
A|--8-----------------------------|--7-----------------------------|
E|--------------------------------|--------------------------------|

G|--------------------------------|--------------------------------|
D|--------------------------------|--------------------------------|
A|--7-----------------------------|--5-----------------------------|
E|--------------------------------|--------------------------------|

G|--------------------------------|--------------------------------|
D|--------------------------------|--------------------------------|
A|--------------------------------|--------------------------------|
E|--8-----------------------------|--------------------------------|

 Rest
 
Drop:

G|--------------------------------|--------------------------------|
D|--------------------------------|--------------------------------|
A|--------------------------------|--------------------------------|
E|----------------17\-------------|----5----5----5----5-5-5--------|

G|--------------------------------|--------------------------------|
D|--------------------------------|--------------------------------|
A|--------------------------------|--------------------------------|
E|----------------17\----5--5-----|---5-----5--5---5-----5--5------|

G|--------------------------------|--------------------------------|
D|--------------------------------|--------------------------------|
A|--------------------------------|--------------------------------|
E|-----------------17\------------|--5--------------5--------------|

G|--------------------------------|--------------------------------|
D|--------------------------------|--------------------------------| X2
A|--------------------------------|--------------------------------|
E|----------------17\-------------|--5---5---5---5---5---5---5---5-|

Chorus:

G|--------------------------------|--------------------------------|
D|--------------------------------|--------------------------------|
A|--------------------------------|--------------------------------|
E|---5---5--5---5--5---5--5----5--|---5---5--5---5--5---5--5----5--|

G|--------------------------------|--------------------------------|
D|--------------------------------|--------------------------------|
A|--------------------------------|--------------------------------|
E|---1---1--1---1--1---1--1----1--|---1---1--1---1--1---1--1----1--|

G|--------------------------------|--------------------------------|
D|--------------------------------|--------------------------------|
A|---0---0--0---0--0---0--0----0--|---0---0--0---0--0---0--0----0--|
E|--------------------------------|--------------------------------|

G|--------------------------------|--------------------------------|
D|--------------------------------|--------------------------------|
A|---2---2--2---2--2---2--2----2--|---2---2--2---2--2---2--2----2--|
E|--------------------------------|--------------------------------|

G|--------------------------------|--------------------------------|
D|--------------------------------|--------------------------------|
A|--------------------------------|--------------------------------|
E|---5---5--5---5--5---5--5----5--|---5---5--5---5--5---5--5----5--|

G|--------------------------------|--------------------------------|
D|--------------------------------|--------------------------------|
A|--------------------------------|--------------------------------|
E|---1---1--1---1--1---1--1----1--|---1---1--1---1--1---1--1----1--|

G|--------------------------------|--------------------------------|
D|--------------------------------|--------------------------------|
A|--------------------------------|--------------------------------|
E|---0---0--0---0--0---0--0----0--|---0---0--0---0--0---0--0----0--|

G|--------------------------------|--------------------------------|
D|--------------------------------|--------------------------------|
A|--------------------------------|--------------------------------|
E|---0---0--0---0--0---0--0----0--|---0---0-0-0---0---0-0-0--------|

G|--------------------------------|--------------------------------|
D|--------------------------------|--------------------------------|
A|--------------------------------|--------------------------------|
E|---5---5--5---5--5---5--5----5--|---5---5--5---5--5---5--5----5--|

G|--------------------------------|--------------------------------|
D|--------------------------------|--------------------------------|
A|--------------------------------|--------------------------------|
E|---1---1--1---1--1---1--1----1--|---1---1--1---1--1---1--1----1--|

G|--------------------------------|--------------------------------|
D|--------------------------------|--------------------------------|
A|---0---0--0---0--0---0--0----0--|---0---0--0---0--0---0--0----0--|
E|--------------------------------|--------------------------------|

G|--------------------------------|--------------------------------|
D|--------------------------------|--------------------------------|
A|---2---2--2---2--2---2--2----2--|---2---2--2---2--2---2--2----2--|
E|--------------------------------|--------------------------------|

G|--------------------------------|--------------------------------|
D|--------------------------------|--------------------------------|
A|--------------------------------|--------------------------------|
E|---5---5--5---5--5---5--5----5--|---5---5--5---5--5---5--5----5--|

G|--------------------------------|--------------------------------|
D|--------------------------------|--------------------------------|
A|--------------------------------|--------------------------------|
E|---1---1--1---1--1---1--1----1--|---1---1--1---1--1---1--1----1--|

G|--------------------------------|
D|--------------------------------|
A|---0----------------------------|
E|--------------------------------|

2nd Verse: (2:52)

G|--------------------------------|--------------------------------|
D|--------------------------------|--------------------------------|
A|--------------------------------|--------------------------------|
E|--1-----------------------------|--------------------------------|

G|--------------------------------|--------------------------------|
D|--------------------------------|--------------------------------|
A|--0-----------------------------|--------------------------------|
E|--------------------------------|--------------------------------|

G|--------------------------------|--------------------------------|
D|--0-----------------------------|--------------------------------|
A|--------------------------------|--------------------------------|
E|--------------------------------|--------------------------------|

G|--------------------------------|--------------------------------|
D|--------------------------------|--------------------------------|
A|--0----0--------0----0----------|--0----0--------0----0----------|
E|--------------------------------|--------------------------------|

G|--------------------------------|--------------------------------|
D|--------------------------------|--------------------------------|
A|--3----3--------3----3----------|--3----3--------3----3----------|
E|--------------------------------|--------------------------------|

G|--------------------------------|--------------------------------|
D|--------------------------------|--------------------------------|
A|--0----0--------0----0----------|--0----0--------0----0----------|
E|--------------------------------|--------------------------------|

G|--------------------------------|
D|--------------------------------|
A|--------------------------------|
E|--4----4--------4----4----------|

Drop(same as before):(3:17)

Order:
Verse 
Drop
Chorus
Verse 2
Drop
comments
print report bad tab
I want to post or [tab]
guest
You may want to rate the tab now too:
select rating
Please do not post tabs as comments. Select "correction" instead!