Oops, an error
Loading. Please wait.

Time Is Running Out Tab

by Muse
1,481 views 1 this week
no commentswrite comment
1 2 3 4 5
please rate
Autoscroll
+/-
esc
set tempo
stop
Contributor
Difficulty
intermediate
Hey! There's an official Ultimate Guitar app which is ideal
for learning songs when you're away from computer. Get the app
WARNING: You are trying to view
                                    content from Ultimate-Guitar.com
                                    in an unauthorized application,
                                    which is prohibited.

                                    Please use an official Ultimate
                                    Guitar Tabs application for iPhone,
                                    iPad or Android to access legitimate
                                    chords, guitar, bass, and drum tabs
                                    from Ultimate-Guitar.com database.

                                    Type "ultimate guitar tabs" in Apple
                                    App Store's or Android Market's
                                    search to find the application.
                                     INTRO (4x)

|-------------------------------|--------------------------------|--------------------------------|
|-------------------------------|--------------------------------|--------------------------------|
|-------------------------------|--------------------------------|--------------------------------|
|-------------------------------|--------------------------------|--------------------------------|
|-------------------------------|-----------------------5---5---6|----------------------7---7-----|
|--5---5---8---5---5---8---8---5|---7---7---5---7---7------------|--0---0---7---0---0-----------0-|


--------------------------------|                                                 
--------------------------------|
--------------------------------|
--------------------------------| END INTRO
-----------3-----------5---5----|
---1---1-------1---3-----------3|



|-----------------------|------------------------|------------------------|-----------------------|
|-0-0-0---1--1--1--1--1-|--1--1--3--3--1--1--0--0|-0--0--0---1--1--1--1--1|-1--1--3--3--1--1--0--0|
|-2-2-2---2--2--2--2--2-|--0--0--0--0--0--0--0--0|-2--2--2---2--2--2--2--2|-0--0--0--0--0--0--0--0|
|-3-3-3---3--3--3--3--3-|--0--0--0--0--0--0--0--0|-2--2--2---2--2--2--2--2|-2--2--2--2--2--2--2--2|
|-----------------------|------------------------|------------------------|-----------------------|
|-----------------------|------------------------|------------------------|-----------------------|



|-----------------------|
|-----------------------|
|--12--12--10--10--9--9-|
|-----------------------|
|--10--10--8---8---7--7-|
|-----------------------|


|-----------------------|------------------------|------------------------|-----------------------|
|-0-0-0---1--1--1--1--1-|--1--1--3--3--1--1--0--0|-0--0--0---1--1--1--1--1|-1--1--3--3--1--1--0--0|
|-2-2-2---2--2--2--2--2-|--0--0--0--0--0--0--0--0|-2--2--2---2--2--2--2--2|-0--0--0--0--0--0--0--0|
|-3-3-3---3--3--3--3--3-|--0--0--0--0--0--0--0--0|-2--2--2---2--2--2--2--2|-2--2--2--2--2--2--2--2|
|-----------------------|------------------------|------------------------|-----------------------|
|-----------------------|------------------------|------------------------|-----------------------|



|-----------------------|
|-----------------------|
|--12--12--10--10--9--9-|
|-----------------------|
|--10--10--8---8---7--7-|
|-----------------------|



|-----------0--0----------0--0--|----------------------------------|
|-----------3--3----------3--3--|----------------------------------|
|---1--1----4--4---1--1---4--4--|----------------------------------|
|---2--2----6--6---2--2---6--6--|---14-----13------12------10----10|
|---2--2----7--7---2--2---7--7--|----------------------------------|
|---0--0-----------0--0---------|---12-----11------10------8-----8-|



--------------------------------|---------------------------------|
--------------------------------|---------------------------------|
--9---9---9---10--10--10--10--10|--10--10---7---7---9---9---10--10|
--10--10--10--10--10--10--10--10|--10--10---10--10--10--10--10--10|
--8---8---8---8---8---8---8---8-|--10--10---10--10--10--10--10--10|
--8---8---8---8---8---8---8---8-|---------------------------------|


--------------------------|------------------------------|
---6--6--6---5--5--5--5--5|------------------------------|
---5--5--5---5--5--5--5--5|--------12--12---10--10---9--9|
---7--7--7---7--7--7--7--7|---10-------------------------|
---7--7--7---7--7--7--7--7|---10---10--10---8---8----7--7|
---5--5--5---5--5--5--5--5|---8--------------------------|


--------------------------------|---------------------------------|
--------------------------------|---------------------------------|
--9---9---9---10--10--10--10--10|--10--10---7---7---9---9---10--10|
--10--10--10--10--10--10--10--10|--10--10---10--10--10--10--10--10|
--8---8---8---8---8---8---8---8-|--10--10---10--10--10--10--10--10|
--8---8---8---8---8---8---8---8-|---------------------------------|



--------------------------|-------------------------|---12-----8----5|
---6--6--6---5--5--5--5--5|-------------------------|----------------|
---5--5--5---5--5--5--5--5|---------------0--0------|---9------5----2|
---7--7--7---7--7--7--7--7|--3--3---------------0---|----------------|
---7--7--7---7--7--7--7--7|--------3----------------|----------------|
---5--5--5---5--5--5--5--5|--1--1-----1---3--3-----3|----------------|



----11------------8------5|---4--------7-----12|------13----------10-------7-----------------|
--------------------------|--------------------|---------------------------------------------|
----8-------------5------2|---1--------4-----9-|------10----------7--------4-----------------|
--------------------------|--------------------|---------------------------------------------|
--------------------------|--------------------|---------------------------------------------|
--------------------------|--------------------|---------------------------------------------|


-----------------|----------------|-----------------------------|----------------------------|
-----------------|----------------|-----------------------------|----------------------------|
-----------------|----------------|-----------------------------|----------------------------|
-----------------|----------------|----3--3---------5--5--------|----------------------------|
------------3----|------------5---|----------3-------------5----|-----------3----------------|
----5---5-------5|----7---7------7|----1--1-----1---3--3-------3|---5---5-------5------------|


---------------|-------------------|--------------------------|------------------|----------------|
---------------|-------------------|--------------------------|------------------|----------------|
---------------|-------------------|--------------------------|------------------|----------------|
---------------|-------------------|--3--3----------5--5------|------------------|----------------|
---------------|-----------7-------|---------3------------5---|----------3-------|----------------|
---7--7---5---7|---0---0------0----|--1--1------1---3--3-----3|---5---5------5---|---7---7----5--7|


----------------|----------------------------|
----------------|----------------------------|
----------------|----------------------------|
----------------|----------------------------|
-----------7----|----------3-------------5---|
---0--0--------0|---1--1------1----3--3-----3|


|-----------------------|------------------------|------------------------|-----------------------|
|-0-0-0---1--1--1--1--1-|--1--1--3--3--1--1--0--0|-0--0--0---1--1--1--1--1|-1--1--3--3--1--1--0--0|
|-2-2-2---2--2--2--2--2-|--0--0--0--0--0--0--0--0|-2--2--2---2--2--2--2--2|-0--0--0--0--0--0--0--0|
|-3-3-3---3--3--3--3--3-|--0--0--0--0--0--0--0--0|-2--2--2---2--2--2--2--2|-2--2--2--2--2--2--2--2|
|-----------------------|------------------------|------------------------|-----------------------|
|-----------------------|------------------------|------------------------|-----------------------|


|-----------------------|------------------------|------------------------|
|-0-0-0---1--1--1--1--1-|--1--1--3--3--1--1--0--0|-0--0--0---1--1--1--1--1|
|-2-2-2---2--2--2--2--2-|--0--0--0--0--0--0--0--0|-2--2--2---2--2--2--2--2|
|-3-3-3---3--3--3--3--3-|--0--0--0--0--0--0--0--0|-2--2--2---2--2--2--2--2|
|-----------------------|------------------------|------------------------|
|-----------------------|------------------------|------------------------|



-------------------------|
-------------------------|
---12--12---10--10--9--9-|
-------------------------|
---10--10---8---8---7--7-|
-------------------------|


--------------------------------|---------------------------------|
--------------------------------|---------------------------------|
--9---9---9---10--10--10--10--10|--10--10---7---7---9---9---10--10|
--10--10--10--10--10--10--10--10|--10--10---10--10--10--10--10--10|
--8---8---8---8---8---8---8---8-|--10--10---10--10--10--10--10--10|
--8---8---8---8---8---8---8---8-|---------------------------------|


--------------------------|------------------------------|
---6--6--6---5--5--5--5--5|------------------------------|
---5--5--5---5--5--5--5--5|--------12--12---10--10---9--9|
---7--7--7---7--7--7--7--7|---10-------------------------|
---7--7--7---7--7--7--7--7|---10---10--10---8---8----7--7|
---5--5--5---5--5--5--5--5|---8--------------------------|



--------------------------------|---------------------------------|
--------------------------------|---------------------------------|
--9---9---9---10--10--10--10--10|--10--10---7---7---9---9---10--10|
--10--10--10--10--10--10--10--10|--10--10---10--10--10--10--10--10|
--8---8---8---8---8---8---8---8-|--10--10---10--10--10--10--10--10|
--8---8---8---8---8---8---8---8-|---------------------------------|

--------------------------|----------------------------------|
---6--6--6---5--5--5--5--5|--------------------------------0-|
---5--5--5---5--5--5--5--5|--------12--12---10--10---9--9--0-|
---7--7--7---7--7--7--7--7|---10---------------------------0-|
---7--7--7---7--7--7--7--7|---10---10--10---8---8----7--7--0-|
---5--5--5---5--5--5--5--5|---8------------------------------|


---1--1--1--1--1--1--1--0-|--0--0--0--0--0--0--0---0---|
---3--3--3--3--3--3--3--0-|--1--1--1--1--1--1--1---0---|
---2--2--2--2--2--2--2--0-|--2--2--2--2--2--2--2---0---|
---0--0--0--0--0--0--0--0-|--2--2--2--2--2--2--2---0---|
------------------------0-|--0--0--0--0--0--0--0---0---|
--------------------------|----------------------------|


---1--1--1--1--1--1--1--0-|--0--0--0--0--0--0--0---0---|
---3--3--3--3--3--3--3--0-|--1--1--1--1--1--1--1---0---|
---2--2--2--2--2--2--2--0-|--2--2--2--2--2--2--2---0---|
---0--0--0--0--0--0--0--0-|--2--2--2--2--2--2--2---0---|
------------------------0-|--0--0--0--0--0--0--0---0---|
--------------------------|----------------------------|



---1--1--1--1--1--1--1--0-|---0---0---0--0---0--0---0---0------|----------0--0---------0--0---|
---3--3--3--3--3--3--3--0-|---1---1---1--1---1--1---1---1------|----------0--0---------0--0---|
---2--2--2--2--2--2--2--0-|---0---0---0--0---0--0---0---0---0--|--1--1---1--1---1--1---1--1---|
---0--0--0--0--0--0--0--0-|---2---2---2--2---2--2---2---2---0--|--2--2---2--2---2--2---2--2---|
------------------------0-|---0---0---0--0---0--0---0---0---0--|--2--2----------2--2----------|
--------------------------|---------------------------------0--|--0--0----------0--0----------|



|-------------------------------|--------------------------------|--------------------------------|
|-------------------------------|--------------------------------|--------------------------------|
|-------------------------------|--------------------------------|--------------------------------|
|-------------------------------|--------------------------------|--------------------------------|
|-------------------------------|-----------------------5---5---6|----------------------7---7-----|
|--5---5---8---5---5---8---8---5|---7---7---5---7---7------------|--0---0---7---0---0-----------0-|



--------------------------------|            
--------------------------------|
--------------------------------|
-----------3-----------5---5----|
---1---1-------1---3-----------3|



---12------8---12-------8---12----|--8---11------8--11-------8--11|-----7--10-----7--10-----7|
-------10----------10-----------10|----------10----------10-------|--9---------9---------9---|
----------------------------------|-------------------------------|--------------------------|
----------------------------------|-------------------------------|--------------------------|
----------------------------------|-------------------------------|--------------------------|
----------------------------------|-------------------------------|--------------------------|





---8-----------8--10------8--10|
------10--12----------12-------|
-------------------------------|
-------------------------------|
-------------------------------|
-------------------------------|


|---------0--0----------0--0----|------------------------------------------------------------|
|---------3--3----------3--3----|------------------------------------------------------------|
|--1--1---4--4---1--1---4--4----|------------------------------------------------------------|
|--2--2---6--6---2--2---6--6----|---14-------13-------12----------10----10-------------------|
|--2--2---7--7---2--2---7--7----|------------------------------------------------------------|
|--0--0----------0--0-----------|---12-------11-------10----------8-----8--------------------|

comments
We did not receive enough feedback on this tab! Please rate:
print report bad tab
1 2 3 4 5
I want to post or [tab]
guest
You may want to rate the tab now too:
select rating
Please do not post tabs as comments. Select "correction" instead!