Oops, an error
Loading. Please wait.

Unintended Live Tab

by Muse
ver1
ver1

Whole song

More versions @911Tabs.com
25,522 views 60 this week
1 commentread comment
1 2 3 4 5
excellent!
x 17
add to favorites launch autoscroll
font size
0
reset
Autoscroll
+/-
esc
set tempo
stop
Contributor
WARNING: You are trying to view
                                    content from Ultimate-Guitar.com
                                    in an unauthorized application,
                                    which is prohibited.

                                    Please use an official Ultimate
                                    Guitar Tabs application for iPhone,
                                    iPad or Android to access legitimate
                                    chords, guitar, bass, and drum tabs
                                    from Ultimate-Guitar.com database.

                                    Type "ultimate guitar tabs" in Apple
                                    App Store's or Android Market's
                                    search to find the application.
Unintended
Muse

HAARP DVD "Live From Wembley"

Tuning: Standard | Capo: 5


INTRO:

     Aadd11                                                     Amadd11
E||---------------0---------------|----------0---------------|----------------0---------------|
B||-------------4---4-----4-------|--------4---4-----4-------|--------------4---4-----4-------|
G||-----------6-------6-----6-----|------6-------6-----6-----|------------5-------5-----5-----|
D||---------7-----------7-----7---|----7-----------7-----7---|----------7-----------7-----7---|
A||--0--------------------------0-|--0---------------------0-|--0---------------------------0-|
E||-------------------------------|--------------------------|--------------------------------|

                             Am6add11
----------0---------------|-----------------0---------------|----------0---------------|
--------4---4-----4-------|---------------4---4-----4-------|--------4---4-----4-------|
------5-------5-----5-----|-------------5-------5-----5-----|------5-------5-----5-----|
----7-----------7-----7---|-----------4-----------4-----4---|----4-----------4-----4---|
--0---------------------0-|--0----------------------------0-|--0---------------------0-|
--------------------------|---------------------------------|--------------------------|

  Dm6add9                                                       Dadd9
------------------0---------------|----------0---------------|--------------0---------------|
----------------3---3-----3-------|--------3---3-----3-------|------------2---2-----2-------|
--------------4-------4-----4-----|------4-------4-----4-----|----------4-------4-----4-----|
------------3-----------3-----3---|----3-----------3-----3---|--------2-----------2-----2---|
--0-----------------------------0-|--0---------------------0-|--0-------------------------0-|
----------------------------------|--------------------------|------------------------------|

                             Dmadd9
----------0---------------|---------------0---------------|----------0---------------|
--------2---2-----2-------|-------------0---0-----0-------|--------0---0-----0-------|
------4-------4-----4-----|-----------5-------5-----5-----|------5-------5-----5-----|
----2-----------2-----2---|---------2-----------2-----2---|----2-----------2-----2---|
--0---------------------0-|--0--------------------------0-|--0---------------------0-|
--------------------------|-------------------------------|--------------------------|

  Cmaj7                                                       Asus2/F#
----------------0---------------|----------0---------------|----------------0---------------|
--------------0---0-----0-------|--------0---0-----0-------|--------------0---0-----0-------|
------------5-------5-----5-----|------5-------5-----5-----|------------2-------2-----2-----|
----------2-----------2-----2---|----2-----------2-----2---|----------2-----------2-----2---|
--------------------------------|--------------------------|--------------------------------|
--3---------------------------3-|--3---------------------3-|--2---------------------------2-|

                             Asus2/F
----------0---------------|-----------------0---------------|----------0---------------|
--------0---0-----0-------|---------------0---0-----0-------|--------0---0-----0-------|
------2-------2-----2-----|-------------2-------2-----2-----|------2-------2-----2-----|
----2-----------2-----2---|-----------2-----------2-----2---|----2-----------2-----2---|
--------------------------|---------------------------------|--------------------------|
--2---------------------2-|--1----------------------------1-|--1---------------------1-|

  Asus2
--------------0---------------|----------0---------------|
------------0---0-----0-------|--------0---0-----0-------|
----------2-------2-----2-----|------2-------2-----2-----|
--------2-----------2-----2---|----2-----------2-----2---|
------------------------------|--------------------------|
--0-------------------------0-|--0---------------------0-|

  E                          E
----------0---------------|--0------------|
--------0---0-----0-------|--0------------|
------1-------1-----1-----|--1------------|
----2-----------2-----2---|--2------------|
------------------------2-|--2------------|
--0-----------------------|--0------------|

VERSE 1:
  A                          Dm                         G
E||--------------0-----------|--------------1-----------|--------------3-----------|
B||-----------------2--------|--------3--------3--------|-----------------0--------|
G||--------2-----------2-----|-----2-----2--------2-----|--------0-----------0-----|
D||-----2-----2-----------2--|--0--------------------0--|-----0-----0-----------0--|
A||--0-----------------------|--------------------------|--------------------------|
E||--------------------------|--------------------------|--3-----------------------|

  C                          F                          E
--------------0-----------|--------------1-----------|--------------0-----------|
-----------------1--------|-----------------1--------|-----------------0--------|
--------0-----------0-----|--------2-----------2-----|--------1-----------1-----|
-----2-----2-----------2--|-----3-----3-----------3--|-----2-----2-----------2--|
--3-----------------------|--------------------------|--------------------------|
--------------------------|--1-----------------------|--0-----------------------|

  A
--------------0----------|--------------0-----------||   X    X  4   4-|
-------------------------|-----------------2--------||    X  X   4   4-|
--------2----------2-----|--------2-----------2-----||     XX    4   4-|
-----2-----2----------2--|-----2-----2-----------2--||     XX    44444-|
--0----------------------|--0-----------------------||    X  X       4-|
-------------------------|--------------------------||   X    X      4-|


VERSE 2:
  A                                 Dm
E||---------------------------------|----------1---------------1-------|
B||---------2---------------2-------|------3-----3---3-----3-----3---3-|
G||-----2-----2---2-----2-----2---2-|----2---2-----2-----2---2-----2---|
D||---2---2-----2-----2---2-----2---|-0----------------0---------------|
A||-0---------------0---------------|----------------------------------|
E||---------------------------------|----------------------------------|

  G                               C
-----------------3-------3-----|------------------0---------------|
---------0---------------------|----------1---------1-----1-------|
-----0-----0---0---0---0---0---|------0-----0---0-----0-----0---0-|
---0---0-----0-------0-------0-|----2---2-----2---------2-----2---|
-------------------------------|--3-------------------------------|
-3-----------------------------|----------------------------------|

  F                                   E
-------------------1-------1-------|------------------0-------0-------|
-----------1---------1-------1-----|----------0-----------------------|
-------2-----2---2-----2-------2---|------1-----1---1---1---1---1---1-|
-----3---3-----3---------3-------3-|----2---2-----2-------2-------2---|
-----------------------------------|----------------------------------|
--1--------------------------------|--0-------------------------------|

  A                                  Am
------------------0---------------|-----------0---------------0-------||
----------2---------------2-------|--1----------------------0---------||
------2-----2---2---2---2---2---2-|-----2---2---2---2-1---1-----1---1-||
----2---2-----2-------2-------2---|-------2-------2-----2---------2---||
--0-------------------------------|-----------------------------------||
----------------------------------|-----------------------------------||

BRIDGE:
  A                                  Dm
------------------0-------0-------|-----------1-------1-------1-------|
----------2-----------------------|-------3-----3---3---3---3---3---3-|
------2-----2---2---2---2---2---2-|-----2---2-----2-------2-------2---|
----2---2-----2-------2-------2---|--0--------------------------------|
--0-------------------------------|-----------------------------------|
----------------------------------|-----------------------------------|

  G                                  C
------------------3-------3-------|------------------0-------0-------|
----------0-----------------------|----------1---------1-------1---1-|
------0-----0---0---0---0---0---0-|------0-----0---0-----0-------0---|
----0---0-----0-------0-------0---|----2---2-----2---------2---------|
----------------------------------|--3-------------------------------|
--3-------------------------------|----------------------------------|

  F                                  E
-------------------1---------------|------------------0-------0-------|
-----------1---------------1-------|----------0-----------------------|
-------2-----2---2---2---2---2---2-|------1-----1---1---1---1---1---1-|
-----3---3-----3-------3-------3---|----2---2-----2-------2-------2---|
-----------------------------------|----------------------------------|
--1--------------------------------|--0-------------------------------|


  A
------------------0---------------|------------------0---------------||
----------2---------------2-------|----------2---------------2-------||
------2-----2---2---2---2---2---2-|------2-----2---2---2---2---2---2-||
----2---2-----2-------2-------2---|----2---2-----2-------2-------2---||
--0-------------------------------|--0-------------------------------||
----------------------------------|----------------------------------||


    A                                 Dm
||------------------0--------------|-----------1-------1-------1-------|
||----------2-------------2--------|-------3-----3---3---3---3---3---0-|
||------2-----2---2---2-------2----|-----2---2-----2-------2-------2---|
||----2---2-----2-------2---2---2--|--0--------------------------------|
||--0------------------------------|-----------------------------------|
||---------------------------------|-----------------------------------|

  G                                  C
------------------3---------------|------------------0---------------|
----------0---------------0-------|----------1---------1-----1-------|
------0-----0---0---0---0---0---0-|------0-----0---0-----0-----0---0-|
----0---0-----0-------0-------0---|----2---2-----2---------2-----2---|
----------------------------------|--3-------------------------------|
--3-------------------------------|----------------------------------|

  F                                  E
-------------------1---------------|------------------0-----------------|
-----------1---------------1-------|----------0---------------(0)-------|
-------2-----2---2---2---2---2---2-|------1-----1---1---1---1-----1---1-|
-----3---3-----3-------3-------3---|----2---2-----2-------2---------2---|
-----------------------------------|------------------------------------|
--1--------------------------------|--0---------------------------------|

  A
------------------0---------------|------------------0------0-------|
----------2---------------2-------|----------2----------------2---3-|
------2-----2---2---2---2---2---2-|------2-----2---2---2------------|
----2---2-----2-------2-------2---|----2---2-----2-------2------2---|
--0-------------------------------|--0------------------------------|
----------------------------------|---------------------------------|

  Dm                         Dm
--------------1-----------|--------------1-----------|
--------3-----------3-----|--------3-----------3-----|
-----2-----2-----2-----2--|-----2-----2-----2-----2--|
--0-----------------------|--0-----------------------|
--------------------------|--------------------------|
--------------------------|--------------------------|

  Dsus2                                                   Asus4
-----------------0----------|--------------0-----------|----------------------0---------------|
-----------3--------3-------|--------3--------3--------|--------------3---------3-----3-------|
--------2-----2--------2----|-----2-----2--------2-----|----------2-----2---2-----2-----2---2-|
--0-------------------------|--0--------------------0--|--------2---2-----2---------2-----2---|
----------------------------|--------------------------|--0-----------------------------------|
----------------------------|--------------------------|--------------------------------------|

                                     A
------------------0---------------|------------------0-------0-------|-------------------||
----------3---------3-----3-------|----------2---------2-------2-----|--2----------------||
------2-----2---2-----2-----2---2-|------2-----2---2-----2-------2---|--2----------------||
----2---2-----2---------2-----2---|----2---2-----2---------2-------2-|--2----------------||
--0-------------------------------|--0-------------------------------|-------------------||
----------------------------------|----------------------------------|-------------------||
comments
print report bad tab
1 comment total.
+1 reply
booshki wrote on July 4 2013, 11:57 pm

Perfect tab.

I want to post or [tab]
guest
You may want to rate the tab now too:
select rating
Please do not post tabs as comments. Select "correction" instead!