Oops, an error
Loading. Please wait.

Unintended Tab

by Muse
ver3
ver3

Whole song

More versions @911Tabs.com
5,000 views 18 this week
no commentswrite comment
1 2 3 4 5
excellent!
x 4
Autoscroll
+/-
esc
set tempo
stop
Contributor
Difficulty
novice
WARNING: You are trying to view
                                    content from Ultimate-Guitar.com
                                    in an unauthorized application,
                                    which is prohibited.

                                    Please use an official Ultimate
                                    Guitar Tabs application for iPhone,
                                    iPad or Android to access legitimate
                                    chords, guitar, bass, and drum tabs
                                    from Ultimate-Guitar.com database.

                                    Type "ultimate guitar tabs" in Apple
                                    App Store's or Android Market's
                                    search to find the application.
Unintended
Muse

Intro

-----0-------------------------------0------------------|--------2--------------------2-------|
-----0---------------2-1-0-------0---0----------2-1-0---|----0-----0--------------0-----0-----|
-----1----1--------1-------2-0h1--------------1-------2-|------2-----2---2----------2-----2---|
---2----2--------2-----------------2--------2-----------|--1-----------1--------1-----------1-|
-------------0h2------------------------0h2-------------|2-----------------2--2---------------|
-0---------------------------0--------------------------|-------------------------------------|
 E                                                       B7


Verse 1

---------0-------|---------0-------|----------2-------|---------3-------|
-----0-----0-----|-----1-----1-----|-----3------3-----|-----3-----3-----|
-------1-----1---|-------2-----2---|---2---2------2---|-------0-----0---|
---2-----------2-|---2-----------2-|-0--------------0-|---0-----------0-|
-----------------|-0---------------|------------------|-----------------|
-0---------------|-----------------|------------------|-3---------------|
 E                 Am                D                 G5

---------0---------|---------2---------|---------0-------|----------0-------|
-----1-----1-------|-----0-----0-------|-----0-----0-----|------0-----0-----|
-------0-----0---0-|-------2-----2---2-|-------1-----1---|--------1-----1---|
---2-----------2---|---1-----------1---|---2-----------2-|---2------------2-|
-3-----------------|-2-----------------|-----------------|------------------|
-------------------|-------------------|-0---------------|-0----------------|
 C                   B7                  E                 E

---------0-------|---------0-------|---------2-------|---------3-------|
-----0-----0-----|-----1-----1-----|-----3-----3-----|-----3-----3-----|
-------1-----1---|-------2-----2---|---2---2-----2---|-------0-----0---|
---2-----------2-|---2-----------2-|-0-------------0-|---0-----------0-|
-----------------|-0---------------|-----------------|-----------------|
-0---------------|-----------------|-----------------|-3---------------|
 E                 Am                D                 G5

---------0---------|---------2---------|-----------0---------|----------0-------|
-----1-----1-------|-----0-----0-------|-------0-----0-------|------0-----0-----|
-------0-----0---0-|-------2-----2---2-|-----1---1-----1---1-|--------1-----1---|
---2-----------2---|---1-----------1---|---2-------------2---|---2------------2-|
-3-----------------|-2-----------------|---------------------|------------------|
-------------------|-------------------|-0-------------------|-0----------------|
 C                   B7                  E                     E


Chorus

---------0-------|---------0-------|---------2-------|---------3-------|
-----0-----0-----|-----1-----1-----|-----3-----3-----|-----3-----3-----|
-------1-----1---|-------2-----2---|---2---2-----2---|-------0-----0---|
---2-----------2-|---2-----------2-|-0-------------0-|---0-----------0-|
-----------------|-0---------------|-----------------|-----------------|
-0---------------|-----------------|-----------------|-3---------------|
 E                 Am                D                 G

---------0---------|---------2---------|-----------0---------|----------0-------|
-----1-----1-------|-----0-----0-------|-------0-----0-------|------0-----0-----|
-------0-----0---0-|-------2-----2---2-|-----1---1-----1---1-|--------1-----1---|
---2-----------2---|---1-----------1---|---2-------------2---|---2------------2-|
-3-----------------|-2-----------------|---------------------|------------------|
-------------------|-------------------|-0-------------------|-0----------------|
 C                   B7                  E                     E


Verse

---------0-------|---------0-------|----------2-------|---------3-------|
-----0-----0-----|-----1-----1-----|-----3------3-----|-----3-----3-----|
-------1-----1---|-------2-----2---|---2---2------2---|-------0-----0---|
---2-----------2-|---2-----------2-|-0--------------0-|---0-----------0-|
-----------------|-0---------------|------------------|-----------------|
-0---------------|-----------------|------------------|-3---------------|
 E                 Am                D                 G5

---------0---------|---------2---------|---------0-------|----------0-------|
-----1-----1-------|-----0-----0-------|-----0-----0-----|------0-----0-----|
-------0-----0---0-|-------2-----2---2-|-------1-----1---|--------1-----1---|
---2-----------2---|---1-----------1---|---2-----------2-|---2------------2-|
-3-----------------|-2-----------------|-----------------|------------------|
-------------------|-------------------|-0---------------|-0----------------|
 C                   B7                  E                 E

---------0-------|---------0-------|---------2-------|---------3-------|
-----0-----0-----|-----1-----1-----|-----3-----3-----|-----3-----3-----|
-------1-----1---|-------2-----2---|---2---2-----2---|-------0-----0---|
---2-----------2-|---2-----------2-|-0-------------0-|---0-----------0-|
-----------------|-0---------------|-----------------|-----------------|
-0---------------|-----------------|-----------------|-3---------------|
 E                 Am                D                 G5

---------0---------|---------2---------|---------0-------|---------|---------2-------|
-----1-----1-------|-----0-----0-------|-----0-----0-----|-----0---|-----------0-----|
-------0-----0---0-|-------2-----2---2-|-------1-----1---|-0-------|-----2-------2---|
---2-----------2---|---1-----------1---|---2-----------2-|---2---2-|---1---1-------1-|
-3-----------------|-2-----------------|-----------------|---------|-2---------------|
-------------------|-------------------|-0---------------|---------|-----------------|
 C                   B7                  E                 Em        B7


Chorus

---------0-------|---------0-------|---------2-------|---------3-------|
-----0-----0-----|-----1-----1-----|-----3-----3-----|-----3-----3-----|
-------1-----1---|-------2-----2---|---2---2-----2---|-------0-----0---|
---2-----------2-|---2-----------2-|-0-------------0-|---0-----------0-|
-----------------|-0---------------|-----------------|-----------------|
-0---------------|-----------------|-----------------|-3---------------|
 E                 Am                D                 G

---------0---------|---------2---------|-----------0---------|----------0-------|
-----1-----1-------|-----0-----0-------|-------0-----0-------|------0-----0-----|
-------0-----0---0-|-------2-----2---2-|-----1---1-----1---1-|--------1-----1---|
---2-----------2---|---1-----------1---|---2-------------2---|---2------------2-|
-3-----------------|-2-----------------|---------------------|------------------|
-------------------|-------------------|-0-------------------|-0----------------|
 C                   B7                  E                     E

---------0-------|---------0-------|---------2-------|---------3-------|
-----0-----0-----|-----1-----1-----|-----3-----3-----|-----3-----3-----|
-------1-----1---|-------2-----2---|---2---2-----2---|-------0-----0---|
---2-----------2-|---2-----------2-|-0-------------0-|---0-----------0-|
-----------------|-0---------------|-----------------|-----------------|
-0---------------|-----------------|-----------------|-3---------------|
 E                 Am                D                 G

---------0---------|---------2---------|-----------0---------|----------0-------|
-----1-----1-------|-----0-----0-------|-------0-----0-------|------0-----0-----|
-------0-----0---0-|-------2-----2---2-|-----1---1-----1---1-|--------1-----1---|
---2-----------2---|---1-----------1---|---2-------------2---|---2------------2-|
-3-----------------|-2-----------------|---------------------|------------------|
-------------------|-------------------|-0-------------------|-0----------------|
 C                   B7                  E                     E

---------0-------|---------0-------|---------0-------|---------0-------|
-----1-----1-----|-----1-----1-----|-----1-----1-----|-----0-----0-----|
-------2-----2---|-------2-----2---|-------2-----2---|-------------2---|
---2-----------2-|---2-----------2-|---2-----------2-|---2---2-------2-|
-0---------------|-----------------|-----------------|-----------------|
-----------------|-3---------------|-2---------------|-1---------------|
 Am                Am/G              Am/F#             Fmaj11

---------0-------|---------0-------|---------0-------|------|
-----0-----0-----|-----0-----0-----|-----------0-----|------|
-------2-----2---|-------2-----2---|-----1-------1---|------|
---2-----------2-|---2-----------2-|---2---2-------2-|------|
-----------------|-----------------|-----------------|------|
-0---------------|-0---------------|-0---------------|-0~---|
 Esus4             Esus4             E                 E
comments
print report bad tab
I want to post or [tab]
guest
You may want to rate the tab now too:
select rating
Please do not post tabs as comments. Select "correction" instead!