Oops, an error
Loading. Please wait.

Unnatural Selection Tab

by Muse
ver3
ver3

Intro

Whole song

Interactive

Video

More versions @911Tabs.com
14,880 views 75 this week
2 commentsread comments
1 2 3 4 5
excellent!
x 7
Autoscroll
+/-
esc
set tempo
stop
Difficulty
Tuning
advanced
D G C F A D
WARNING: You are trying to view
                                    content from Ultimate-Guitar.com
                                    in an unauthorized application,
                                    which is prohibited.

                                    Please use an official Ultimate
                                    Guitar Tabs application for iPhone,
                                    iPad or Android to access legitimate
                                    chords, guitar, bass, and drum tabs
                                    from Ultimate-Guitar.com database.

                                    Type "ultimate guitar tabs" in Apple
                                    App Store's or Android Market's
                                    search to find the application.
5.1 DTS intro:
e----------------------------------------------------------|
B----------------------------------------------------------|
G--------------------9-------------------------------------|
D---12b------13---9----9-----12b--11b-------11------11--12-|
A--------10-----------10---10-------------12------12-------|
D----------------------------------------------------------|

e-----------------------------------------------------------------|
B-----------------------------------------------------------------|
G-----------------------------------14-11-12-14b---11h12p11h12p11-|
D--11--12-14--11-12-14-11--12-------------------------------------|
A-----------------------------------------------------------------|
D-----------------------------------------------------------------|

e----------------------------------------------|
B------------------15----15--------------------|
G----------------------12----12--11--9--11--12-|
D----------------------------------------------|
A--13-12-10-9b---------------------------------|
D----------------------------------------------|


e|--------------------------------------------------------|
B|--------------------------------------------------------|
G|--------------------------------------------------------|
D|--------------------------------------------------------|
A|--------------------------------------------------8---8-|
D|5-5-5-5-5-5-5-5-5-5-5-5-5-5-5-5-5-5-5-5-5-5-5-5-5---5---|

e|-----------------------------------------------|
B|-----------------------------------------------|
G|-----------------------------------------------|
D|-----------------------------------------------|
A|------------------------6---6------------------|
D|5-5-5-5-5-5-5-5-5-5-5-5---5---5-5-5-5-5-5-5-5--|

e|-------------------|
B|-------------------|
G|-------------------|
D|-------3-4-----4-5-|
A|-------------------|
D|-3-0-3-----0-4-----|

Verse
e|------------------------------------------------------------------------|
B|------------------------------------------------------------------------|
G|------------------------------------------------------------------------|
D|------------------------------------------------------------3-4-----4-5-|
A|------------------------------------------------------------------------|
D|-5-5-5-5-5-5-5-5-8-5-8-9-10-8-10-11-11-12-0-0-0-0-0-0-3-0-3-----0-4-----|

E|----------------------------------------------------------------------|
B|-----------------------------3-3-6-6--4-4-4-4-4-4-4-4-4-4-4-4-4-4-4-4-|
G|----3-3-3-3-2-2-2-2-3-3-5-5---------------------------2-2-2-2-2-2-2-2-|
D|----------------------------------------------------------------------|
A|----------------------------------------------------------------------|
D|----------------------------------------------------------------------|

E|------------------------------------------------------------------|
B|-3-3-3-3-1-1-1-1-3-3-1-1------------------------------------------|
G|--------------------------3-3-2-2-3-3-3-3-3-3-3-3-2-2-2-2-2-2-2-2-|
D|------------------------------------------------------------------|
A|------------------------------------------------------------------|
D|------------------------------------------------------------------|

e|---------------------------------|
B|---------------------------------|
G|-3---3---3---3---2---2---2---2---|
D|---0---0---0---0---0---0---0---0-|
A|---------------------------------|
D|---------------------------------|

Chorus
E|---------------------------|
B|-------------4------4------|
G|-------------5------3------|
D|-5--5--------5------5------|
A|-5--5-(14x)--3-(8x)-3-(8x)-|
D|-5--5----------------------|

E|---------------------------|
B|---------------------------|
G|-------------3------2------|
D|-3--3--------3------3------|
A|-3--3-(14x)--1-(8x)-1-(8x)-|
D|-3--3----------------------|

E|-------------------------------------|
B|-------------------------------------|
G|-------------------------------------|
D|-1--------2--------3--------4------5-|
A|-x--------x--------x--------x------x-|
D|-1-(8x)---2-(8x)---3-(8x)---4-(8x)-5-|

e|----------------------------|
B|----------------------------|
G|------------------3/--------|
D|-1-1-1-1-3-3-3-3--3/---x----|
A|------------------1/---x----|
E|-1-1-1-1-3-3-3-3-------x-3b-|


Bridge
e|-----------------------------------|
B|---------------------------------8-|
G|--------------------------7----7---|
D|-----------------------------------|
A|-----------------------------------|
D|-5~~~~~~~~-------------------------|

-----------------|---------------|---------------|---------------|
-----------------|---------------|---------------|---------------|
--x--x-----------|---------------|---------------|---------------|
--x--x-----------|---------------|---------------|---------------|
--x--x-----------|---------------|--5------------|---------------|
-----------------|--5------------|---------------|--1------------|


---------------|---------------|----------------------|-------------------|
---------------|---------------|----------------------|-------------------|
---------------|---------------|----------------------|-------------------|
---------------|---------------|----------------------|-------------------|
--3------------|--5------------|--12--12br------------|--------10--9------|
---------------|---------------|----------------------|-------------------|


-----------------|---------------|---------------|---------------|
-----------------|---------------|---------------|---------------|
-----------------|---------------|---------------|---------------|
-----------------|---------------|---------------|---------------|
--15b------------|---------------|--5------------|---------------|
-----------------|--5------------|---------------|--1------------|


---------------|---------------|----------------------|-------------------|
---------------|---------------|----------------------|-------------------|
---------------|---------------|----------------------|-------------------|
---------------|---------------|----------------------|-------------------|
--3------------|--5------------|--12--12br------------|--------10--9------|
---------------|---------------|----------------------|-------------------|

-----------------|---------------|---------------|---------------|
-----------------|---------------|---------------|---------------|
-----------------|---------------|---------------|---------------|
-----------------|---------------|---------------|---------------|
--15b------------|---------------|---------------|---------------|
-----------------|---------------|---------------|---------------|


---------------|---------------|---------------|-----------------|
---------------|---------------|---------------|-----------------|
---------------|---------------|---------------|--12b------------|
---------------|---------------|---------------|-----------------|
---------------|---------------|---------------|-----------------|
---------------|---------------|---------------|-----------------|

----------------|-----------------|-----------------------|-----------------|
----------------|-----------------|-----------------------|-----------------|
--12------------|--12\------------|-----------------------|-----------------|
----------------|-----------------|-----------15--17--15--|--20b------------|
----------------|-----------------|-----------------------|-----------------|
----------------|-----------------|-----------------------|-----------------|

------------------------|--------------------|-----------------|
------------------------|--------------------|-----------------|
------------------------|--------------------|-----------------|
--20b----20--20b----20--|--20br------19------|--19s------------|
------------------------|--------------------|-----------------|
------------------------|--------------------|-----------------|

------------------------|--------------------------------------|
------------------------|--------------------------------------|
--------12------12------|--12------12-----12----12----12----12-|
--12--------12------12--|------12------12----12----12----12----|
------------------------|--------------------------------------|
------------------------|--------------------------------------|

--------------------------------------|
--------------------------------------|
-----12----12----12----12----12----12-|
--13----13----13----13----13----13----|
--------------------------------------|
--------------------------------------|

--------------------------------------|
--------------------------------------|
-----14----14----14----14----14----14-|
--13----13----13----13----13----13----|
--------------------------------------|
--------------------------------------|

----------------------------------------|
----------------------------------------|
-----15----15-15-15-15-15-15-15-15b-15b-|
--12----12-12-12-12-12-12-12-12-12b-12b-|
----------------------------------------|
----------------------------------------|


--------------------------------------------------|------------------------|
--------------------------------------------------|------------------------|
--15b-15b-15b-15b-15b-15b-15b-15b-15b-15b-15b-15b-|--15--12--14------------|
--12--12--12--12--12--12--12--12--12--12--12--12--|------------------------|
--------------------------------------------------|------------------------|
--------------------------------------------------|------------------------|


------------------|---------------|---------------|---------------|
------------------|---------------|---------------|---------------|
--17b-------------|---------------|---------------|---------------|
------------------|---------------|---------------|---------------|
------------------|---------------|--5------------|---------------|
------------------|--5------------|---------------|--1------------|


---------------|---------------|----------------------|-------------------|
---------------|---------------|----------------------|-------------------|
---------------|---------------|----------------------|-------------------|
---------------|---------------|----------------------|-------------------|
--3------------|--5------------|--12--12br------------|--------10--9------|
---------------|---------------|----------------------|-------------------|


-----------------|---------------|---------------|---------------|
-----------------|---------------|---------------|---------------|
-----------------|---------------|---------------|---------------|
-----------------|---------------|---------------|---------------|
--15b------------|---------------|--5------------|---------------|
-----------------|--5------------|---------------|--1------------|


---------------|---------------|----------------------|-------------------|
---------------|---------------|----------------------|-------------------|
---------------|---------------|----------------------|-------------------|
---------------|---------------|----------------------|-------------------|
--3------------|--5------------|--12--12br------------|--------10--9------|
---------------|---------------|----------------------|-------------------|

-----------------|---------------|---------------|
-----------------|---------------|---------------|
-----------------|---------------|---------------|
-----------------|---------------|---------------|
--15b------------|---------------|---------------|
-----------------|---------------|---------------|

It ends with
e|-------------------------------------------------|
B|-------------------------------------------------|
G|-------------------------------------------------|
D|-------------------------------------------------|
A|--------8--------7-----7-------6--------5-----5--|
D|--5--5-----5--5-----5-----5--5-----5--5-5---5-5--|


e|--------------------------|--------------------------|
B|--------------------------|--------------------------|
G|--------------------------|--------------------------|
D|--------8--------7-----7--|--------6--------5-----5--|
A|--------8--------7-----7--|--------6--------5-----5--|
D|--5--5-----5--5-----5-----|--5--5-----5--5--5--5--5--|
comments
print report bad tab
2 comments total.
0 reply
delta777 wrote on March 3 2011, 01:05 pm

there's a missing part at the end on the 5.1 intro

0 reply
9bieber_fever9 wrote on November 30 2011, 12:50 am

for the dts intro, I think this may sound better, mostly the scale run plus the omitted outro

e|-------------------------------------|
B|-------------------------------------|
G|--------------------9----------------|
D|---12-------13---9-------9---12br-11-|
A|--------10------------10-------------|
D|-------------------------------------|

e|-------------------------------------------|-------------------------------------|
B|-------------------------------------------|-------------------------------------|
G|-----------------------------11-12-14-14br-|--12h14p12h14p12p11-12-11-9----------|
D|-----11-12----11-12-11-12-14---------------|-------------------------------------|
A|--12-------12------------------------------|----------------------------12-10-9--|
D|-------------------------------------------|-------------------------------------|

e|---------------------------------------------------------|-----------------------|
B|--15-----15----------------------------12--10------------|-----------------------|
G|------12----12-11---9-11-12--9--12--9----------12--9--8--|-------------7b--------|
D|---------------------------------------------------------|------7b--5------------|
A|---------------------------------------------------------|--5--------------------|
D|---------------------------------------------------------|-----------------------|

I want to post or [tab]
guest
You may want to rate the tab now too:
select rating
Please do not post tabs as comments. Select "correction" instead!