Oops, an error
Loading. Please wait.

Uprising Tab

by Muse
ver10
305,642 views 705 this week
46 commentsread comments
1 2 3 4 5
excellent!
x 86
Autoscroll
+/-
esc
set tempo
stop
Contributor
Difficulty
Tuning
intermediate
D G D G B D
WARNING: You are trying to view
                                    content from Ultimate-Guitar.com
                                    in an unauthorized application,
                                    which is prohibited.

                                    Please use an official Ultimate
                                    Guitar Tabs application for iPhone,
                                    iPad or Android to access legitimate
                                    chords, guitar, bass, and drum tabs
                                    from Ultimate-Guitar.com database.

                                    Type "ultimate guitar tabs" in Apple
                                    App Store's or Android Market's
                                    search to find the application.
------------------------------------------------------------------------------
                             UPRISING - Muse
-------------------------------------------------------------------------------
Tabbed by: DB

Tuning: Open G6 Tuning (DGDGBE)
 
I finally got round to putting in a few corrections that I'd been meaning
to do for ages. 
I tabbed it in Open G6 tuning as this is how Matt plays it,
however as many people have pointed out, you can play it in drop D tuning
if you want (just move everything on the A string down two frets).
Any questions just leave me a message.

Enjoy!


INTRO Part 1
  
  Bass arr. for guitar
e|-----------------|-----------------|-----------------|-----------------|
B|-----------------|-----------------|-----------------|-----------------|
G|-----------------|-----------------|-----------------|-----------------|
D|-----------------|-----------------|-----------------|-----------------|
G|---7---7---7---7-|---7---7---7---7-|---7---7---7---7-|---7---7---7---7-|
D|-0---0---0---0---|-0---0---0---0---|-0---0---0---0---|-0---0---0---0---|

INTRO Part 2

e|-----------------|-----------------|-----------------|-----------------|
B|-----------------|-----------------|-----------------|-----------------|
G|-----------------|-----------------|-----------------|-----------------|
D|-----------------|-----------------|---5---5---5---5-|---3---3---3---3-|
G|---7---7---7---7-|---7---7---7---7-|-----------------|-----------------|
D|-0---0---0---0---|-0---0---0---0---|-5---5---5---5---|-3---3---3---3---|

Synth arr. for Guitar
e|-17--------------|-13--------------|-----------------|-----------------|
B|-----------------|-----------------|-----------------|-----------------|
G|-----------------|---------14------|-15---------17p15|-14--------------|
D|-----------------|-----------------|-----------------|-----------------|
G|-----------------|-----------------|-----------------|-----------------|
D|-----------------|-----------------|-----------------|-----------------|


e|-----------------|-----------------|-----------------|-----------------|
B|-----------------|-----------------|-----------------|-----------------|
G|-----------------|-----------------|-----------------|-----------6--6--|
D|---7---7---7---7-|---7---7---7---7-|---5---5---5---5-|---3---3---------|
G|-----------------|-----------------|-----------------|---------6---6---|
D|-7---7---7---7---|-7---7---7---7---|-5---5---5---5---|-3---3-----------|

e|-17-----12-------|-----------------|-18---------20p18|-17--------------|
B|-----------------|-14--------------|-----------------|-----------------|
G|-----------------|---------14------|-----------------|-----------------|
D|-----------------|-----------------|-----------------|-----------------|
G|-----------------|-----------------|-----------------|-----------------|
D|-----------------|-----------------|-----------------|-----------------|


e|-----------------|-----------------|-----------------|-----------------|
B|-----------------|-----------------|-----------------|-----------------|
G|-----------------|-----------------|-----------------|-----------------|
D|-----------------|-----------------|---5---5---5---5-|---3---3---6---6-|
G|---7---7---7---7-|---7---7---7---7-|-----------------|-----------------|
D|-0---0---0---0---|-0---0---0---0---|-5---5---5---5---|-3---3---6---6---|

e|-17--13----------|-----13--17------|-18---------17p15|-17--------------|
B|---------15------|-15----------15--|-----------------|-----------------|
G|-------------14--|-----------------|-----------------|-----------------|
D|-----------------|-----------------|-----------------|-----------------|
G|-----------------|-----------------|-----------------|-----------------|
D|-----------------|-----------------|-----------------|-----------------|


e|-----------------|-----------------|-----------------|-----------------|
B|-----------------|-----------------|-----------------|-----------------|
G|-----------------|-----------------|-----------------|-----------6--6--|
D|---7---7---7---7-|---7---7---7---7-|---5---5---5---5-|---3---3---------|
G|-----------------|-----------------|-----------------|---------6---6---|
D|-7---7---7---7---|-7---7---7---7---|-5---5---5---5---|-3---3-----------|

e|-17--12----------|-----12--17------|-15---------13p12|-13--------------|
B|---------14------|-14--------------|-----------------|-----------------|
G|-------------14--|-------------14--|-----------------|-----------------|
D|-----------------|-----------------|-----------------|-----------------|
G|-----------------|-----------------|-----------------|-----------------|
D|-----------------|-----------------|-----------------|-----------------|

Guitar With Distortion
e|-----------------|-----------------|-----------------|-----------------|
B|-----------------|-----------------|-----------------|----------15--15-|
G|-----------------|-----------------|-----------------|----------17b-17b|
D|-----------------|-----------------|-----------------|-----------------|
G|-----------------|-----------------|-----------------|-----------------|
D|-----------------|-----------------|-----------------|-----------------|


INTRO Part 3
e|-----------------|-----------------|-----------------|-----------------|
B|-----------------|-----------------|-----------------|-----------------|
G|-----------------|-----------------|-----------------|-----------------|
D|-----------------|-----------------|-----------------|-----------------|
G|---7---7---7---7-|---7---7---7---7-|---7---7---7---7-|---7---7---7---7-|
D|-0---0---0---0---|-0---0---0---0---|-0---0---0---0---|-0---0---0---0---|


VERSE
 
Bass continues playing 'INTRO Part 2'

Guitar x 2
Paranoia....
Another promise...
e|-----------------|-----------------|-----------------|-----------------|
B|-----------------|-----------------|-----------------|-----------------|
G|-----------------|-----------------|-----------------|-----------------|
D|-----------------|-----------------|-----------------|-----------------|
G|-----------------|-----------------|-----------------|-----------------|
D|-----------------|-----------------|-----------------|-----------------|

                                                            ...So Come on!
e|-----------------|-----------------|-----------------|-----------------|
B|-----------------|-----------------|-----------------|----------15--15-|
G|-----------------|-----------------|-----------------|----------17b-17b|
D|-----------------|-----------------|-----------------|-----------------|
G|-----------------|-----------------|-----------------|-----------------|
D|-----------------|-----------------|-----------------|-----------------|


CHORUS 1 - Repeat 'INTRO Part 2'


VERSE 2
 
Guitar enters as bass plays 'Intro Part 3'
                                     

e|-----------------|-----------------|-----------------|-----------------|
B|-----------------|-----------------|-----------------|-----------------|
G|-----------------|-----------------|-7-7-x-7-7-7-x-7-|-7-7-x-7-7-7-x-7-|
D|-----------------|-----------------|-----x-------x---|-----x-------x---|
G|-----------------|-----------------|-7-7-x-7-7-7-x-7-|-7-7-x-7-7-7-x-7-|
D|-----------------|-----------------|-----------------|-----------------|

       'Interchanging...'
e|-----------------|-----------------|-----------------|-----------------|
B|-----------------|-----------------|-----------------|-----------------|
G|-7-7-x-7-7-7-x-7-|-7-7-x-7-7-7-7-7-|-7-7-x-7-7-7-x-7-|-5-5-x-5-5-5-5-5-|
D|-----x-------x---|-----x-----------|-----x-------x---|-----x-----------|
G|-7-7-x-7-7-7-x-7-|-7-7-x-7-7-7-7-7-|-7-7-x-7-7-7-x-7-|-5-5-x-5-5-5-5-5-|
D|-----------------|-----------------|-----------------|-----------------|

e|-----------------|-----------------|-----------------|-------------------|
B|-----------------|-----------------|-----------------|-------------15-15-|
G|-6-6-x-6-6-6-x-6-|-6-6-x-6-6-6-6-6-|-7-7-x-7-7-7-x-7-|-7-7-x-7-7-7-17b17b|
D|-----x-------x---|-----x-----------|-----x-------x---|-----x-------------|
G|-6-6-x-6-6-6-x-6-|-6-6-x-6-6-6-6-6-|-7-7-x-7-7-7-x-7-|-7-7-x-7-7-7-------|
D|-----------------|-----------------|-----------------|-------------------|

e|-----------------|-----------------|-----------------|-----------------|
B|-----------------|-----------------|-----------------|-----------------|
G|-----x-7-7-7-x-7-|-7-7-x-7-7-7-7-7-|-7-7-x-7-7-7-x-7-|-5-5-x-5-5-5-5-5-|
D|-----x-------x---|-----x-----------|-----x-------x---|-----x-----------|
G|-----x-7-7-7-x-7-|-7-7-x-7-7-7-7-7-|-7-7-x-7-7-7-x-7-|-5-5-x-5-5-5-5-5-|
D|-----------------|-----------------|-----------------|-----------------|

e|-----------------|-----------------|-----------------|-------------------|
B|-----------------|-----------------|-----------------|-------------15-15-|
G|-6-6-x-6-6-6-x-6-|-6-6-x-6-6-6-6-6-|-7-7-x-7-7-7-x-7-|-7-7-x-7-7-7-17b17b|
D|-----x-------x---|-----x-----------|-----x-------x---|-----x-------------|
G|-6-6-x-6-6-6-x-6-|-6-6-x-6-6-6-6-6-|-7-7-x-7-7-7-x-7-|-7-7-x-7-7-7-------|
D|-----------------|-----------------|-----------------|-------------------|

e|-----------------|-----------------|-----------------|-----------------|
B|-----------------|-----------------|-----------------|-----------------|
G|-------7-7-7---7-|---7---7-7-7-----|-7-7---7-7-7---7-|---7---7-7-7-----|
D|-----------------|-----------------|-----------------|-----------------|
G|-------7-7-7---7-|---7---7-7-7-----|-7-7---7-7-7---7-|---7---7-7-7-----|
D|-----------------|-----------------|-----------------|-----------------|

CHORUS 2 


e|-5-5---5-5-5----5-|-5-5---5-5-5-5-5-|-6-6---6-6-6-6-6-|-5-5---5-5-5-5-5-|
B|-6-6---6-6-6----6-|-6-6---6-6-6-6-6-|-6-6---6-6-6-6-6-|-6-6---6-6-6-6-6-|
G|-7-7---7-7-7----7-|-7-7---7-7-7-7-7-|-7-7---7-7-7-7-7-|-5-5---5-5-5-5-5-|
D|-7-7---7-7-7----7-|-7-7---7-7-7-7-7-|-8-8---8-8-8-8-8-|-7-7---7-7-7-7-7-|
G|------------------|-----------------|-----------------|-----------------|
D|------------------|-----------------|-----------------|-----------------|

e|-5-5---5-5-5----5-|-5-5---5-5-5-5-5-|-6-6---6-6-6-6-6-|-5-5-------------|
B|-5-5---5-5-5----5-|-5-5---5-5-5-5-5-|-8-8---8-8-8-8-8-|-6-6---x-8-8-8-8-|
G|-6-6---6-6-6----6-|-6-6---6-6-6-6-6-|-7-7---7-7-7-7-7-|-5-5---x-6-6-6-6-|
D|-7-7---7-7-7----7-|-7-7---7-7-7-7-7-|-8-8---8-8-8-8-8-|-7-7---x-7-7-7-7-|
G|------------------|-----------------|-----------------|-----------------|
D|------------------|-----------------|-----------------|-----------------|

e|-5-5---5-5-5----5-|-5-5---5-5-5-5-5-|-6-6---6-6-6-6-6-|-5-5-----7-7-7-7-|
B|-6-6---6-6-6----6-|-6-6---6-6-6-6-6-|-6-6---6-6-6-6-6-|-6-6---x-6-6-6-6-|
G|-7-7---7-7-7----7-|-7-7---7-7-7-7-7-|-7-7---7-7-7-7-7-|-5-5---x-7-7-7-7-|
D|-7-7---7-7-7----7-|-7-7---7-7-7-7-7-|-8-8---8-8-8-8-8-|-7-7---x-6-6-6-6-|
G|------------------|-----------------|-----------------|-----------------|
D|------------------|-----------------|-----------------|-----------------|

e|-5-5---5-5-5----5-|-5-5---5-5-5-5-5-|-6-6---6-6-6-6-6-|-5-5---------------|
B|-5-5---5-5-5----5-|-5-5---5-5-5-5-5-|-8-8---8-8-8-8-8-|-6-6---x-8-8-15-15-|
G|-6-6---6-6-6----6-|-6-6---6-6-6-6-6-|-7-7---7-7-7-7-7-|-5-5---x-6-6-17b17b|
D|-7-7---7-7-7----7-|-7-7---7-7-7-7-7-|-8-8---8-8-8-8-8-|-7-7---x-7-7-------|
G|------------------|-----------------|-----------------|-------------------|
D|------------------|-----------------|-----------------|-------------------|


Bass plays 'INTRO Part 3' before SOLO begins

SOLO x 3


e|---------------------|---------------------|---------------------|---------------------|
B|---------------------|---------------------|---------------------|---------------------|
G|---------------------|---------------------|---------------------|---------------------|
D|---------------------|---------------------|---------------------|---------------------|
G|---------------5h6h7-|---------------5h6h7-|---------------5h6h7-|---------------5h6h7-|
D|-0---3---5h6h7-------|-0---3---5h6h7-------|-0---3---5h6h7-------|-0---3---5h6h7-------|

e|-------------------------|----------------------------|-----------------------|
B|-10-10----10----10----10-|----10----10----10----------|----11\10--11\10-----10|
G|-------13----12----10----|----------------------------|-----------------------|
D|-------------------------|-14----12----11-------------|-----8\7----8\7-------7|
G|-------------------------|-------------------14\------|-----------------------|
D|-------------------------|----------------------------|-----------------------|

--------------------|
---10----8/10---15--|
----------------17b-|
---7-----5/7--------|
--------------------|
--------------------|

After the 3rd time
e|-----------------|-------------------------------------------------|
B|-15--15--15--15--|-15-15-15---15-15-15---15-15-15---15-15-15-------|
G|-17b-17b-17b-17b-|-17b17b17b--17b17b17b--17b17b17b--17b17b17b------|
D|-----------------|-------------------------------------------------|
G|-----------------|-------------------------------------------------|
D|-----------------|-------------------------------------------------|
                     [   3   ]  [   3   ]  [   3   ]  [   3   ]


CHORUS 3 - Repeat CHORUS 2


OUTRO

Part 1
e|-----------------|-----------------|
B|-----------------|-----------------|
G|-----------------|-----------------|
D|-----------------|-----------------|
G|---7---7---7---7-|---7---7---7---7-|
D|-0---0---0---0---|-0---0---0---0---|


OUTRO Part 2 - Synth Enters

e|-----------------|-----------------|-----------------|-----------------|
B|-----------------|-----------------|-----------------|-----------------|
G|-----------------|-----------------|-----------------|-----------------|
D|-----------------|-----------------|---5---5---5---5-|---3---3---6---6-|
G|---7---7---7---7-|---7---7---7---7-|-----------------|-----------------|
D|-0---0---0---0---|-0---0---0---0---|-5---5---5---5---|-3---3---6---6---|

Synth
e|-17--13----------|-----13--17------|-18---------17p15|-17--------------|
B|---------15------|-15----------15--|-----------------|-----------------|
G|-------------14--|-----------------|-----------------|-----------------|
D|-----------------|-----------------|-----------------|-----------------|
G|-----------------|-----------------|-----------------|-----------------|
D|-----------------|-----------------|-----------------|-----------------|

e|-----------------|-----------------|-----------------|-----------------|
B|-----------------|-----------------|-----------------|-----------------|
G|-----------------|-----------------|-----------------|-----------6--6--|
D|---7---7---7---7-|---7---7---7---7-|---5---5---5---5-|---3---3---------|
G|-----------------|-----------------|-----------------|---------6---6---|
D|-7---7---7---7---|-7---7---7---7---|-5---5---5---5---|-3---3-----------|

e|-17--12----------|-----12--17------|-15---------13p12|-13--------------|
B|---------14------|-14--------------|-----------------|-----------------|
G|-------------14--|-------------14--|-----------------|-----------------|
D|-----------------|-----------------|-----------------|-----------------|
G|-----------------|-----------------|-----------------|-----------------|
D|-----------------|-----------------|-----------------|-----------------|

Guitar
e|-----------------|-----------------|-----------------|-----------------|
B|-----------------|-----------------|-----------------|----------15--15-|
G|-----------------|-----------------|-----------------|----------17b-17b|
D|-----------------|-----------------|-----------------|-----------------|
G|-----------------|-----------------|-----------------|-----------------|
D|-----------------|-----------------|-----------------|-----------------|

OUTRO Part 3

e|-----------------|-----------------|-----------------|-----------------|
B|-----------------|-----------------|-----------------|-----------------|
G|-----------------|-----------------|-----------------|-----------------|
D|-----------------|-----------------|-----------------|-----------------|
G|---7---7---7---7-|---7---7---7---7-|---7---7---7---7-|---7---7---7---7-|
D|-0---0---0---0---|-0---0---0---0---|-0---0---0---0---|-0---0---0---0---|

e|-----------------|-----------------|-----------------|-----------------|
B|-----------------|-----------------|-----------------|-----------------|
G|-----------------|-----------------|-----------------|-----------------|
D|-----------------|-----------------|-----------------|-----------------|
G|-7\--------------|-----------------|-----------------|-----------------|
D|-----------------|-----------------|-----------------|-----------------|

Enjoy!

INTRO
VERSE 1
CHORUS 1
VERSE 2
CHORUS 2
SOLO
CHORUS 3
OUTRO
46 comments total. Showing first comments. show 2 bad comments
+3 reply
DavyB wrote on October 1 2009, 10:21 am

hey, I've watched those videos. I used the 'making of' video to tab it mainly, but I'm sure he plays octaves in the verses personally!

I want to post or [tab]
guest
You may want to rate the tab now too:
select rating
Please do not post tabs as comments. Select "correction" instead!