Oops, an error
Loading. Please wait.

Uprising Bass Tab

by Muse
ver4
37,055 views 36 this week
7 commentsread comments
1 2 3 4 5
accurate
x 8
Autoscroll
+/-
esc
set tempo
stop
Contributor
Difficulty
novice
Hey! There's an official Ultimate Guitar app which is ideal
for learning songs when you're away from computer. Get the app
WARNING: You are trying to view
                                    content from Ultimate-Guitar.com
                                    in an unauthorized application,
                                    which is prohibited.

                                    Please use an official Ultimate
                                    Guitar Tabs application for iPhone,
                                    iPad or Android to access legitimate
                                    chords, guitar, bass, and drum tabs
                                    from Ultimate-Guitar.com database.

                                    Type "ultimate guitar tabs" in Apple
                                    App Store's or Android Market's
                                    search to find the application.
 -----------------------------------------------------------------------
|  Please comment/rate if you visit or use this tab, thanks! Have fun!  |
|  (Originally posted by Jwv_ at www.ultimate-guitar.com)               |
 -----------------------------------------------------------------------

Ok, updated 17 november. 
I changed the solo and also re-structured the song.
I also wrote the exact timing [0:00] next to each part, for lyrics scroll down.

Now I'm 99% sure this is what Chris plays on the studio version.
If you notice any stupid mistakes, just PM!

I hope you enjoy playing this masterpiece!

Standard tuning
Key:
/ - slide up
\ - slide down

 ------------------------------------------------------------------------
|-> IMPORTANT NOTE:                                                    <-|
|-> All the Verses and Choruses in the song are played like Verse # 1! <-|
 ------------------------------------------------------------------------

Intro # 1 [0:01]                             x2
G|-----|----7---7---7---7-|---7---7---7---7--||
D|-----|o-----------------|-----------------o||
A|-1/--|o-5---5---5---5---|-5---5---5---5---o||
E|-----|------------------|------------------||

Intro # 2 (x2) [0:10]
G|---7---7---7---7-|---7---7---7---7-|
D|-----------------|-----------------|
A|-5---5---5---5---|-5---5---5---5---|
E|-----------------|-----------------|

G|----12----12----12----12-|---10---10---10---10-|   \
D|-------------------------|---------------------|   | play the
A|-10----10----10----10----|-8----8----8----8----|   | first time
E|-------------------------|---------------------|   /
                                                       alternate
G|----12----12----12----12-|---10---10----13----13-| \
D|-------------------------|-----------------------| | play the
A|-10----10----10----10----|-8----8----11----11----| | second time
E|-------------------------|-----------------------| /

G|----14----14----14----14-|----14----14----14----14-|
D|-------------------------|-------------------------|
A|-12----12----12----12----|-12----12----12----12----|
E|-------------------------|-------------------------|

G|----12----12----12----12-|---10---10---6---6-|
D|-------------------------|-------------------|
A|-10----10----10----10----|-8----8----4---4---|
E|-------------------------|-------------------|

Bridge (x2)
G|---7---7---7---7-|---7---7---7---7-|
D|-----------------|-----------------|
A|-5---5---5---5---|-5---5---5---5---|
E|-----------------|-----------------|

Verse # 1 (x2) [0:47]
G|---7---7---7---7-|---7---7---7---7-|
D|-----------------|-----------------|
A|-5---5---5---5---|-5---5---5---5---|
E|-----------------|-----------------|

G|----12----12----12----12-|---10---10---10---10-|   \
D|-------------------------|---------------------|   | play the
A|-10----10----10----10----|-8----8----8----8----|   | first time
E|-------------------------|---------------------|   /
                                                       alternate
G|----12----12----12----12-|---10---10----13----13-| \
D|-------------------------|-----------------------| | play the
A|-10----10----10----10----|-8----8----11----11----| | second time
E|-------------------------|-----------------------| /

G|----14----14----14----14-|----14----14----14----14-|
D|-------------------------|-------------------------|
A|-12----12----12----12----|-12----12----12----12----|
E|-------------------------|-------------------------|

G|----12----12----12----12-|---10---10---6---6-|
D|-------------------------|-------------------|
A|-10----10----10----10----|-8----8----4---4---|
E|-------------------------|-------------------|

Bridge (x2)

Chorus # 1 (x2) [1:25]
Bridge (x2)

Verse # 2 (x2) [2:02]
Bridge (x2)

Chorus # 2 (x2) [2:29]
Bridge (x2)

Solo (x3) [3:17]
G|---7---7---7---7-|---7---7---7---7-|
D|-----------------|-----------------|
A|-5---5---5---5---|-5---5---5---5---|
E|-----------------|-----------------|

G|----12----12----12----12-|---10---10---10---10-|   \
D|-------------------------|---------------------|   | first & second
A|-10----10----10----10----|-8----8----8----8----|   | time play this
E|-------------------------|---------------------|   /
                                                       alternate
G|----12----12----12----12-|---10---10----13----13-| \
D|-------------------------|-----------------------| | play this the
A|-10----10----10----10----|-8----8----11----11----| | third time ONLY
E|-------------------------|-----------------------| /

G|----14----14----14----14-|----14----14----14----14-|
D|-------------------------|-------------------------|
A|-12----12----12----12----|-12----12----12----12----|
E|-------------------------|-------------------------|

G|----12----12----12----12-|---10---10---6---6-|
D|-------------------------|-------------------|
A|-10----10----10----10----|-8----8----4---4---|
E|-------------------------|-------------------|

G|-------------------------------------|-------------------------------------| \
D|-12-12-12-12-12-12-12-12-12-12-12-12-|-10-12-12-10-12-12-12-10----10-------| | play this the 
A|-------------------------------------|-------------------------12----12-10-| | third time ONLY
E|-------------------------------------|-------------------------------------| /

Chorus # 3 (x2) [4:06]
Bridge (x2)

Outro [4:43]
G|---7---7---7---7-|---7---7---7---7-|
D|-----------------|-----------------|
A|-5---5---5---5---|-5---5---5---5---|
E|-----------------|-----------------|

G|----12----12----12----12-|---10---10----13----13-|
D|-------------------------|-----------------------|
A|-10----10----10----10----|-8----8----11----11----|
E|-------------------------|-----------------------|

G|----14----14----14----14-|----14----14----14----14-|
D|-------------------------|-------------------------|
A|-12----12----12----12----|-12----12----12----12----|
E|-------------------------|-------------------------|

G|----12----12----12----12-|---10---10---6---6-|
D|-------------------------|-------------------|
A|-10----10----10----10----|-8----8----4---4---|
E|-------------------------|-------------------|
                                       x2
G|----7---7---7---7-|---7---7---7---7--||-----|
D|o-----------------|-----------------o||-----|
A|o-5---5---5---5---|-5---5---5---5---o||-5\--|
E|------------------|------------------||-----|

-----

Here are the lyrics:

Paranoia is in bloom, 
The PR transmissions will resume, 
They'll try to push drugs that keep us all dumbed down, 
And hope that we will never see the truth around
(So come on)
Another promise, another scene, 
Another packaged lie to keep us trapped in greed, 
And all the green belts wrapped around our minds, 
And endless red tape to keep the truth confined
(So come on)

They will not force us, 
They will stop degrading us, 
They will not control us, 
We will be victorious
(So come on)

Interchanging mind control, 
Come let the revolution take it's toll, 
If you could flick a switch and open your third eye, 
You'd see that
We should never be afraid to die
(So come on)

Rise up and take the power back, 
It's time the fat cats had a heart attack, 
You know that their time's coming to an end, 
We have to unify and watch our flag ascend

They will not force us, 
They will stop degrading us, 
They will not control us, 
We will be victorious
So come on

They will not force us, 
They will stop degrading us, 
They will not control us, 
We will be victorious
comments
print report bad tab
7 comments total. Showing first comments.
+1 reply
DavyB wrote on October 9 2009, 03:21 pm

hey, everything's spot on, except you've not included the wee bass lick just after the solo before going into the last chorus

0 reply
Jwv_ wrote on October 9 2009, 05:15 pm

Hi, yea sorry about that, I haven't figured it out yet.

+1 reply
pinkpank98 wrote on October 22 2009, 04:53 pm

dude nice tab

I want to post or [tab]
guest
You may want to rate the tab now too:
select rating
Please do not post tabs as comments. Select "correction" instead!