Oops, an error
Loading. Please wait.

Uprising Tab

by Muse
15,029 views 3 this week
no commentswrite comment
1 2 3 4 5
not so good
x 3
add to favorites launch autoscroll
font size
0
reset
Autoscroll
+/-
esc
set tempo
stop
Contributor
WARNING: You are trying to view
                                    content from Ultimate-Guitar.com
                                    in an unauthorized application,
                                    which is prohibited.

                                    Please use an official Ultimate
                                    Guitar Tabs application for iPhone,
                                    iPad or Android to access legitimate
                                    chords, guitar, bass, and drum tabs
                                    from Ultimate-Guitar.com database.

                                    Type "ultimate guitar tabs" in Apple
                                    App Store's or Android Market's
                                    search to find the application.
Fantastic new song by Muse from the album The Resistance. This is just the intro so far, 
I'm working on the rest of the song, will update once done. Not sure on the timings but 
can work them out for yourself.

Opening Synth/Chorus

E||--17----|------------|-------------------------|--17-------------------|
B||------- |--18---10---|--11----13p-11-10--------|-------17-----14----10-|
G||--------|------------|-------------------------|-----------------------|
D||--------|------------|-------------------------|-----------------------|
A||--------|------------|-------------------------|-----------------------|
D||--------|------------|-------------------------|-----------------------|


--18----|--20p-18-17-----17--------------|--------------17----------|
--------|--------------------18--15--10--|--15----18----------15----|
--------|--------------------------------|--------------------------|
--------|--------------------------------|--------------------------|
--------|--------------------------------|--------------------------|
--------|--------------------------------|--------------------------|


|--18p-15-17---|---17------------------------17-------15-------15p--12--13-|
|--------------|------17--14--10---11---17-------11------------------------|
|--------------|-----------------------------------------------------------|
|--------------|-----------------------------------------------------------|
|--------------|-----------------------------------------------------------|
|--------------|-----------------------------------------------------------|

Guitar Bending Into Verse:

e------------------||
B----15----15------||
G----17^---17^-----||
D------------------||
A------------------||
D------------------||


Verse:

e-------|------|-----|------|
B-------|------|-----|------|
G----7--|---5--|--6--|---7--|
D----x--|---x--|--x--|---x--|   Not sure on the rhythm, but you can make ur
A----5--|---3--|--4--|---5--|       own and it'll sound OK. Play this then
D-------|------|-----|------|           the guitar bend riff.


Solo

e-------------------------||
B-------------------------||
G-------------------------||  X3 Then
D-------------------------||
A------------------3h4h5--||
D---0--3--0-3h4h5---------||

e-----------------------------------------------------|------------|
B----10----10----10----10----10----10-----10----------|--15---15---|
G-------14----13----12----10--------------------------|--17^--17^--|
D-------------------------------14----12-----11-------|------------|
A-----------------------------------------------------|------------|
D--------------------------------------------------20\|------------|

Play the whole solo 3 times then play then do.

e--------------------------------------------------||
B----15----15----15----15----15----15----15----15--||
G----17^---17^---17^---17^---17^---17^---17^---17^-||
D--------------------------------------------------||
A--------------------------------------------------||
D--------------------------------------------------||

Structure:

Opening Synth
(Verse 1: PLAY NOTHING!)
Chorus
Verse
Chorus
Solo
Chorus

I improvise and play the verse again after the last chorus into the outro.

Lyrics:

The paranoia is in bloom, the PR
The transmissions will resume
They'll try to push drugs
Keep us all dumbed down and hope that
We will never see the truth around

Another promise, another scene, another
A package not to keep us trapped in greed
With all the green belts wrapped around our minds
And endless red tape to keep the truth confined

They will not force us
They will stop degrading us
They will not control us
We will be victorious

Interchanging mind control
Come let the revolution take it's toll if you could
Flick the switch and open your third eye, you'd see that
We should never be afraid to die

Rise up and take the power back, it's time that
The fat cats had a heart attack, you know that
Their time is coming to an end
We have to unify and watch our flag ascend

They will not force us
They will stop degrading us
They will not control us
We will be victorious

They will not force us
They will stop degrading us
They will not control us
We will be victorious


Duration Legend
---------------
W - whole
H - half
Q - quarter
E - 8th
S - 16th
T - 32nd
X - 64th
. - note dotted
|-n-|  - n-tuplets


Tablature Legend
----------------
L - tied note
x - dead note
g - grace note
(n) - ghost note
> - accentuded note
NH - natural harmonic
AH - artificial harmonic
TH - tapped harmonic
SH - semi harmonic
PH - pitch harmonic
h - hammer on
p - pull off
b - bend
br - bendRelease
pb - preBend
pbr - preBendRelease
brb - bendReleaseBend
\n/ - tremolo bar dip
\n - tremolo bar dive
-/n - tremolo bar Release up
/n\ - tremolo bar inverted dip
/n - tremolo bar return
-\n - tremolo bar Release down
S - shift slide
s - legato slide
/ -  slide into from below or out of upwards
\ -  slide into from above or out of downwards
~ - vibrato
W - wide vibrato
tr - trill
TP - tremolo picking
T - tapping
S - slap
P - pop
< - fade in
^ - brush up
v - brush down
comments
We did not receive enough feedback on this tab! Please rate:
print report bad tab
1 2 3 4 5
I want to post or [tab]
guest
You may want to rate the tab now too:
select rating
Please do not post tabs as comments. Select "correction" instead!