Oops, an error
Loading. Please wait.

Uprising Tab

by Muse
116,005 views 45 this week
14 commentsread comments
1 2 3 4 5
accurate
x 37
Autoscroll
+/-
esc
set tempo
stop
Contributor
Difficulty
Tuning
intermediate
D A D G B E
WARNING: You are trying to view
                                    content from Ultimate-Guitar.com
                                    in an unauthorized application,
                                    which is prohibited.

                                    Please use an official Ultimate
                                    Guitar Tabs application for iPhone,
                                    iPad or Android to access legitimate
                                    chords, guitar, bass, and drum tabs
                                    from Ultimate-Guitar.com database.

                                    Type "ultimate guitar tabs" in Apple
                                    App Store's or Android Market's
                                    search to find the application.
-------------------------------------------------------------------------------
                             UPRISING - Muse
-------------------------------------------------------------------------------
Tabbed by: JayBowls611
Email: JorgeyPorgieBoy@yahoo.com

Tuning: Dropped D
Effect: Fuzzy Muff

Intro
e||-------------|------------|------------|------------|
B||-------------|------------|------------|------------|
G||o------------|------------|------------|------------|
D||---0--0--0--0|--0--0--0--0|--0--0--0--0|--0--0--0--0|
A||o------------|------------|------------|------------|
D||-0--0--0--0--|0--0--0--0--|0--0--0--0--|0--0--0--0--|
   (For synthesizer on Guitar, go to the bottom)
e|------------|------------|------------|------------|
B|------------|------------|------------|------------|
G|------------|------------|------------|------------|
D|--0--0--0--0|--0--0--0--0|--5--5--5--5|--3--3--3--3|
A|------------|------------|------------|------------|
D|0--0--0--0--|0--0--0--0--|5--5--5--5--|3--3--3--3--|

e|------------|------------|------------|------------|
B|------------|------------|------------|------------|
G|------------|------------|------------|------------|
D|--7--7--7--7|--7--7--7--7|--5--5--5--5|--3--3--0--0|
A|------------|------------|------------|------------|
D|7--7--7--7--|7--7--7--7--|5--5--5--5--|3--3--0--0--|
                                               ^Whammy bar 1/2 step down
e|------------|------------|------------|------------|
B|------------|------------|------------|------------|
G|------------|------------|------------|------------|
D|--0--0--0--0|--0--0--0--0|--5--5--5--5|--3--3--6--6|
A|------------|------------|------------|------------|
D|0--0--0--0--|0--0--0--0--|5--5--5--5--|3--3--6--6--|

e|------------|------------|------------|--------------|
B|------------|------------|------------|-------15--15-|
G|------------|------------|------------|-------17b-17b|
D|--7--7--7--7|--7--7--7--7|--5--5--5--5|--3--3--------|
A|------------|------------|------------|--------------|
D|7--7--7--7--|7--7--7--7--|5--5--5--5--|3--3----------|
                                               
Verse
e|------------|------------|------------|------------|
B|------------|------------|------------|------------|
G|------------|------------|------------|------------|
D|--0--0--0--0|--0--0--0--0|--0--0--0--0|--0--0--0--0|
A|------------|------------|------------|------------|
D|0--0--0--0--|0--0--0--0--|0--0--0--0--|0--0--0--0--|
 
e|------------|------------|------------|------------|
B|------------|------------|------------|------------|
G|------------|------------|------------|------------|
D|--0--0--0--0|--0--0--0--0|--5--5--5--5|--3--3--3--3|
A|------------|------------|------------|------------|
D|0--0--0--0--|0--0--0--0--|5--5--5--5--|3--3--3--3--|

e|------------|------------|------------|--------------|
B|------------|------------|------------|-------15--15-|
G|------------|------------|------------|-------17b-17b|
D|--7--7--7--7|--7--7--7--7|--5--5--5--5|--3--3--------|
A|------------|------------|------------|--------------|
D|7--7--7--7--|7--7--7--7--|5--5--5--5--|3--3----------|

e|------------|------------|------------|------------|
B|------------|------------|------------|------------|
G|------------|------------|------------|------------|
D|--0--0--0--0|--0--0--0--0|--5--5--5--5|--3--3--6--6|
A|------------|------------|------------|------------|
D|0--0--0--0--|0--0--0--0--|5--5--5--5--|3--3--6--6--|

e|------------|------------|------------|--------------|
B|------------|------------|------------|-------15--15-|
G|------------|------------|------------|-------17b-17b|
D|--7--7--7--7|--7--7--7--7|--5--5--5--5|--3--3--------|
A|------------|------------|------------|--------------|
D|7--7--7--7--|7--7--7--7--|5--5--5--5--|3--3----------|

Chorus
e|------------|------------|------------|------------|
B|------------|------------|------------|------------|
G|------------|------------|------------|------------|
D|--0--0--0--0|--0--0--0--0|--0--0--0--0|--0--0--0--0|
A|------------|------------|------------|------------|
D|0--0--0--0--|0--0--0--0--|0--0--0--0--|0--0--0--0--|
 
e|------------|------------|------------|------------|
B|------------|------------|------------|------------|
G|------------|------------|------------|------------|
D|--0--0--0--0|--0--0--0--0|--5--5--5--5|--3--3--3--3|
A|------------|------------|------------|------------|
D|0--0--0--0--|0--0--0--0--|5--5--5--5--|3--3--3--3--|

e|------------|------------|------------|------------|
B|------------|------------|------------|------------|
G|------------|------------|------------|------------|
D|--7--7--7--7|--7--7--7--7|--5--5--5--5|--3--3--0--0|
A|------------|------------|------------|------------|
D|7--7--7--7--|7--7--7--7--|5--5--5--5--|3--3--0--0--|
                                               ^Whammy bar 1/2 step down
e|------------|------------|------------|------------|
B|------------|------------|------------|------------|
G|------------|------------|------------|------------|
D|--0--0--0--0|--0--0--0--0|--5--5--5--5|--3--3--6--6|
A|------------|------------|------------|------------|
D|0--0--0--0--|0--0--0--0--|5--5--5--5--|3--3--6--6--|

e|------------|------------|------------|--------------|
B|------------|------------|------------|-------15--15-|
G|------------|------------|------------|-------17b-17b|
D|--7--7--7--7|--7--7--7--7|--5--5--5--5|--3--3--------|
A|------------|------------|------------|--------------|
D|7--7--7--7--|7--7--7--7--|5--5--5--5--|3--3----------|
                                               
Verse
e|------------|------------|------------|------------|
B|------------|------------|------------|------------|
G|------------|------------|7-7--77-7--7|7-7--77-7--7|
D|------------|------------|------------|------------|
A|------------|------------|5-5--55-5--5|5-5--55-5--5|
D|------------|------------|------------|------------|
                            ^Build up volume 
e|------------|------------|------------|------------|
B|------------|------------|------------|------------|
G|7-7--77-7--7|7-7--77-77-7|7-7--77-7--7|5-5--55-55-5|
D|------------|------------|------------|------------|
A|5-5--55-5--5|5-5--55-55-5|5-5--55-5--5|3-3--33-33-3|
D|------------|------------|------------|------------|

e|------------|------------|------------|---------------|
B|------------|------------|------------|--------15--15-|
G|6-6--66-6--6|6-6--66-66-6|7-7--77-7--7|7-7--77-17b-17b|
D|------------|------------|------------|---------------|
A|4-4--44-4--4|4-4--44-44-4|5-5--55-5--5|5-5--55--------|
D|------------|------------|------------|---------------|

e|------------|------------|------------|------------|
B|------------|------------|------------|------------|
G|7-7--77-7--7|7-7--77-77-7|7-7--77-7--7|5-5--55-55-5|
D|------------|------------|------------|------------|
A|5-5--55-5--5|5-5--55-55-5|5-5--55-5--5|3-3--33-33-3|
D|------------|------------|------------|------------|

e|------------|------------|------------|---------------|
B|------------|------------|------------|--------15--15-|
G|6-6--66-6--6|6-6--66-66-6|7-7--77-7--7|7-7--77-17b-17b|
D|------------|------------|------------|---------------|
A|4-4--44-4--4|4-4--44-44-4|5-5--55-5--5|5-5--55--------|
D|------------|------------|------------|---------------|
                                   
Chorus
e|------------|------------|------------|------------|
B|------------|------------|------------|------------|
G|7-7--77-7--7|--7--77-7--7|7-7--77-7--7|--7--77-7--7|
D|------------|------------|------------|------------|
A|5-5--55-5--5|--5--55-5--5|5-5--55-5--5|--5--55-5--5|
D|------------|------------|------------|------------|
                             
e|------------|------------|------------|------------|
B|------------|------------|------------|------------|
G|7-7--77-7--7|7-7--77-77-7|7-7--77-7--7|5-5--55-55-5|
D|------------|------------|------------|------------|
A|5-5--55-5--5|5-5--55-55-5|5-5--55-5--5|3-3--33-33-3|
D|------------|------------|------------|------------|

e|------------|------------|------------|------------|
B|------------|------------|------------|------------|
G|6-6--66-6--6|6-6--66-66-6|7-7--77-7--7|7-7--66-66-7|
D|------------|------------|------------|------------|
A|4-4--44-4--4|4-4--44-44-4|5-5--55-5--5|5-5--44-44-5|
D|------------|------------|------------|------------|

e|------------|------------|------------|------------|
B|------------|------------|------------|------------|
G|7-7--77-7--7|7-7--77-77-7|7-7--77-7--7|5-5--55-55-5|
D|------------|------------|------------|------------|
A|5-5--55-5--5|5-5--55-55-5|5-5--55-5--5|3-3--33-33-3|
D|------------|------------|------------|------------|

e|------------|------------|------------|---------------|
B|------------|------------|------------|--------15--15-|
G|6-6--66-6--6|6-6--66-66-6|7-7--77-7--7|7-7--77-17b-17b|
D|------------|------------|------------|---------------|
A|4-4--44-4--4|4-4--44-44-4|5-5--55-5--5|5-5--55--------|
D|------------|------------|------------|---------------|
        
Solo 
e|------------|------------|------------|------------|
B|------------|------------|------------|------------|
G|------------|------------|------------|------------|
D|------------|------------|------------|------------|
A|------------|------------|------------|------------|
D|------------|------------|------------|------------|
 
e|----------------|----------------|----------------|----------------|
B|----------------|----------------|----------------|----------------|
G|----------------|----------------|----------------|----------------|
D|----------------|----------------|----------------|----------------|
A|-----------3h4h5|-----------3h4h5|-----------3h4h5|-----------3h4h5|
D|0--3--5h6h7-----|0--3--5h6h7-----|0--3--5h6h7-----|0--3--5h6h7-----|

e|---------------------|---------------------|------------------------|--------------------------|
B|----10---10---10---10|----10---10---10---10|------------------------|-------------------15--15-|
G|/14---13---12---10---|---------------------|------------------------|-------------------17b-17b|
D|---------------------|14----12---11--------|------------------------|----------------15+-------|
A|---------------------|----------------13\--|--1213--1213----12----12|----12----10/12-----------|
D|---------------------|---------------------|------------------------|--------------------------|

e|----------------|----------------|----------------|----------------|
B|----------------|----------------|----------------|----------------|
G|----------------|----------------|----------------|----------------|
D|----------------|----------------|----------------|----------------|
A|-----------3h4h5|-----------3h4h5|-----------3h4h5|-----------3h4h5|
D|0--3--5h6h7-----|0--3--5h6h7-----|0--3--5h6h7-----|0--3--5h6h7-----|

e|---------------------|---------------------|------------------------|--------------------------|
B|----10---10---10---10|----10---10---10---10|------------------------|-------------------15--15-|
G|/14---13---12---10---|---------------------|------------------------|-------------------17b-17b|
D|---------------------|14----12---11--------|------------------------|----------------15+-------|
A|---------------------|----------------13\--|--1213--1213----12----12|----12----10/12-----------|
D|---------------------|---------------------|------------------------|--------------------------|

e|----------------|----------------|----------------|----------------|
B|----------------|----------------|----------------|----------------|
G|----------------|----------------|----------------|----------------|
D|----------------|----------------|----------------|----------------|
A|-----------3h4h5|-----------3h4h5|-----------3h4h5|-----------3h4h5|
D|0--3--5h6h7-----|0--3--5h6h7-----|0--3--5h6h7-----|0--3--5h6h7-----|

e|---------------------|---------------------|------------------------|--------------------------|
B|----10---10---10---10|----10---10---10---10|------------------------|-------------------15--15-|
G|/14---13---12---10---|---------------------|------------------------|-------------------17b-17b|
D|---------------------|14----12---11--------|------------------------|----------------15+-------|
A|---------------------|----------------13\--|--1213--1213----12----12|----12----10/12-----------|
D|---------------------|---------------------|------------------------|--------------------------|

Chorus
e|----------------|----------------|
B|15--15--15--15--|15--------------|
G|17b-17b-17b-17b-|17b-------------|
D|----------------|----------------|
A|----------------|----------------|
D|----------------|----------------|
                             
e|------------|------------|------------|------------|
B|------------|------------|------------|------------|
G|7-7--77-7--7|7-7--77-77-7|7-7--77-7--7|5-5--55-55-5|
D|------------|------------|------------|------------|
A|5-5--55-5--5|5-5--55-55-5|5-5--55-5--5|3-3--33-33-3|
D|------------|------------|------------|------------|

e|------------|------------|------------|------------|
B|------------|------------|------------|------------|
G|6-6--66-6--6|6-6--66-66-6|7-7--77-7--7|7-7--66-66-7|
D|------------|------------|------------|------------|
A|4-4--44-4--4|4-4--44-44-4|5-5--55-5--5|5-5--44-44-5|
D|------------|------------|------------|------------|

e|------------|------------|------------|------------|
B|------------|------------|------------|------------|
G|7-7--77-7--7|7-7--77-77-7|7-7--77-7--7|5-5--55-55-5|
D|------------|------------|------------|------------|
A|5-5--55-5--5|5-5--55-55-5|5-5--55-5--5|3-3--33-33-3|
D|------------|------------|------------|------------|

e|------------|------------|------------|---------------|
B|------------|------------|------------|--------15--15-|
G|6-6--66-6--6|6-6--66-66-6|7-7--77-7--7|7-7--77-17b-17b|
D|------------|------------|------------|---------------|
A|4-4--44-4--4|4-4--44-44-4|5-5--55-5--5|5-5--55--------|
D|------------|------------|------------|---------------|

Outro
e|------------|------------|------------|------------|
B|------------|------------|------------|------------|
G|------------|------------|------------|------------|
D|------------|------------|------------|------------|
A|------------|------------|------------|------------|
D|------------|------------|------------|------------|

e|------------|------------|------------|------------|------------|--------------|
B|------------|------------|------------|------------|------------|-------15--15-|
G|------------|------------|------------|------------|------------|-------17b-17b|
D|--5--5--5--5|--3--3--6--6|--7--7--7--7|--7--7--7--7|--5--5--5--5|--3--3--------|
A|------------|------------|------------|------------|------------|--------------|
D|5--5--5--5--|3--3--6--6--|7--7--7--7--|7--7--7--7--|5--5--5--5--|3--3----------|
                                               
e|------------|------------|------------|-------------||
B|------------|------------|------------|-------------||
G|------------|------------|------------|------------o||
D|--0--0--0--0|--0--0--0--0|--0--0--0--0|--0--0--0--0-||
A|------------|------------|------------|------------o||
D|0--0--0--0--|0--0--0--0--|0--0--0--0--|0--0--0--0---||

Synth
e|17----------|------------|------------------|------------|
B|------------|18----------|------------------|------------|
G|------------|------------|15----------17p15p|14----------|
D|------------|------19----|------------------|------------|
A|------------|------------|------------------|------------|
D|------------|------------|------------------|------------|

e|17----------|------------|/18---------20p18p|17----------|
B|------18----|------------|------------------|------------|
G|------------|17----------|------------------|------------|
D|------------|------19----|------------------|------------|
A|------------|------------|------------------|------------|
D|------------|------------|------------------|------------|

e|17----------|------17----|/18---------17p15h|17----------|
B|---18-------|---18-------|------------------|------------|
G|------19----|19-------19-|------------------|------------|
D|---------19-|------------|------------------|------------|
A|------------|------------|------------------|------------|
D|------------|------------|------------------|------------|

e|17----------|------17----|/15---------13p12h|13----------|
B|---17-------|---17-------|------------------|------------|
G|------18----|18-------17-|------------------|------------|
D|---------19-|------------|------------------|------------|
A|------------|------------|------------------|------------|
D|------------|------------|------------------|------------|


| /  slide up
| \  slide down
| h  hammer-on
| p  pull-off
| +  harmonic
| x  Mute note
===============================================================================
comments
print report bad tab
14 comments total. Showing first comments.
0 reply
Zuka wrote on August 8 2009, 04:04 pm

I went ahead and gave this 5 stars simply because it is the most accurate out of all 8+ versions. Not only that, but it is apparent you went a step further.

I'd just like to say I think he plays the bridge like this:
e|----------------|
B|-------------------------|
G|-------------------------|
D|-------------------------|
A|-------------------------|
D|0--3--5h6h7-10h11h12-----|

Same notes, but a different feel. It will sound 'bassier' and less twangy. Not only that, but you can hear him slide up from A on the E string to C on the E string. Picky I know :P

0 reply
hotforgibson wrote on August 12 2009, 04:22 am

good

+1 reply
blacksurgeband wrote on August 17 2009, 10:43 pm

Actually, if you watch the making of uprising video, he plays the bridge like this:
e|-------------------------|
B|-------------------------|
G|-------------------------|
D|-------------------------|
A|------------5h6h7--------|
E|0--3--5h6h7--------------|

but yeah it's the same thing :P also, the chorus is wrong and it's in standard tuning and i don't think the bass is correct.

I want to post or [tab]
guest
You may want to rate the tab now too:
select rating
Please do not post tabs as comments. Select "correction" instead!