Oops, an error
Loading. Please wait.

Uprising Tab

by Muse
ver9
13,863 views 9 this week
no commentswrite comment
1 2 3 4 5
worth learning
x 12
Autoscroll
+/-
esc
set tempo
stop
Contributor
Difficulty
Tuning
intermediate
D A D G B E
WARNING: You are trying to view
                                    content from Ultimate-Guitar.com
                                    in an unauthorized application,
                                    which is prohibited.

                                    Please use an official Ultimate
                                    Guitar Tabs application for iPhone,
                                    iPad or Android to access legitimate
                                    chords, guitar, bass, and drum tabs
                                    from Ultimate-Guitar.com database.

                                    Type "ultimate guitar tabs" in Apple
                                    App Store's or Android Market's
                                    search to find the application.
Band: Muse
Song: Uprising
Tuning: Drop D

Matt B plays this in open G but I tabbed it in drop D because I prefer to 
play it in that tuning. I have included the bass part for the song even 
though this is a guitar tab.

This is my first tab. I had yet to see a complete tab for this song so I
will try to include everything I can.

I tried to line everything up as close as possible to give an idea
of timing but listen to the song to get it all timed right for yourself.

Comments and corrections are always welcome :)


h=hammer on
p=pull off
/=slide up
\=slide down
x=mute note


Bass part/intro (In Drop D Tuning)


(I think this is the little intro slide thingy,)
G|----------------|
D|----------------|
A|----------1/5---|
D|----------1/5---|

(bass part for the entire song)

G|--7---7---7---7-|--7---7---7---7-|--7---7---7---7-|--7---7---7---7-|
D|----------------|----------------|----------------|----------------|
A|5---5---5---5---|5---5---5---5---|5---5---5---5---|5---5---5---5---|
D|----------------|----------------|----------------|----------------|

G|--7---7---7---7-|--7---7---7---7-|--12--12--12--12|--10--10--10--10|
D|----------------|----------------|----------------|----------------|
A|5---5---5---5---|5---5---5---5---|10--10--10--10--|8---8---8---8---|
D|----------------|----------------|----------------|----------------|

G|--14--14--14--14|--14--14--14--14|--12--12--12--12|--10--10--6---6-|
D|----------------|----------------|----------------|----------------|
A|12--12--12--12--|12--12--12--12--|10--10--10--10--|8---8---4---4---|
D|----------------|----------------|----------------|----------------|

G|--7---7---7---7-|--7---7---7---7-|--12--12--12--12|--10--10--13--13|
D|----------------|----------------|----------------|----------------|
A|5---5---5---5---|5---5---5---5---|10--10--10--10--|8---8---11--11--|
D|----------------|----------------|----------------|----------------|

G|--14--14--14--14|--14--14--14--14|--12--12--12--12|--10--10--6---6-|
D|----------------|----------------|----------------|----------------|
A|12--12--12--12--|12--12--12--12--|10--10--10--10--|8---8---4---4---|
D|----------------|----------------|----------------|----------------|


Bass run at the end of the bridge.
(This isn't exactly what Christopher Wolstenholme plays but it's 
something similar if anyone has anything better please leave me a comment)

G|-----------------|-----------------|-----------------|-------------|
D|12-12-12-12-12-12|12-12-12-12-12-12|10-12-10-12-10-7-|10-7-5-7-5-3-|
A|-----------------|-----------------|-----------------|-------------|
D|-----------------|-----------------|-----------------|-------------|





Synth Lead for intro, 1st chorus and outro 

Effect: Octavator (Shift the pitch up an octave only for synth lead, 
or you can figure out how to play it an octave higher I just didn't 
want to tab it out :p, maybe I'll change it in a future revision)

e|----------------|----------------|----------------|----------------|
B|10--------------|----------------|----------------|----------------|
G|----------------|10--------------|----------------|----------------|
D|----------------|----------------|----------------|----------------|
A|----------------|-------12-------|13-----13h15p13p|12--------------|
D|----------------|----------------|----------------|----------------|


e|----------------|----------------|----------------|----------------|
B|10--------------|----------------|11-----11h13p11p|10--------------|
G|-------9--------|----------------|----------------|----------------|
D|----------------|11--------------|----------------|----------------|
A|----------------|-------12-------|----------------|----------------|
D|----------------|----------------|----------------|----------------|


e|----------------|----------------|----------------|----------------|
B|10--------------|-------10-------|11---------10p8h|10--------------|
G|---10-----------|---10-----------|----------------|----------------|
D|-------12-------|12---------12---|----------------|----------------|
A|-----------12---|----------------|----------------|----------------|
D|----------------|----------------|----------------|----------------|


e|----------------|----------------|----------------|----------------|
B|10--------------|-------10-------|8-----------6p5h|6---------------|
G|----9-----------|----9-----------|----------------|----------------|
D|-------11-------|11--------------|----------------|----------------|
A|-----------12---|-----------12---|----------------|----------------|
D|----------------|----------------|----------------|----------------|


"Wailing" Guitar part (comes in as the synth lead ends and again half way
through the 1st verse, at the end of the 1st verse, to end the 1st chorus
and to end the synth lead for the outro)

e|----------------|----------------|----------------|-------------------------|
B|----------------|----------------|----------------|------------15----15-----|
G|----------------|----------------|----------------|------------17b19-17b19--|
D|----------------|----------------|----------------|-------------------------|
A|----------------|----------------|----------------|-------------------------|
D|----------------|----------------|----------------|-------------------------|

2nd Verse Guitar Part

e|----------------|----------------|----------------|----------------|
B|----------------|----------------|----------------|----------------|
G|----------------|----------------|7-7---7-7-7---7-|7-7---7-7-7---7-|
D|----------------|----------------|----------------|----------------|
A|----------------|----------------|5-5---5-5-5---5-|5-5---5-5-5---5-|
D|----------------|----------------|----------------|----------------|


"Interchanging mind control"
e|----------------|----------------|----------------|----------------|
B|----------------|----------------|----------------|----------------|
G|7-7---7-7-7---7-|7-7---7-7-7-7-7-|7-7---7-7-7---7-|5-5---5-5-5-5-5-|
D|----------------|----------------|----------------|----------------|
A|5-5---5-5-5---5-|5-5---5-5-5-5-5-|5-5---5-5-5---5-|3-3---3-3-3-3-3-|
D|----------------|----------------|----------------|----------------|


e|----------------|----------------|----------------|-------------------------|
B|----------------|----------------|----------------|------------15----15-----|
G|6-6---6-6-6---6-|6-6---6-6-6-6-6-|7-7---7-7-7---7-|7-7---7-7---17b19-17b19--|
D|----------------|----------------|----------------|-------------------------|
A|4-4---4-4-4---4-|4-4---4-4-4-4-4-|5-5---5-5-5---5-|5-5---5-5----------------|
D|----------------|----------------|----------------|-------------------------|


"Rise up and take the power back"
e|----------------|----------------|----------------|----------------|
B|----------------|----------------|----------------|----------------|
G|7-7---7-7-7---7-|7-7---7-7-7-7-7-|7-7---7-7-7---7-|5-5---5-5-5-5-5-|
D|----------------|----------------|----------------|----------------|
A|5-5---5-5-5---5-|5-5---5-5-5-5-5-|5-5---5-5-5---5-|3-3---3-3-3-3-3-|
D|----------------|----------------|----------------|----------------|


e|----------------|----------------|----------------|-------------------------|
B|----------------|----------------|----------------|------------15----15-----|
G|6-6---6-6-6---6-|6-6---6-6-6-6-6-|7-7---7-7-7---7-|7-7---7-7---17b19-17b19--|
D|----------------|----------------|----------------|-------------------------|
A|4-4---4-4-4---4-|4-4---4-4-4-4-4-|5-5---5-5-5---5-|5-5---5-5----------------|
D|----------------|----------------|----------------|-------------------------|
D|----------------|----------------|----------------|-------------------------|


(No vocal, pre-chorus interlude)
e|----------------|----------------|----------------|----------------|
B|----------------|----------------|----------------|----------------|
G|------7-7-7---7-|--7---7-7-7---7-|7-7---7-7-7---7-|--7---7-7-7---7-|
D|----------------|----------------|----------------|----------------|
A|------5-5-5---5-|--5---5-5-5---5-|5-5---5-5-5---5-|--5---5-5-5---5-|
D|----------------|----------------|----------------|----------------|

Chorus
(I've seen Matt B play all down strokes and also alternating up and down 
so how ever you want to play to make it sound right go for it)

e|5-5---5-5-5---5-|5-5---5-5-5-5-5-|6-6---6-6-6---6-|5-5---5-5-5-5-5-|
B|6-6---6-6-6---6-|6-6---6-6-6-6-6-|8-8---8-8-8---8-|6-6---6-6-6-6-6-|
G|7-7---7-7-7---7-|7-7---7-7-7-7-7-|7-7---7-7-7---7-|5-5---5-5-5-5-5-|
D|7-7---7-7-7---7-|7-7---7-7-7-7-7-|8-8---8-8-8---8-|----------------|
A|----------------|----------------|----------------|----------------|
D|----------------|----------------|----------------|----------------|


e|5-5---5-5-5---5-|5-5---5-5-5-5-5-|6-6---6-6-6---6-|5-5---5---------|
B|5-5---5-5-5---5-|5-5---5-5-5-5-5-|8-8---8-8-8---8-|6-6---6-5-5-5-5-|
G|6-6---6-6-6---6-|6-6---6-6-6-6-6-|7-7---7-7-7---7-|5-5---5-6-6-6-6-|
D|7-7---7-7-7---7-|7-7---7-7-7-7-7-|8-8---8-8-8---8-|--------5-5-5-5-|
A|----------------|----------------|----------------|----------------|
D|----------------|----------------|----------------|----------------|


e|5-5---5-5-5---5-|5-5---5-5-5-5-5-|6-6---6-6-6---6-|5-5---5---------|
B|6-6---6-6-6---6-|6-6---6-6-6-6-6-|8-8---8-8-8---8-|6-6---6-6-6-6-6-|
G|7-7---7-7-7---7-|7-7---7-7-7-7-7-|7-7---7-7-7---7-|5-5---5-7-7-7-7-|
D|7-7---7-7-7---7-|7-7---7-7-7-7-7-|8-8---8-8-8---8-|--------6-6-6-6-|
A|----------------|----------------|----------------|----------------|
D|----------------|----------------|----------------|----------------|


e|5-5---5-5-5---5-|5-5---5-5-5-5-5-|6-6---6-6-6---6-|5-5---x---------------------|
B|5-5---5-5-5---5-|5-5---5-5-5-5-5-|8-8---8-8-8---8-|6-6---x-5-5-15----15--------|
G|6-6---6-6-6---6-|6-6---6-6-6-6-6-|7-7---7-7-7---7-|5-5---x-6-6-17b19-17b19-----|
D|7-7---7-7-7---7-|7-7---7-7-7-7-7-|8-8---8-8-8---8-|------x-5-5-----------------|
A|----------------|----------------|----------------|----------------------------|
D|----------------|----------------|----------------|----------------------------|


Guitar Solo (played 3 times)

e|------------------|------------------|------------------|------------------|
B|------------------|------------------|------------------|------------------|
G|------------------|------------------|------------------|------------------|
D|------------------|------------------|------------------|------------------|
A|-------------3h4h5|-------------3h4h5|-------------3h4h5|-------------3h4h5|
D|0---3---5h6h7-----|0---3---5h6h7-----|0---3---5h6h7-----|0---3---5h6h7-----|


e|----------------|----------------|----------------|----------------------------|
B|--10--10--10--10|--10--10--10----|----------------|------------15----15--------|
G|14--13--12--10--|----------------|----------------|------------17b19-17b19-----|
D|----------------|14--12--11--12\-|----------------|----------------------------|
A|----------------|----------------|13\12/13\12--12-|12--10-12-------------------|
D|----------------|----------------|----------------|----------------------------|

(wailing guitar interlude before last chorus played only once)
e|15------15------15------15------|15------15------15------15------|
B|17b19---17b19---17b19---17b19---|17b19---17b19---17b19---17b19---|
G|--------------------------------|--------------------------------|
D|--------------------------------|--------------------------------|
A|--------------------------------|--------------------------------|
D|--------------------------------|--------------------------------|
comments
print report bad tab
I want to post or [tab]
guest
You may want to rate the tab now too:
select rating
Please do not post tabs as comments. Select "correction" instead!