Oops, an error
Loading. Please wait.

One More Day Tab

ver3
ver3

Whole song

Interactive

More versions @911Tabs.com
749 views 1 this week
no commentswrite comment
1 2 3 4 5
please rate
Autoscroll
+/-
esc
set tempo
stop
Contributor
Difficulty
novice
WARNING: You are trying to view
                                    content from Ultimate-Guitar.com
                                    in an unauthorized application,
                                    which is prohibited.

                                    Please use an official Ultimate
                                    Guitar Tabs application for iPhone,
                                    iPad or Android to access legitimate
                                    chords, guitar, bass, and drum tabs
                                    from Ultimate-Guitar.com database.

                                    Type "ultimate guitar tabs" in Apple
                                    App Store's or Android Market's
                                    search to find the application.
Gtr I (B E A D G B E) - 'Bronson'
Gtr II (B E A D G B E) - 'Gravy'
Gtr III (B E A D G B E) - 'Shmotz'


  Intro/Verse
   Q=125
  2/4      3/4
   Gtr III
   H         E  E  E E  E E    E  E  E E  E E
||--------|-----------------|-----------------|
||--------|------------19---|-----------------|
||--------|-16----14--------|-18----16--------|
||--------|-----0----0----0-|-----0----0-16-0-|
||--------|-----------------|-----------------|
||--------|-----------------|-----------------|
||--------|-----------------|-----------------|
|
|  Gtr III
|  H         H.                H.
||--------|-----------------|-----------------|
||--------|-----------------|-----------------|
||--------|-----------------|-----------------|
||--------|-----------------|-----------------|
||--------|-----------------|-----------------|
||--------|-----------------|-----------------|
||--------|--0--------------|--2--------------|
|
|  Gtrs I, II
|       PM--|
|  E Q  E    E  H         E    H.
||--------|-----------------|-----------------|
||--------|-----------------|-----------------|
||--------|-----------------|-----------------|
||--------|-----------------|-----------------|
||--------|-----------------|-----------------|
||--------|-----------------|-----------------|
||------0-|--0--------------|-----------------|


   E  E  E E  E E    E  E  E E  E E
|-----------------|-----------------||
|------------19---|-----------------||
|-16----14--------|-18----16--------||
|-----0----0----0-|-----0----0-16-0-||
|-----------------|-----------------||
|-----------------|-----------------||
|-----------------|-----------------||
|
|  H.                H.
|-----------------|-----------------||
|-----------------|-----------------||
|-----------------|-----------------||
|-----------------|-----------------||
|-----------------|-----------------||
|-----------------|-----------------||
|--3--------------|--2--------------||
|
|                                 PM
|  H.                H          E E
|-----------------|-----------------||
|-----------------|-----------------||
|-----------------|-----------------||
|-----------------|-----------------||
|-----------------|-----------------||
|-----------------|-----------------||
|-----------------|---------------0-||


   Gtr III
    E  E  E E  E E    E  E  E E  E E    E  E  E E  E E    E  E  E E  E E
||-----------------|-----------------|-----------------|-----------------|
||------------19---|-----------------|------------19---|-----------------|
||-16----14--------|-18----16--------|-16----14--------|-18----16--------|
||-----0----0----0-|-----0----0-16-0-|-----0----0----0-|-----0----0-16-0-|
||-----------------|-----------------|-----------------|-----------------|
||-----------------|-----------------|-----------------|-----------------|
||-----------------|-----------------|-----------------|-----------------|
|
|  Gtr III
|   H.                H.                H.                H.
||-----------------|-----------------|-----------------|-----------------|
||-----------------|-----------------|-----------------|-----------------|
||-----------------|-----------------|-----------------|-----------------|
||-----------------|-----------------|-----------------|-----------------|
||-----------------|-----------------|-----------------|-----------------|
||-----------------|-----------------|-----------------|-----------------|
||--0--------------|--2--------------|--3--------------|--2--------------|
|
|  Gtrs I, II
|   PM
|   E  H         E    H.                H.                H.
||-----------------|-----------------|-----------------|-----------------|
||-----------------|-----------------|-----------------|-----------------|
||-----------------|-----------------|-----------------|-----------------|
||-----------------|-----------------|-----------------|-----------------|
||-----------------|-----------------|-----------------|-----------------|
||-----------------|-----------------|-----------------|-----------------|
||--0--------------|-----------------|-----------------|-----------------|


  Gtr III
   E  E  E E  E E     E  E  E E  E E     E  E  E E  E E     E  E  E E   E  E
|-----------------|------------------|------------------|---------------------|
|-----------------|------------------|------------------|---------------------|
|-18----16--------|--18----16--------|--18----16--------|--18----16-----------|
|-----0----0-16-0-|------0----0-16-0-|------0----0-16-0-|------0----0--16--0--|
|-----------------|------------------|------------------|---------------------|
|-----------------|------------------|------------------|---------------------|
|-----------------|------------------|------------------|---------------------|
|
| Gtrs I, II
|                                                                          PM
|  H.                +H.                +H.                +H          +E  E
|-----------------|------------------|------------------|---------------------|
|-----------------|------------------|------------------|---------------------|
|-----------------|------------------|------------------|---------------------|
|-----------------|------------------|------------------|---------------------|
|-14--------------|-(14)-------------|-(14)-------------|-(14)--------(14)----|
|-14--------------|-(14)-------------|-(14)-------------|-(14)--------(14)----|
|-12--------------|-(12)-------------|-(12)-------------|-(12)--------(12)-0--|


   E E  E E  E E    E  E  E E  E E    E  E  E E  E E    E  E  E E  E E
|----------------|-----------------|-----------------|------------------|
|----------------|-----------------|-----------------|------------------|
|-18---16--------|-18----16--------|-18----16--------|-18----16---------|
|----0----0-16-0-|-----0----0-16-0-|-----0----0-16-0-|-----0----0-16-0--|
|----------------|-----------------|-----------------|------------------|
|----------------|-----------------|-----------------|------------------|
|----------------|-----------------|-----------------|------------------|
|
|  PM
|  E H         E    H.                H.                H.
|----------------|-----------------|-----------------|------------------|
|----------------|-----------------|-----------------|------------------|
|----------------|-----------------|-----------------|------------------|
|----------------|-----------------|-----------------|------------------|
|----------------|-----------------|-----------------|------------------|
|----------------|-----------------|-----------------|------------------|
|--0-------------|-----------------|-----------------|------------------|


 Chorus
  Gtr III
   Q    E  E  E  E    Q    E  E  E  E    Q    Q   Q     Q    Q   Q
|------------------|------------------|--------------|---------------|
|---------------19-|-17---17----------|-17---17--17--|-19------------|
|-16---16-14-16----|---------16----16-|--------------|------16-------|
|------------------|------------16----|--------------|----------16---|
|------------------|------------------|--------------|---------------|
|------------------|------------------|--------------|---------------|
|------------------|------------------|--------------|---------------|
|
| Gtrs I, II
|  H.                 H.                 H.             H.
|------------------|------------------|--------------|---------------|
|------------------|------------------|--------------|---------------|
|------------------|------------------|--------------|---------------|
|------------------|------------------|--------------|---------------|
|------------------|------------------|--------------|---------------|
|--2---------------|--4---------------|--5-----------|--4------------|
|--0---------------|--2---------------|--3-----------|--2------------|


  Gtr III
   Q    E  E  E  E    Q    E  E  E  E    Q    Q   Q     Q   Q   Q
|------------------|------------------|--------------|----------------|
|---------------19-|-17---17----------|-17---17--17--|-19-------------|
|-16---16-14-16----|---------16----16-|--------------|-----16---------|
|------------------|------------16----|--------------|---------16-----|
|------------------|------------------|--------------|----------------|
|------------------|------------------|--------------|----------------|
|------------------|------------------|--------------|----------------|
|
| Gtrs I, II
|                                                                  PM
|  H.                 H.                 H.             H      +E  E
|------------------|------------------|--------------|----------------|
|------------------|------------------|--------------|----------------|
|------------------|------------------|--------------|----------------|
|------------------|------------------|--------------|----------------|
|------------------|------------------|--------------|----------------|
|--2---------------|--4---------------|--5-----------|--4------(4)----|
|--0---------------|--2---------------|--3-----------|--2------(2)-0--|


 Verse
   E E  E E  E E    E  E  E E  E E    E  E  E E  E E    E E  E E  E E
|----------------|-----------------|-----------------|-----------------|
|----------------|-----------------|------------19---|-----------------|
|-18---16--------|-18----16--------|-18----16--------|-18---16---------|
|----0----0-16-0-|-----0----0-16-0-|-----0----0----0-|----0----0-16-0--|
|----------------|-----------------|-----------------|-----------------|
|----------------|-----------------|-----------------|-----------------|
|----------------|-----------------|-----------------|-----------------|
|
|  PM                                                               PM
|  E H         E    H.                H.                H         E E
|----------------|-----------------|-----------------|-----------------|
|----------------|-----------------|-----------------|-----------------|
|----------------|-----------------|-----------------|-----------------|
|----------------|-----------------|-----------------|-----------------|
|----------------|-----------------|-----------------|-----------------|
|----------------|-----------------|-----------------|-----------------|
|--0-------------|-----------------|-----------------|--------------0--|


  Gtr III
   E E  E E  E E    E  E  E E  E E    E  E  E E  E E    E  E  E E  E E
|----------------|-----------------|-----------------|------------------|
|----------------|-----------------|------------19---|------------------|
|-18---16--------|-18----16--------|-18----16--------|-18----16---------|
|----0----0-16-0-|-----0----0-16-0-|-----0----0----0-|-----0----0-16-0--|
|----------------|-----------------|-----------------|------------------|
|----------------|-----------------|-----------------|------------------|
|----------------|-----------------|-----------------|------------------|
|
| Gtrs I, II
|  PM
|  E H         E    H.                H.                H.
|----------------|-----------------|-----------------|------------------|
|----------------|-----------------|-----------------|------------------|
|----------------|-----------------|-----------------|------------------|
|----------------|-----------------|-----------------|------------------|
|----------------|-----------------|-----------------|------------------|
|----------------|-----------------|-----------------|------------------|
|--0-------------|-----------------|-----------------|------------------|


  Gtr III
   E  E  E E  E E     E  E  E E  E E     E  E  E E  E E     E  E  E E   E  E
|-----------------|------------------|------------------|---------------------|
|-----------------|------------------|-------------19---|---------------------|
|-18----16--------|--18----16--------|--18----16--------|--18----16-----------|
|-----0----0-16-0-|------0----0-16-0-|------0----0----0-|------0----0--16--0--|
|-----------------|------------------|------------------|---------------------|
|-----------------|------------------|------------------|---------------------|
|-----------------|------------------|------------------|---------------------|
|
| Gtrs I, II
|                                                                          PM
|  H.                +H.                +H.                +H          +E  E
|-----------------|------------------|------------------|---------------------|
|-----------------|------------------|------------------|---------------------|
|-----------------|------------------|------------------|---------------------|
|-----------------|------------------|------------------|---------------------|
|-14--------------|-(14)-------------|-(14)-------------|-(14)--------(14)----|
|-14--------------|-(14)-------------|-(14)-------------|-(14)--------(14)----|
|-12--------------|-(12)-------------|-(12)-------------|-(12)--------(12)-0--|


  Gtr III
   E E  E E  E E    E  E  E E  E E    E  E  E E  E E    E  E  E E  E E
|----------------|-----------------|-----------------|------------------|
|-----------19---|-----------------|------------19---|------------------|
|-16---14--------|-18----16--------|-16----14--------|-18----16---------|
|----0----0----0-|-----0----0-16-0-|-----0----0----0-|-----0----0-16-0--|
|----------------|-----------------|-----------------|------------------|
|----------------|-----------------|-----------------|------------------|
|----------------|-----------------|-----------------|------------------|
|
|  PM
|  E H         E    H.                H.                H.
|----------------|-----------------|-----------------|------------------|
|----------------|-----------------|-----------------|------------------|
|----------------|-----------------|-----------------|------------------|
|----------------|-----------------|-----------------|------------------|
|----------------|-----------------|-----------------|------------------|
|----------------|-----------------|-----------------|------------------|
|--0-------------|-----------------|-----------------|------------------|


   Chorus
    Gtr III
     Q    E  E  E  E    Q    E  E  E  E    Q    Q   Q     Q    Q   Q   7x
||-------------------|------------------|--------------|---------------||
||----------------19-|-17---17----------|-17---17--17--|-19------------||
||o-16---16-14-16----|---------16----16-|--------------|------16------o||
||-------------------|------------16----|--------------|----------16---||
||o------------------|------------------|--------------|--------------o||
||-------------------|------------------|--------------|---------------||
||-------------------|------------------|--------------|---------------||
|
|    H.                 H.                 H.             H.           7x
||-------------------|------------------|--------------|---------------||
||-------------------|------------------|--------------|---------------||
||o------------------|------------------|--------------|--------------o||
||-------------------|------------------|--------------|---------------||
||o------------------|------------------|--------------|--------------o||
||---2---------------|--4---------------|--5-----------|--4------------||
||---0---------------|--2---------------|--3-----------|--2------------||


  Gtrs I, II
   H.        H.        H.        H.
|----------|---------|---------|-------|
|----------|---------|---------|-------|
|----------|---------|---------|-------|
|-10-------|-9-------|-8-------|-7-----|
|--x-------|-x-------|-x-------|-x-----|
|--8-------|-7-------|-6-------|-5-----|
|----------|---------|---------|-------|


  Gtrs I, II
  H.         H.         H.        +H.
|---------|----------|----------|--------|
|---------|----------|----------|--------|
|---------|----------|----------|--------|
|-6-------|-(6)------|-(6)------|-(6)----|
|-x-------|--x-------|--x-------|-(x)----|
|-4-------|-(4)------|-(4)------|-(4)----|
|---------|----------|----------|--------|


  Gtr III
   E  E  E E  E E    E  E  E E  E E    E  E  E E  E E    E  E  E E  E E
|-----------------|-----------------|-----------------|------------------|
|-----------------|-----------------|-----------------|------------------|
|-18----16--------|-18----16--------|-18----16--------|-18----16---------|
|-----0----0-16-0-|-----0----0-16-0-|-----0----0-16-0-|-----0----0-16-0--|
|-----------------|-----------------|-----------------|------------------|
|-----------------|-----------------|-----------------|------------------|
|-----------------|-----------------|-----------------|------------------|
|
| Gtrs I, II
|  H.                H.                H.                H.
|-----------------|-----------------|-----------------|------------------|
|-----------------|-----------------|-----------------|------------------|
|-----------------|-----------------|-----------------|------------------|
|-----------------|-----------------|-----------------|------------------|
|-----------------|-----------------|-----------------|------------------|
|--2--------------|--4--------------|--5--------------|--7---------------|
|--0--------------|--2--------------|--3--------------|--5---------------|


  Gtr III
   E  E  E E  E E     E  E  E E  E E     E  E  E E  E E     E  E  E E   E  E
|-----------------|------------------|------------------|---------------------|
|-----------------|------------------|------------------|---------------------|
|-18----16--------|--18----16--------|--18----16--------|--18----16-----------|
|-----0----0-16-0-|------0----0-16-0-|------0----0-16-0-|------0----0--16--0--|
|-----------------|------------------|------------------|---------------------|
|-----------------|------------------|------------------|---------------------|
|-----------------|------------------|------------------|---------------------|
|
| Gtrs I, II
|                                                                          PM
|  H.                +H.                +H.                +H          +E  E
|-----------------|------------------|------------------|---------------------|
|-----------------|------------------|------------------|---------------------|
|-----------------|------------------|------------------|---------------------|
|-----------------|------------------|------------------|---------------------|
|-----------------|------------------|------------------|---------------------|
|-10--------------|-(10)-------------|-(10)-------------|-(10)--------(10)----|
|--8--------------|--(8)-------------|--(8)-------------|--(8)---------(8)-0--|


 Verse
  Gtr III
   E E  E E  E E    E  E  E E  E E    E  E  E E  E E    E E  E E  E E
|----------------|-----------------|-----------------|-----------------|
|-----------19---|-----------------|-----------------|-----------------|
|-16---14--------|-18----16--------|-18----16--------|-18---16---------|
|----0----0----0-|-----0----0-16-0-|-----0----0-16-0-|----0----0-16-0--|
|----------------|-----------------|-----------------|-----------------|
|----------------|-----------------|-----------------|-----------------|
|----------------|-----------------|-----------------|-----------------|
|
| Gtrs I, II
|  PM                                                               PM
|  E H         E    H.                H.                H         E E
|----------------|-----------------|-----------------|-----------------|
|----------------|-----------------|-----------------|-----------------|
|----------------|-----------------|-----------------|-----------------|
|----------------|-----------------|-----------------|-----------------|
|----------------|-----------------|-----------------|-----------------|
|----------------|-----------------|-----------------|-----------------|
|--0-------------|-----------------|-----------------|--------------0--|


  Gtr III
   E E  E E  E E    E  E  E E  E E    E  E  E E  E E    E  E  E E  E E
|----------------|-----------------|-----------------|------------------|
|-----------19---|-----------------|-----------------|------------------|
|-16---14--------|-18----16--------|-18----16--------|-18----16---------|
|----0----0----0-|-----0----0-16-0-|-----0----0-16-0-|-----0----0-16-0--|
|----------------|-----------------|-----------------|------------------|
|----------------|-----------------|-----------------|------------------|
|----------------|-----------------|-----------------|------------------|
|
| Gtrs I, II
|  PM
|  E H         E    H.                H.                H.
|----------------|-----------------|-----------------|------------------|
|----------------|-----------------|-----------------|------------------|
|----------------|-----------------|-----------------|------------------|
|----------------|-----------------|-----------------|------------------|
|----------------|-----------------|-----------------|------------------|
|----------------|-----------------|-----------------|------------------|
|--0-------------|-----------------|-----------------|------------------|


  Gtr III
   E  E  E E  E E     E  E  E E  E E     E  E  E E  E E     E  E  E E   E  E
|-----------------|------------------|------------------|---------------------|
|------------19---|------------------|-------------19---|---------------------|
|-16----14--------|--18----16--------|--16----14--------|--18----16-----------|
|-----0----0----0-|------0----0-16-0-|------0----0----0-|------0----0--16--0--|
|-----------------|------------------|------------------|---------------------|
|-----------------|------------------|------------------|---------------------|
|-----------------|------------------|------------------|---------------------|
|
| Gtrs I, II
|                                                                          PM
|  H.                +H.                +H.                +H          +E  E
|-----------------|------------------|------------------|---------------------|
|-----------------|------------------|------------------|---------------------|
|-----------------|------------------|------------------|---------------------|
|-----------------|------------------|------------------|---------------------|
|-14--------------|-(14)-------------|-(14)-------------|-(14)--------(14)----|
|-14--------------|-(14)-------------|-(14)-------------|-(14)--------(14)----|
|-12--------------|-(12)-------------|-(12)-------------|-(12)--------(12)-0--|


  Gtrs I, II, III
  PM
  E H    E   H.        H.        H.
|----------|---------|---------|-------|
|----------|---------|---------|-------|
|----------|---------|---------|-------|
|----------|---------|---------|-------|
|----------|---------|---------|-------|
|----------|---------|---------|-------|
|-0--------|---------|---------|-------|


   Out-Chorus
    Q=125
    Gtrs I, II
    H.        H.        H.        H.     7x
||----------|---------|---------|--------||
||----------|---------|---------|--------||
||o---------|---------|---------|-------o||
||----------|---------|---------|--------||
||o---------|---------|---------|-------o||
||--2-------|-4-------|-5-------|-4------||
||--0-------|-2-------|-3-------|-2------||


                                         PM
  H.        H.        H.        H    +E  E
|---------|---------|---------|-------------|
|---------|---------|---------|-------------|
|---------|---------|---------|-------------|
|---------|---------|---------|-------------|
|---------|---------|---------|-------------|
|-2-------|-4-------|-5-------|-4----(4)-2--|
|-0-------|-2-------|-3-------|-2----(2)-0--|


  H.        +H.        +H.        +H.
|---------|----------|----------|--------|
|---------|----------|----------|--------|
|---------|----------|----------|--------|
|---------|----------|----------|--------|
|---------|----------|----------|--------|
|-2-------|-(2)------|-(2)------|-(2)----|
|-0-------|-(0)------|-(0)------|-(0)----|


  +H.        +H.        +H.        +H.
|----------|----------|----------|--------*|
|----------|----------|----------|--------*|
|----------|----------|----------|--------*|
|----------|----------|----------|--------*|
|----------|----------|----------|--------*|
|-(2)------|-(2)------|-(2)------|-(2)----*|
|-(0)------|-(0)------|-(0)------|-(0)----*|




--------------------------------------------------------------------------------


Duration Legend
---------------
W - whole; H - half; Q - quarter; E - 8th; S - 16th; T - 32nd; X - 64th; a - acciaccatura
+ - note tied to previous; . - note dotted; .. - note double dotted
Uncapitalized letters represent notes that are staccato (1/2 duration)
Irregular groupings are notated above the duration line
Duration letters will always appear directly above the note/fret number it represents the
duration for.  Duration letters with no fret number below them represent rests.  Multi-
bar rests are notated in the form Wxn, where n is the number of bars to rest for.  Low
melody durations appear below the staff

Tablature Legend
----------------
 h   - hammer-on
 p   - pull-off
 b   - bend
 pb  - pre-bend
 r   - bend release (if no number after the r, then release immediately)
 /\  - slide into or out of (from/to "nowhere")
 s   - legato slide
 S   - shift slide
<n> - natural harmonic
[n]  - artificial harmonic
n(n) - tapped harmonic
 ~   - vibrato
 tr  - trill
 T   - tap
 TP  - trem. picking
 PM  - palm muting
\n/  - tremolo bar dip; n = amount to dip
 \n  - tremolo bar down
 n/  - tremolo bar up
/n\  - tremolo bar inverted dip
 =   - hold bend; also acts as connecting device for hammers/pulls
 <> - volume swell (louder/softer)
 x   - on rhythm slash represents muted slash
 o   - on rhythm slash represents single note slash

Misc Legend
-----------
 |  - bar
||  - double bar
||o - repeat start
o|| - repeat end
*|  - double bar (ending)
 :  - bar (freetime)
 $  - Segno
 &  - Coda
Tempo markers - <E/E./Q/Q./H/H.> = BPM(8/16=s8/s16), where s8 = swing 8ths, s16 = swing 16ths



--------------------------------------------------------------------------------
comments
We did not receive enough feedback on this tab! Please rate:
print report bad tab
1 2 3 4 5
I want to post or [tab]
guest
You may want to rate the tab now too:
select rating
Please do not post tabs as comments. Select "correction" instead!