Oops, an error
Loading. Please wait.

Chick Magnet Tab

by Mxpx
ver3
ver3
More versions @911Tabs.com
1,003 views 1 this week
4 commentsread comments
1 2 3 4 5
accurate
x 5
Autoscroll
+/-
esc
set tempo
stop
Hey! There's an official Ultimate Guitar app which is ideal
for learning songs when you're away from computer. Get the app
WARNING: You are trying to view
                                    content from Ultimate-Guitar.com
                                    in an unauthorized application,
                                    which is prohibited.

                                    Please use an official Ultimate
                                    Guitar Tabs application for iPhone,
                                    iPad or Android to access legitimate
                                    chords, guitar, bass, and drum tabs
                                    from Ultimate-Guitar.com database.

                                    Type "ultimate guitar tabs" in Apple
                                    App Store's or Android Market's
                                    search to find the application.
I decided to write a whole tab for the Mxpx song entitled Chick magnet.
I have included the Lead Bass Part, and the Rhythm Guitar Part. I have 
checked this many times and i know it is accurate.
Enjoy.




CHICK MAGNET (LEAD BASS)
As recorded by MxPx

Written by : Ben Eggett - bmxguitarman@hotmail.com

I tabbed this one my self. This is Completely accurate, because i have 
played a long w/ the song many times, and corrected everything. This is 
exactly how it goes. I did the lead bass first, then included the rhythm 
down at the bottom.
Enjoy!!


Gtr I (B E A D G B E) - 'Bass' Made for a 7-string, but you can just drop 
the low B, because it is not used.


  Q=168
1/4   4/4
  Gtr I
|-----|--------------|--------------|--------------|--------------|
|-----|--------------|--------------|--------------|--------------|
|-----|--------------|--------------|--------------|--------------|
|-----|--------------|--------------|--------------|--------------|
|---0-|-3--2--0------|------------0-|-3--2--0------|------------0-|
|-----|----------3-0-|-1--0--1--3---|----------3-0-|-1--0--1--3---|
|-----|--------------|--------------|--------------|--------------|


|--------------|--------------|--------------|--------------|
|--------------|--------------|--------------|--------------|
|--------------|--------------|--------------|--------------|
|--------------|--------------|--------------|--------------|
|-3--2--0------|------------0-|-3--2--0------|------------0-|
|----------3-0-|-1--0--1--3---|----------3-0-|-1--0--1--3---|
|--------------|--------------|--------------|--------------|


|--------------|--------------|--------------|--------------|
|--------------|--------------|--------------|--------------|
|--------------|--------------|--------------|--------------|
|--------------|--------------|--------------|--------------|
|-3--2--0------|------------0-|-3--2--0------|------------0-|
|----------3-0-|-1--0--1--3---|----------3-0-|-1--0--1--3---|
|--------------|--------------|--------------|--------------|


|--------------|--------------|--------------|--------------|
|--------------|--------------|--------------|--------------|
|--------------|--------------|--------------|--------------|
|--------------|--------------|--------------|--------------|
|-3--2--0------|------------0-|-3--2--0------|------------0-|
|----------3-0-|-1--0--1--3---|----------3-0-|-1--0--1--3---|
|--------------|--------------|--------------|--------------|


|--------------|--------------|--------------|--------------|
|--------------|--------------|--------------|--------------|
|--------------|--------------|--------------|--------------|
|--------------|--------------|--------------|--------------|
|-3--2--0------|------------0-|-3--2--0------|------------0-|
|----------3-0-|-1--0--1--3---|----------3-0-|-1--0--1--3---|
|--------------|--------------|--------------|--------------|


|--------------|--------------|--------------|--------------|
|--------------|--------------|--------------|--------------|
|--------------|--------------|--------------|--------------|
|--------------|--------------|--------------|--------------|
|-3--2--0------|------------0-|-3--2--0------|------------0-|
|----------3-0-|-1--0--1--3---|----------3-0-|-1--0--1--3---|
|--------------|--------------|--------------|--------------|


|--------------|--------------|--------------|--------------|
|--------------|--------------|--------------|--------------|
|--------------|--------------|--------------|--------------|
|--------------|--------------|--------------|--------------|
|-3--2--0------|------------0-|-3--2--0------|------------0-|
|----------3-0-|-1--0--1--3---|----------3-0-|-1--0--1--3---|
|--------------|--------------|--------------|--------------|


|-------------|-------------|-------------|-------------|
|-------------|-------------|-------------|-------------|
|----------0--|-------------|----------0--|-------------|
|----2--3-----|-------------|----2--3-----|-------------|
|-3-----------|-------------|-3-----------|-------------|
|-------------|-1--0--1--3--|-------------|-1--0--1--3--|
|-------------|-------------|-------------|-------------|


|-------------|-------------|-------------|-------------|
|-------------|-------------|-------------|-------------|
|----------0--|-------------|----------0--|-------------|
|----2--3-----|-------------|----2--3-----|-------------|
|-3-----------|-------------|-3-----------|-------------|
|-------------|-1--0--1--3--|-------------|-1--0--1--3--|
|-------------|-------------|-------------|-------------|


|-------------|-------------|-----------------|---------------|
|-------------|-------------|-----------------|---------------|
|-------------|-------------|-----------------|---------------|
|-------------|-------------|-3-3-3-3-3-3-3-3-|-3-3-3-3-------|
|-0--0--0--0--|-0--0--0--0--|-----------------|---------3-----|
|-------------|-------------|-----------------|------------3--|
|-------------|-------------|-----------------|---------------|


|-------------|-------------|-----------------|---------------|
|-------------|-------------|-----------------|---------------|
|-------------|-------------|-----------------|---------------|
|-------------|-------------|-3-3-3-3-3-3-3-3-|-3-3-3-3-------|
|-0--0--0--0--|-0--0--0--0--|-----------------|---------3-----|
|-------------|-------------|-----------------|------------3--|
|-------------|-------------|-----------------|---------------|


|-------------|-------------|-----------------|---------------|
|-------------|-------------|-----------------|---------------|
|-------------|-------------|-----------------|---------------|
|-------------|-------------|-3-3-3-3-3-3-3-3-|-3-3-3-3-------|
|-0--0--0--0--|-0--0--0--0--|-----------------|---------3-----|
|-------------|-------------|-----------------|------------3--|
|-------------|-------------|-----------------|---------------|


|-------------|-------------|-----------------|-----------------|
|-------------|-------------|-----------------|-----------------|
|-------------|-------------|-----------------|-----------------|
|-------------|-------------|-----------------|-----------------|
|-0--0--0--0--|-0--0--0--0--|-----------------|-----------------|
|-------------|-------------|-3-3-3-3-3-3-3-3-|-3-3-3-3-3-3-3-3-|
|-------------|-------------|-----------------|-----------------|


|--------------|--------------|--------------|--------------|
|--------------|--------------|--------------|--------------|
|--------------|--------------|--------------|--------------|
|--------------|--------------|--------------|--------------|
|-3--2--0------|------------0-|-3--2--0------|------------0-|
|----------3-0-|-1--0--1--3---|----------3-0-|-1--0--1--3---|
|--------------|--------------|--------------|--------------|


|--------------|--------------|--------------|--------------|
|--------------|--------------|--------------|--------------|
|--------------|--------------|--------------|--------------|
|--------------|--------------|--------------|--------------|
|-3--2--0------|------------0-|-3--2--0------|------------0-|
|----------3-0-|-1--0--1--3---|----------3-0-|-1--0--1--3---|
|--------------|--------------|--------------|--------------|


|--------------|--------------|--------------|--------------|
|--------------|--------------|--------------|--------------|
|--------------|--------------|--------------|--------------|
|--------------|--------------|--------------|--------------|
|-3--2--0------|------------0-|-3--2--0------|------------0-|
|----------3-0-|-1--0--1--3---|----------3-0-|-1--0--1--3---|
|--------------|--------------|--------------|--------------|


|--------------|--------------|--------------|--------------|
|--------------|--------------|--------------|--------------|
|--------------|--------------|--------------|--------------|
|--------------|--------------|--------------|--------------|
|-3--2--0------|------------0-|-3--2--0------|------------0-|
|----------3-0-|-1--0--1--3---|----------3-0-|-1--0--1--3---|
|--------------|--------------|--------------|--------------|


|--------------|--------------|--------------|--------------|
|--------------|--------------|--------------|--------------|
|--------------|--------------|--------------|--------------|
|--------------|--------------|--------------|--------------|
|-3--2--0------|------------0-|-3--2--0------|------------0-|
|----------3-0-|-1--0--1--3---|----------3-0-|-1--0--1--3---|
|--------------|--------------|--------------|--------------|


|--------------|--------------|--------------|--------------|
|--------------|--------------|--------------|--------------|
|--------------|--------------|--------------|--------------|
|--------------|--------------|--------------|--------------|
|-3--2--0------|------------0-|-3--2--0------|------------0-|
|----------3-0-|-1--0--1--3---|----------3-0-|-1--0--1--3---|
|--------------|--------------|--------------|--------------|


|-------------|-------------|-------------|-------------|
|-------------|-------------|-------------|-------------|
|----------0--|-------------|----------0--|-------------|
|----2--3-----|-------------|----2--3-----|-------------|
|-3-----------|-------------|-3-----------|-------------|
|-------------|-1--0--1--3--|-------------|-1--0--1--3--|
|-------------|-------------|-------------|-------------|


|-------------|-------------|-------------|-------------|
|-------------|-------------|-------------|-------------|
|----------0--|-------------|----------0--|-------------|
|----2--3-----|-------------|----2--3-----|-------------|
|-3-----------|-------------|-3-----------|-------------|
|-------------|-1--0--1--3--|-------------|-1--0--1--3--|
|-------------|-------------|-------------|-------------|


|-------------|-------------|-----------------|---------------|
|-------------|-------------|-----------------|---------------|
|-------------|-------------|-----------------|---------------|
|-------------|-------------|-3-3-3-3-3-3-3-3-|-3-3-3-3-------|
|-0--0--0--0--|-0--0--0--0--|-----------------|---------3-----|
|-------------|-------------|-----------------|------------3--|
|-------------|-------------|-----------------|---------------|


|-------------|-------------|-----------------|---------------|
|-------------|-------------|-----------------|---------------|
|-------------|-------------|-----------------|---------------|
|-------------|-------------|-3-3-3-3-3-3-3-3-|-3-3-3-3-------|
|-0--0--0--0--|-0--0--0--0--|-----------------|---------3-----|
|-------------|-------------|-----------------|------------3--|
|-------------|-------------|-----------------|---------------|


|-------------|-------------|-----------------|---------------|
|-------------|-------------|-----------------|---------------|
|-------------|-------------|-----------------|---------------|
|-------------|-------------|-3-3-3-3-3-3-3-3-|-3-3-3-3-------|
|-0--0--0--0--|-0--0--0--0--|-----------------|---------3-----|
|-------------|-------------|-----------------|------------3--|
|-------------|-------------|-----------------|---------------|


|-------------|-------------|-----------------|-----------------|
|-------------|-------------|-----------------|-----------------|
|-------------|-------------|-----------------|-----------------|
|-------------|-------------|-----------------|-----------------|
|-0--0--0--0--|-0--0--0--0--|-----------------|-----------------|
|-------------|-------------|-3-3-3-3-3-3-3-3-|-3-3-3-3-3-3-3-3-|
|-------------|-------------|-----------------|-----------------|


|--------------|--------------|--------------|--------------|
|--------------|--------------|--------------|--------------|
|--------------|--------------|--------------|--------------|
|--------------|--------------|--------------|--------------|
|-3--2--0------|------------0-|-3--2--0------|------------0-|
|----------3-0-|-1--0--1--3---|----------3-0-|-1--0--1--3---|
|--------------|--------------|--------------|--------------|


|--------------|--------------|--------------|--------------|
|--------------|--------------|--------------|--------------|
|--------------|--------------|--------------|--------------|
|--------------|--------------|--------------|--------------|
|-3--2--0------|------------0-|-3--2--0------|------------0-|
|----------3-0-|-1--0--1--3---|----------3-0-|-1--0--1--3---|
|--------------|--------------|--------------|--------------|


|--------------|--------------|--------------|--------------|
|--------------|--------------|--------------|--------------|
|--------------|--------------|--------------|--------------|
|--------------|--------------|--------------|--------------|
|-3--2--0------|------------0-|-3--2--0------|------------0-|
|----------3-0-|-1--0--1--3---|----------3-0-|-1--0--1--3---|
|--------------|--------------|--------------|--------------|


|--------------|--------------|--------------|--------------|
|--------------|--------------|--------------|--------------|
|--------------|--------------|--------------|--------------|
|--------------|--------------|--------------|--------------|
|-3--2--0------|------------0-|-3--2--0------|------------0-|
|----------3-0-|-1--0--1--3---|----------3-0-|-1--0--1--3---|
|--------------|--------------|--------------|--------------|


|-------------|-------------|-------------|-------------|
|-------------|-------------|-------------|-------------|
|----------0--|-------------|----------0--|-------------|
|----2--3-----|-------------|----2--3-----|-------------|
|-3-----------|-------------|-3-----------|-------------|
|-------------|-1--0--1--3--|-------------|-1--0--1--3--|
|-------------|-------------|-------------|-------------|


|-------------|-------------|-------------|-------------|
|-------------|-------------|-------------|-------------|
|----------0--|-------------|----------0--|-------------|
|----2--3-----|-------------|----2--3-----|-------------|
|-3-----------|-------------|-3-----------|-------------|
|-------------|-1--0--1--3--|-------------|-1--0--1--3--|
|-------------|-------------|-------------|-------------|


|-------------|-------------|-------------|-------------|
|-------------|-------------|-------------|-------------|
|----------0--|-------------|----------0--|-------------|
|----2--3-----|-------------|----2--3-----|-------------|
|-3-----------|-------------|-3-----------|-------------|
|-------------|-1--0--1--3--|-------------|-1--0--1--3--|
|-------------|-------------|-------------|-------------|


|-------------|-------------|-------------|-------------|
|-------------|-------------|-------------|-------------|
|----------0--|-------------|----------0--|-------------|
|----2--3-----|-------------|----2--3-----|-------------|
|-3-----------|-------------|-3-----------|-------------|
|-------------|-1--0--1--3--|-------------|-1--0--1--3--|
|-------------|-------------|-------------|-------------|


|----------|------------|------------|--------*|
|----------|------------|------------|--------*|
|----------|------------|------------|--------*|
|----------|------------|------------|--------*|
|-3--------|-(3)--------|-(3)--------|-(3)----*|
|----------|------------|------------|--------*|
|----------|------------|------------|--------*|




--------------------------------------------------------------------------------

CHICK MAGNET (RHYTHM GUITAR)
As recorded by MxPx

This is the rhythm part to the song.




Gtr I (E A D G B E) - 'Guitar'


  Q=168
1/4 4/4
  Gtr I
|---|---------|---------|-----|
|---|---------|---------|-----|
|---|---------|---------|-----|
|---|---------|---------|-----|
|---|---------|---------|-----|
|---|---------|---------|-----|


|--------------------|----------|------------|--------|
|--------------------|----------|------------|--------|
|--------------------|-0--------|-(0)--------|-(0)----|
|---5-5--5-5--5-5--5-|-2--------|-(2)--------|-(2)----|
|---3-3--3-3--3-3--3-|-3--------|-(3)--------|-(3)----|
|--------------------|----------|------------|--------|


|------------|----------|------------|--------|
|------------|----------|------------|--------|
|-(0)--------|----------|------------|--------|
|-(2)--------|----------|------------|--------|
|-(3)--------|-3--------|-(3)--------|-(3)----|
|------------|----------|------------|--------|


|------------|---------|---------|-----|
|------------|---------|---------|-----|
|------------|---------|---------|-----|
|------------|---------|---------|-----|
|-(3)--------|---------|---------|-----|
|------------|---------|---------|-----|


|---------|---------|---------|-----|
|---------|---------|---------|-----|
|---------|---------|---------|-----|
|---------|---------|---------|-----|
|---------|---------|---------|-----|
|---------|---------|---------|-----|


|---------|---------|---------|-----|
|---------|---------|---------|-----|
|---------|---------|---------|-----|
|---------|---------|---------|-----|
|---------|---------|---------|-----|
|---------|---------|---------|-----|


|---------|---------|---------|-----|
|---------|---------|---------|-----|
|---------|---------|---------|-----|
|---------|---------|---------|-----|
|---------|---------|---------|-----|
|---------|---------|---------|-----|


|----------|-----------------|-----------------|-----------------|
|----------|-----------------|-----------------|-----------------|
|----------|-----------------|-------------0-0-|-----------------|
|-3--------|-5-5-5-5-5-5-5-5-|-3-3-2-2-3-3-0-0-|-5-5-5-5-5-5-5-5-|
|-3--------|-3-3-3-3-3-3-3-3-|-3-3-2-2-3-3-----|-3-3-3-3-3-3-3-3-|
|-1--------|-----------------|-----------------|-----------------|


|-----------------|-----------------|-----------------|-----------------|
|-----------------|-----------------|-----------------|-----------------|
|-------------0-0-|-----------------|-------------0-0-|-----------------|
|-3-3-2-2-3-3-0-0-|-5-5-5-5-5-5-5-5-|-3-3-2-2-3-3-0-0-|-5-5-5-5-5-5-5-5-|
|-3-3-2-2-3-3-----|-3-3-3-3-3-3-3-3-|-3-3-2-2-3-3-----|-3-3-3-3-3-3-3-3-|
|-----------------|-----------------|-----------------|-----------------|


|-----------------|-------------|-------------|-------------|
|-----------------|-------------|-------------|-------------|
|-------------0-0-|-------------|-------------|-------------|
|-3-3-2-2-3-3-0-0-|-2--2--2--2--|-2--2--2--2--|-3--3--3--3--|
|-3-3-2-2-3-3-----|-0--0--0--0--|-0--0--0--0--|-3--3--3--3--|
|-----------------|-------------|-------------|-------------|


|-------------|-------------|-------------|-------------|
|-------------|-------------|-------------|-------------|
|-------------|-------------|-------------|-------------|
|-3--3--5-----|-2--2--2--2--|-2--2--2--2--|-3--3--3--3--|
|-3--3--3--5--|-0--0--0--0--|-0--0--0--0--|-3--3--3--3--|
|----------3--|-------------|-------------|-------------|


|-------------|-------------|-------------|-------------|
|-------------|-------------|-------------|-------------|
|-------------|-------------|-------------|-------------|
|-3--3--5-----|-2--2--2--2--|-2--2--2--2--|-3--3--3--3--|
|-3--3--3--5--|-0--0--0--0--|-0--0--0--0--|-3--3--3--3--|
|----------3--|-------------|-------------|-------------|


|-------------|-------------|-------------|-----------------|
|-------------|-------------|-------------|-----------------|
|-------------|-------------|-------------|-----------------|
|-3--3--5-----|-2--2--2--2--|-2--2--2--2--|-----------------|
|-3--3--3--5--|-0--0--0--0--|-0--0--0--0--|-5-5-5-5-5-5-5-5-|
|----------3--|-------------|-------------|-3-3-3-3-3-3-3-3-|


|-----------------------------|----------|--------|
|-----------------------------|----------|--------|
|-0-0--0-0-0--0-0-0--0-0-0--0-|-0--------|-(0)----|
|-0-0--0-0-0--0-0-0--0-0-0--0-|-2--------|-(2)----|
|-----------------------------|-3--------|-(3)----|
|-----------------------------|----------|--------|


|------------|------------|---------|-----|
|------------|------------|---------|-----|
|-(0)--------|-(0)--------|---------|-----|
|-(2)--------|-(2)--------|---------|-----|
|-(3)--------|-(3)--------|---------|-----|
|------------|------------|---------|-----|


|---------|---------|---------|-----|
|---------|---------|---------|-----|
|---------|---------|---------|-----|
|---------|---------|---------|-----|
|---------|---------|---------|-----|
|---------|---------|---------|-----|


|---------|---------|---------|-----|
|---------|---------|---------|-----|
|---------|---------|---------|-----|
|---------|---------|---------|-----|
|---------|---------|---------|-----|
|---------|---------|---------|-----|


|---------|---------|---------|-----|
|---------|---------|---------|-----|
|---------|---------|---------|-----|
|---------|---------|---------|-----|
|---------|---------|---------|-----|
|---------|---------|---------|-----|


|---------|---------|---------|-----|
|---------|---------|---------|-----|
|---------|---------|---------|-----|
|---------|---------|---------|-----|
|---------|---------|---------|-----|
|---------|---------|---------|-----|


|---------|----------|-----------------|-----------------|
|---------|----------|-----------------|-----------------|
|---------|----------|-----------------|-------------0-0-|
|---------|-3--------|-5-5-5-5-5-5-5-5-|-3-3-2-2-3-3-0-0-|
|---------|-3--------|-3-3-3-3-3-3-3-3-|-3-3-2-2-3-3-----|
|---------|-1--------|-----------------|-----------------|


|-----------------|-----------------|-----------------|-----------------|
|-----------------|-----------------|-----------------|-----------------|
|-----------------|-------------0-0-|-----------------|-------------0-0-|
|-5-5-5-5-5-5-5-5-|-3-3-2-2-3-3-0-0-|-5-5-5-5-5-5-5-5-|-3-3-2-2-3-3-0-0-|
|-3-3-3-3-3-3-3-3-|-3-3-2-2-3-3-----|-3-3-3-3-3-3-3-3-|-3-3-2-2-3-3-----|
|-----------------|-----------------|-----------------|-----------------|


|-----------------|-----------------|-------------|-------------|
|-----------------|-----------------|-------------|-------------|
|-----------------|-------------0-0-|-------------|-------------|
|-5-5-5-5-5-5-5-5-|-3-3-2-2-3-3-0-0-|-2--2--2--2--|-2--2--2--2--|
|-3-3-3-3-3-3-3-3-|-3-3-2-2-3-3-----|-0--0--0--0--|-0--0--0--0--|
|-----------------|-----------------|-------------|-------------|


|-------------|-------------|-------------|-------------|
|-------------|-------------|-------------|-------------|
|-------------|-------------|-------------|-------------|
|-3--3--3--3--|-3--3--5-----|-2--2--2--2--|-2--2--2--2--|
|-3--3--3--3--|-3--3--3--5--|-0--0--0--0--|-0--0--0--0--|
|-------------|----------3--|-------------|-------------|


|-------------|-------------|-------------|-------------|
|-------------|-------------|-------------|-------------|
|-------------|-------------|-------------|-------------|
|-3--3--3--3--|-3--3--5-----|-2--2--2--2--|-2--2--2--2--|
|-3--3--3--3--|-3--3--3--5--|-0--0--0--0--|-0--0--0--0--|
|-------------|----------3--|-------------|-------------|


|-------------|-------------|-------------|-------------|
|-------------|-------------|-------------|-------------|
|-------------|-------------|-------------|-------------|
|-3--3--3--3--|-3--3--5-----|-2--2--2--2--|-2--2--2--2--|
|-3--3--3--3--|-3--3--3--5--|-0--0--0--0--|-0--0--0--0--|
|-------------|----------3--|-------------|-------------|


|-----------------|-----------------------------|------|
|-----------------|-----------------------------|------|
|-----------------|-0-0--0-0-0--0-0-0--0-0-0--0-|-0----|
|-----------------|-0-0--0-0-0--0-0-0--0-0-0--0-|-2----|
|-5-5-5-5-5-5-5-5-|-----------------------------|-3----|
|-3-3-3-3-3-3-3-3-|-----------------------------|------|


|------------|------------|------------|-----|
|------------|------------|------------|-----|
|-(0)--------|-(0)--------|-(0)--------|-----|
|-(2)--------|-(2)--------|-(2)--------|-----|
|-(3)--------|-(3)--------|-(3)--------|-----|
|------------|------------|------------|-----|


|---------|---------|---------|------|
|---------|---------|---------|------|
|---------|---------|---------|-0----|
|---------|---------|---------|-2----|
|---------|---------|---------|-3----|
|---------|---------|---------|------|


|------------|------------|------------|-----|
|------------|------------|------------|-----|
|-(0)--------|-(0)--------|-(0)--------|-----|
|-(2)--------|-(2)--------|-(2)--------|-----|
|-(3)--------|-(3)--------|-(3)--------|-----|
|------------|------------|------------|-----|


|---------|---------|----------|-----------------|
|---------|---------|----------|-----------------|
|---------|---------|----------|-----------------|
|---------|---------|-3--------|-5-5-5-5-5-5-5-5-|
|---------|---------|-3--------|-3-3-3-3-3-3-3-3-|
|---------|---------|-1--------|-----------------|


|-----------------|-----------------|-----------------|-----------------|
|-----------------|-----------------|-----------------|-----------------|
|-------------0-0-|-----------------|-------------0-0-|-----------------|
|-3-3-2-2-3-3-0-0-|-5-5-5-5-5-5-5-5-|-3-3-2-2-3-3-0-0-|-5-5-5-5-5-5-5-5-|
|-3-3-2-2-3-3-----|-3-3-3-3-3-3-3-3-|-3-3-2-2-3-3-----|-3-3-3-3-3-3-3-3-|
|-----------------|-----------------|-----------------|-----------------|


|-----------------|-----------------|-----------------|-----------------|
|-----------------|-----------------|-----------------|-----------------|
|-------------0-0-|-----------------|-------------0-0-|-----------------|
|-3-3-2-2-3-3-0-0-|-5-5-5-5-5-5-5-5-|-3-3-2-2-3-3-0-0-|-5-5-5-5-5-5-5-5-|
|-3-3-2-2-3-3-----|-3-3-3-3-3-3-3-3-|-3-3-2-2-3-3-----|-3-3-3-3-3-3-3-3-|
|-----------------|-----------------|-----------------|-----------------|


|-----------------|-----------------|-----------------|-----------------|
|-----------------|-----------------|-----------------|-----------------|
|-------------0-0-|-----------------|-------------0-0-|-----------------|
|-3-3-2-2-3-3-0-0-|-5-5-5-5-5-5-5-5-|-3-3-2-2-3-3-0-0-|-5-5-5-5-5-5-5-5-|
|-3-3-2-2-3-3-----|-3-3-3-3-3-3-3-3-|-3-3-2-2-3-3-----|-3-3-3-3-3-3-3-3-|
|-----------------|-----------------|-----------------|-----------------|


|-----------------|-----------------|-----------------|------|
|-----------------|-----------------|-----------------|------|
|-------------0-0-|-----------------|-------------0-0-|------|
|-3-3-2-2-3-3-0-0-|-5-5-5-5-5-5-5-5-|-3-3-2-2-3-3-0-0-|-5----|
|-3-3-2-2-3-3-----|-3-3-3-3-3-3-3-3-|-3-3-2-2-3-3-----|-3----|
|-----------------|-----------------|-----------------|------|


|------------|------------|--------*|
|------------|------------|--------*|
|------------|------------|--------*|
|-(5)--------|-(5)--------|-(5)----*|
|-(3)--------|-(3)--------|-(3)----*|
|------------|------------|--------*|




--------------------------------------------------------------------------------


Tablature Legend
----------------
h   - hammer-on
p   - pull-off
b   - bend
pb  - pre-bend
r   - bend release (if no number after the r, then release immediately)
/\  - slide into or out of (from/to "nowhere")
s   - legato slide
S   - shift slide
 - natural harmonic
[n]  - artificial harmonic
n(n) - tapped harmonic
~   - vibrato
tr  - trill
T   - tap
TP  - trem. picking
PM  - palm muting
\n/  - tremolo bar dip; n = amount to dip
\n  - tremolo bar down
n/  - tremolo bar up
/n\  - tremolo bar inverted dip
=   - hold bend; also acts as connecting device for hammers/pulls
<> - volume swell (louder/softer)
x   - on rhythm slash represents muted slash
o   - on rhythm slash represents single note slash

Misc Legend
-----------
|  - bar
||  - double bar
||o - repeat start
o|| - repeat end
*|  - double bar (ending)
:  - bar (freetime)
$  - Segno
&  - Coda



_________________________________________________________________
Get your FREE download of MSN Explorer at http://explorer.msn.com/intl.asp



comments
print report bad tab
4 comments total. Showing first comments.
0 reply
nfg_gc_chick41 wrote on April 23 2002, 12:00 am

Ah!!!!!!!!!!! It's the curse of the extremely long and complex tab!!!!

0 reply
fuzzey82 wrote on April 4 2003, 12:00 am

damn we dont need 20 pgs of bass

0 reply
PhantomWuss95 wrote on March 18 2006, 01:18 pm

uhm?

I want to post or [tab]
guest
You may want to rate the tab now too:
select rating
Please do not post tabs as comments. Select "correction" instead!