Oops, an error
Loading. Please wait.

Do Your Feet Hurt Tab

by Mxpx
ver2
ver2

Whole song

Interactive

More versions @911Tabs.com
2,797 views 6 this week
1 commentread comment
1 2 3 4 5
excellent!
x 4
add to favorites launch autoscroll
font size
0
reset
Autoscroll
+/-
esc
set tempo
stop
Contributor
WARNING: You are trying to view
                                    content from Ultimate-Guitar.com
                                    in an unauthorized application,
                                    which is prohibited.

                                    Please use an official Ultimate
                                    Guitar Tabs application for iPhone,
                                    iPad or Android to access legitimate
                                    chords, guitar, bass, and drum tabs
                                    from Ultimate-Guitar.com database.

                                    Type "ultimate guitar tabs" in Apple
                                    App Store's or Android Market's
                                    search to find the application.
---------------------------------------------------------------
                  Do Your Feet Hurt(CRITTER VERSION)- MXPX
---------------------------------------------------------------
Tabbed by:nOfxMike
Email:someone028@excite.com
album:from the "life in general" pre-release teaser.
Tuning:standard
Verse 1:
                                            Can I call you
e|------------------------------------------|
B|------------------------------------------|
G|------------------------------------------|
D|-----------------------------0------------|
A|--1-1---1-1-0-------0--1--3-----3---0-----|
E|----------------3-----------------------1-|

   sweet     heart             
e|-------------------------------------|
B|-------------------------------------|
G|-------------------------------------|
D|--7-7---7--7-7---7--7-7---7--7-7---7-|
A|--7-7---7--7-7---7--7-7---7--7-7---7-|
E|--5-5---5--5-5---5--5-5---5--5-5---5-|
    ^        ^        ^        ^            
          or         even   baby     
e|-------------------------------------|
B|-------------------------------------|
G|--7-7---7--7-7---7--7-7---7--7-7---7-|
D|--7-7---7--7-7---7--7-7---7--7-7---7-|
A|--5-5---5--5-5---5--5-5---5--5-5---5-|
E|-------------------------------------|
    ^        ^        ^        ^       
   doll           
e|------------------------------------------|
B|------------------------------------------|
G|------------------------------------------|
D|-----------------------------0------------|
A|--1-1---1-1-0-------0--1--3-----3---0-----|
E|----------------3-----------------------1-|

if I had your num-
e|--------------------------------------|
B|--------------------------------------|
G|--------------------------------------|
D|---3-3---3--3-3---3--3-3---3--3-3---3-|
A|---3-3---3--3-3---3--3-3---3--3-3---3-|
E|---1-1---1--1-1---1--1-1---1--1-1---1-|
    ber                 
e|-------------------------------------|
B|-------------------------------------|
G|-------------------------------------|
D|--7-7---7--7-7---7--7-7---7--7-7---7-|
A|--7-7---7--7-7---7--7-7---7--7-7---7-|
E|--5-5---5--5-5---5--5-5---5--5-5---5-|
    ^        ^        ^        ^   
    You'd be getting a           phone     
e|-------------------------------------|
B|-------------------------------------|
G|--7-7---7--7-7---7--7-7---7--7-7---7-|
D|--7-7---7--7-7---7--7-7---7--7-7---7-|
A|--5-5---5--5-5---5--5-5---5--5-5---5-|
E|-------------------------------------|

call
e|------------------------------------------|
B|------------------------------------------|
G|------------------------------------------|
D|-----------------------------0------------|
A|--1-1---1-1-0-------0--1--3-----3---0-----|
E|----------------3-----------------------1-|

 Guitar stabs this chord
e|------|
B|------|
G|--5---|
D|--5---|
A|--3---|
E|------|
    .

              Can i leave you a message
e|--------------------------------------|
B|--------------------------------------|
G|--------------------------------------|
D|---3-3---3--3-3---3--3-3---3--3-3---3-|
A|---3-3---3--3-3---3--3-3---3--3-3---3-|
E|---1-1---1--1-1---1--1-1---1--1-1---1-|

    message                 
e|-------------------------------------|
B|-------------------------------------|
G|-------------------------------------|
D|--7-7---7--7-7---7--7-7---7--7-7---7-|
A|--7-7---7--7-7---7--7-7---7--7-7---7-|
E|--5-5---5--5-5---5--5-5---5--5-5---5-|
                      on your mach     
e|-------------------------------------|
B|-------------------------------------|
G|--7-7---7--7-7---7--7-7---7--7-7---7-|
D|--7-7---7--7-7---7--7-7---7--7-7---7-|
A|--5-5---5--5-5---5--5-5---5--5-5---5-|
E|-------------------------------------|
   -ine
e|------------------------------------------|
B|------------------------------------------|
G|------------------------------------------|
D|-----------------------------0------------|
A|--1-1---1-1-0-------0--1--3-----3---0-----|
E|----------------3-----------------------1-|

              Letting you know      that 
e|--------------------------------------|
B|--------------------------------------|
G|--------------------------------------|
D|---3-3---3--3-3---3--3-3---3--3-3---3-|
A|---3-3---3--3-3---3--3-3---3--3-3---3-|
E|---1-1---1--1-1---1--1-1---1--1-1---1-|

     you're            the     bomb
e|-------------------------------------|
B|-------------------------------------|
G|-------------------------------------|
D|--7-7---7--7-7---7--7-7---7--7-7---7-|
A|--7-7---7--7-7---7--7-7---7--7-7---7-|
E|--5-5---5--5-5---5--5-5---5--5-5---5-|

                      And you blew up on 
e|-------------------------------------|
B|-------------------------------------|
G|--7-7---7--7-7---7--7-7---7--7-7---7-|
D|--7-7---7--7-7---7--7-7---7--7-7---7-|
A|--5-5---5--5-5---5--5-5---5--5-5---5-|
E|-------------------------------------|
    me
e|------------------------------------------|
B|------------------------------------------|
G|------------------------------------------|
D|-----------------------------0------------|
A|--1-1---1-1-0-------0--1--3-----3---0-----|
E|----------------3-----------------------1-|

Bridge:

                    Are you anxious to 
e|--------------------------------------|
B|--------------------------------------|
G|---5-5---5--5-5---5--5-5---5--5-5---5-|
D|---5-5---5--5-5---5--5-5---5--5-5---5-|
A|---3-3---3--3-3---3--3-3---3--3-3---3-|
E|--------------------------------------|
      see me            
e|--------------------------------------|
B|--------------------------------------|
G|---3-3---3--3-3---3--3-3---3--3-3---3-|
D|---3-3---3--3-3---3--3-3---3--3-3---3-|
A|---1-1---1--1-1---1--1-1---1--1-1---1-|
E|--------------------------------------|
                   After your next
e|-------------------------------------|
B|-------------------------------------|
G|-------------------------------------|
D|--7-7---7--7-7---7--7-7---7--7-7---7-|
A|--7-7---7--7-7---7--7-7---7--7-7---7-|
E|--5-5---5--5-5---5--5-5---5--5-5---5-|

    class?
e|-----------------------------------|
B|-----------------------------------|
G|--7----------------5---------------|
D|--7----------------5---------------|
A|--5----------------3---------------|
E|-----------------------------------|

                    Do you care when i 
e|--------------------------------------|
B|--------------------------------------|
G|---3-3---3--3-3---3--3-3---3--3-3---3-|
D|---3-3---3--3-3---3--3-3---3--3-3---3-|
A|---1-1---1--1-1---1--1-1---1--1-1---1-|
E|--------------------------------------|
     tell    you
e|--------------------------------------|
B|--------------------------------------|
G|---5-5---5--5-5---5--5-5---5--5-5---5-|
D|---5-5---5--5-5---5--5-5---5--5-5---5-|
A|---3-3---3--3-3---3--3-3---3--3-3---3-|
E|--------------------------------------|

       Step    around     that    bro- ken        glass?
e|--------------------------------------------------------------|
B|--------------------------------------------------------------|
G|--------------------------------3--3-3-3-3-3-3--5--5-5-5-5-5-5|
D|--7---7-7-7-7-7-7-7-7-7-7-7-7-7-3--3-3-3-3-3-3--5--5-5-5-5-5-5|
A|--7---7-7-7-7-7-7-7-7-7-7-7-7-7-1--1-1-1-1-1-1--3--3-3-3-3-3-3|
E|--5---5-5-5-5-5-5-5-5-5-5-5-5-5-------------------------------|
     PM|-------------------------|  |-----------|   |-----------|

Verse 2:
                     Can i see you
e|--------------------------------|
B|--------------------------------|
G|--------------------------------|
D|--3---3-3-3-3-3-3-3-3-3-3-3-3-3-|
A|--3---3-3-3-3-3-3-3-3-3-3-3-3-3-|
E|--1---1-1-1-1-1-1-1-1-1-1-1-1-1-|
     PM|-------------------------|

    af-    ter                   
e|-------------------------------------|
B|-------------------------------------|
G|-------------------------------------|
D|--7-7---7--7-7---7--7-7---7--7-7---7-|
A|--7-7---7--7-7---7--7-7---7--7-7---7-|
E|--5-5---5--5-5---5--5-5---5--5-5---5-|

             you      get      out  of 
e|-------------------------------------|
B|-------------------------------------|
G|--7-7---7--7-7---7--7-7---7--7-7---7-|
D|--7-7---7--7-7---7--7-7---7--7-7---7-|
A|--5-5---5--5-5---5--5-5---5--5-5---5-|
E|-------------------------------------|

school
e|------------------------------------------|
B|------------------------------------------|
G|------------------------------------------|
D|-----------------------------0------------|
A|--1-1---1-1-0-------0--1--3-----3---0-----|
E|----------------3-----------------------1-|

                       I won't even  
e|--------------------------------|
B|--------------------------------|
G|--------------------------------|
D|--3---3-3-3-3-3-3-3-3-3-3-3-3-3-|
A|--3---3-3-3-3-3-3-3-3-3-3-3-3-3-|
E|--1---1-1-1-1-1-1-1-1-1-1-1-1-1-|
     PM|-------------------------|

mind if
e|-------------------------------------|
B|-------------------------------------|
G|-------------------------------------|
D|--7-7---7--7-7---7--7-7---7--7-7---7-|
A|--7-7---7--7-7---7--7-7---7--7-7---7-|
E|--5-5---5--5-5---5--5-5---5--5-5---5-|
                   you       treat    me 
e|-------------------------------------|
B|-------------------------------------|
G|--7-7---7--7-7---7--7-7---7--7-7---7-|
D|--7-7---7--7-7---7--7-7---7--7-7---7-|
A|--5-5---5--5-5---5--5-5---5--5-5---5-|
E|-------------------------------------|

    cruel
e|------------------------------------------|
B|------------------------------------------|
G|------------------------------------------|
D|-----------------------------0------------|
A|--1-1---1-1-0-------0--1--3-----3---0-----|
E|----------------3-----------------------1-|

Guitar stabs this chord
e|------|
B|------|
G|--5---|
D|--5---|
A|--3---|
E|------|
    .

                       Take a ride on my
e|--------------------------------------|
B|--------------------------------------|
G|--------------------------------------|
D|---3-3---3--3-3---3--3-3---3--3-3---3-|
A|---3-3---3--3-3---3--3-3---3--3-3---3-|
E|---1-1---1--1-1---1--1-1---1--1-1---1-|

    vespa
e|-------------------------------------|
B|-------------------------------------|
G|-------------------------------------|
D|--7-7---7--7-7---7--7-7---7--7-7---7-|
A|--7-7---7--7-7---7--7-7---7--7-7---7-|
E|--5-5---5--5-5---5--5-5---5--5-5---5-|

                    i'll take you 
e|-------------------------------------|
B|-------------------------------------|
G|--7-7---7--7-7---7--7-7---7--7-7---7-|
D|--7-7---7--7-7---7--7-7---7--7-7---7-|
A|--5-5---5--5-5---5--5-5---5--5-5---5-|
E|-------------------------------------|
    HOme
e|------------------------------------------|
B|------------------------------------------|
G|------------------------------------------|
D|-----------------------------0------------|
A|--1-1---1-1-0-------0--1--3-----3---0-----|
E|----------------3-----------------------1-|

                   I'll climb up to your 
e|--------------------------------------|
B|--------------------------------------|
G|--------------------------------------|
D|---3-3---3--3-3---3--3-3---3--3-3---3-|
A|---3-3---3--3-3---3--3-3---3--3-3---3-|
E|---1-1---1--1-1---1--1-1---1--1-1---1-|

    window                             
e|-------------------------------------|
B|-------------------------------------|
G|-------------------------------------|
D|--7-7---7--7-7---7--7-7---7--7-7---7-|
A|--7-7---7--7-7---7--7-7---7--7-7---7-|
E|--5-5---5--5-5---5--5-5---5--5-5---5-|

                      and read you a   
e|-------------------------------------|
B|-------------------------------------|
G|--7-7---7--7-7---7--7-7---7--7-7---7-|
D|--7-7---7--7-7---7--7-7---7--7-7---7-|
A|--5-5---5--5-5---5--5-5---5--5-5---5-|
E|-------------------------------------|
    poem
e|------------------------------------------|
B|------------------------------------------|
G|------------------------------------------|
D|-----------------------------0------------|
A|--1-1---1-1-0-------0--1--3-----3---0-----|
E|----------------3-----------------------1-|


 Bridge:
                   Are you anxious to 
e|--------------------------------------|
B|--------------------------------------|
G|---5-5---5--5-5---5--5-5---5--5-5---5-|
D|---5-5---5--5-5---5--5-5---5--5-5---5-|
A|---3-3---3--3-3---3--3-3---3--3-3---3-|
E|--------------------------------------|
      see me            
e|--------------------------------------|
B|--------------------------------------|
G|---3-3---3--3-3---3--3-3---3--3-3---3-|
D|---3-3---3--3-3---3--3-3---3--3-3---3-|
A|---1-1---1--1-1---1--1-1---1--1-1---1-|
E|--------------------------------------|
                   After your next
e|-------------------------------------|
B|-------------------------------------|
G|-------------------------------------|
D|--7-7---7--7-7---7--7-7---7--7-7---7-|
A|--7-7---7--7-7---7--7-7---7--7-7---7-|
E|--5-5---5--5-5---5--5-5---5--5-5---5-|

    class?
e|-----------------------------------|
B|-----------------------------------|
G|--7----------------5---------------|
D|--7----------------5---------------|
A|--5----------------3---------------|
E|-----------------------------------|
                    Do you care when i 
e|--------------------------------------|
B|--------------------------------------|
G|---3-3---3--3-3---3--3-3---3--3-3---3-|
D|---3-3---3--3-3---3--3-3---3--3-3---3-|
A|---1-1---1--1-1---1--1-1---1--1-1---1-|
E|--------------------------------------|
     tell    you
e|--------------------------------------|
B|--------------------------------------|
G|---5-5---5--5-5---5--5-5---5--5-5---5-|
D|---5-5---5--5-5---5--5-5---5--5-5---5-|
A|---3-3---3--3-3---3--3-3---3--3-3---3-|
E|--------------------------------------|

       Step    around     that    bro- ken        glass?
e|--------------------------------------------------------------|
B|--------------------------------------------------------------|
G|--------------------------------3--3-3-3-3-3-3--5--5-5-5-5-5-5|
D|--7---7-7-7-7-7-7-7-7-7-7-7-7-7-3--3-3-3-3-3-3--5--5-5-5-5-5-5|
A|--7---7-7-7-7-7-7-7-7-7-7-7-7-7-1--1-1-1-1-1-1--3--3-3-3-3-3-3|
E|--5---5-5-5-5-5-5-5-5-5-5-5-5-5-------------------------------|
     PM|-------------------------|  |-----------|   |-----------|

THen Pre-Chorus:
       I know that you believe 
e|---------------------------|
B|---------------------------|
G|-----------------7---------|
D|---3-------------7---------|
A|---3-------------5---------|
E|---1-----------------------|

         in the    one true God a-bove 
e|---------------------------------|
B|---------------------------------|
G|-----------------3--------5------|
D|---5-------------3--------5-----3|
A|---5-------------1--------3-----3|
E|---3----------------------------1|

     And that's why you're waiting
e|-----------------------------------|
B|-----------------------------------|
G|-------------------------7---------|
D|---(3)-------------------7---------|
A|---(3)-------------------5---------|
E|---(1)-----------------------------|
       For your    one and only love
e|---------------------------------|
B|---------------------------------|
G|-----------------3--------5-----3|
D|---5-------------3--------5-----3|
A|---5-------------1--------3-----1|
E|---3----------------------------1|


Chorus:
                     Do your feet hurt?
e|----------------------------------------------------|
B|----------------------------------------------------|
G|--3--3--3--3--3--3--3--3--5--5--5--5--5--5--5--5--5-|
D|--3--3--3--3--3--3--3--3--5--5--5--5--5--5--5--5--5-|
A|--1--1--1--1--1--1--1--1--3--3--3--3--3--3--3--3--3-|
E|----------------------------------------------------|

PM |--------------------------------------------------|

           did you fall from heaven?
e|----------------------------------------------------|
B|----------------------------------------------------|
G|--------------------------7--7--7--7--7--7--7--7--7-|
D|--3--3--3--3--3--3--3--3--7--7--7--7--7--7--7--7--7-|
A|--3--3--3--3--3--3--3--3--5--5--5--5--5--5--5--5--5-|
E|--1--1--1--1--1--1--1--1----------------------------|

PM |--------------------------------------------------|

         'cause you've been running         through my
e|----------------------------------------------------|
B|----------------------------------------------------|
G|--3--3--3--3--3--3--3--3--5--5--5--5--5--5--5--5--5-|
D|--3--3--3--3--3--3--3--3--5--5--5--5--5--5--5--5--5-|
A|--1--1--1--1--1--1--1--1--3--3--3--3--3--3--3--3--3-|
E|----------------------------------------------------|

PM |--------------------------------------------------|


    mind     all      day            
e|-------------------------------------|
B|-------------------------------------|
G|-------------------------------------|
D|--7-7---7--7-7---7--7-7---7--7-7---7-|
A|--7-7---7--7-7---7--7-7---7--7-7---7-|
E|--5-5---5--5-5---5--5-5---5--5-5---5-|
    ^        ^        ^        ^      
             My       mind        don't    
e|-------------------------------------|
B|-------------------------------------|
G|--7-7---7--7-7---7--7-7---7--7-7---7-|
D|--7-7---7--7-7---7--7-7---7--7-7---7-|
A|--5-5---5--5-5---5--5-5---5--5-5---5-|
E|-------------------------------------|
    mind
e|------------------------------------------|
B|------------------------------------------|
G|------------------------------------------|
D|-----------------------------0------------|
A|--1-1---1-1-0-------0--1--3-----3---0-----|
E|----------------3-----------------------1-|


extension:

                     I don't   know     what           to say or 
e|-------------------------------------------------------------|
B|-------------------------------------------------------------|
G|--------------------------------5-5-5-5-5-5-5-5-5-5-5-5-5-5-5|
D|--3-3-3-3-3-3-3-3-3-3-3-3-3-3-3-5-5-5-5-5-5-5-5-5-5-5-5-5-5-5|
A|--3-3-3-3-3-3-3-3-3-3-3-3-3-3-3-3-3-3-3-3-3-3-3-3-3-3-3-3-3-3|
E|--1-1-1-1-1-1-1-1-1-1-1-1-1-1-1------------------------------|
    ^     ^     ^     ^     ^     ^     ^     ^     ^     ^

    do                 I can't   eat when    i'm      with 
e|--------------------------------------------------------|
B|--------------------------------------------------------|
G|--7-7-7-7-7-7-7-7-7-7-7-7-7-7-7-3-3-3-3-3-3-5-5-5-5-5-5-|
D|--7-7-7-7-7-7-7-7-7-7-7-7-7-7-7-3-3-3-3-3-3-5-5-5-5-5-5-|
A|--5-5-5-5-5-5-5-5-5-5-5-5-5-5-5-1-1-1-1-1-1-3-3-3-3-3-3-|
E|--------------------------------------------------------|
    ^     ^     ^     ^     ^     ^     ^     ^     ^     

    you           Goodnight sweet-heart               i   got-ta  
e|-------------------------------------------------------------|
B|-------------------------------------------------------------|
G|--------------------------------5-5-5-5-5-5-5-5-5-5-5-5-5-5-5|
D|--3-3-3-3-3-3-3-3-3-3-3-3-3-3-3-5-5-5-5-5-5-5-5-5-5-5-5-5-5-5|
A|--3-3-3-3-3-3-3-3-3-3-3-3-3-3-3-3-3-3-3-3-3-3-3-3-3-3-3-3-3-3|
E|--1-1-1-1-1-1-1-1-1-1-1-1-1-1-1------------------------------|
    ^     ^     ^     ^     ^     ^     ^     ^     ^     ^
  go                And you won't come    to  my    next 
e|--------------------------------------------------------|
B|--------------------------------------------------------|
G|--7-7-7-7-7-7-7-7-7-7-7-7-7-7-7-3-3-3-3-3-3-5-5-5-5-5-5-|
D|--7-7-7-7-7-7-7-7-7-7-7-7-7-7-7-3-3-3-3-3-3-5-5-5-5-5-5-|
A|--5-5-5-5-5-5-5-5-5-5-5-5-5-5-5-1-1-1-1-1-1-3-3-3-3-3-3-|
E|--------------------------------------------------------|
    ^     ^     ^     ^     ^     ^     ^     ^     ^     
show?
e|----|
B|----|
G|----|
D|--3-|
A|--3-|
E|--1-|
    ^
Let ring

| ^  accent
| .  staccato
| /  slide up
| \  slide down
| h  hammer-on
| p  pull-off
| ~  vibrato
| *  harmonic
| x  Mute note
comments
print report bad tab
1 comment total.
+1 reply
punk rock mike wrote on May 13 2012, 04:41 pm

Good job.

I want to post or [tab]
guest
You may want to rate the tab now too:
select rating
Please do not post tabs as comments. Select "correction" instead!