Oops, an error
Loading. Please wait.

Far Away Tab

by Mxpx
1,383 views 1 this week
1 commentread comment
1 2 3 4 5
please rate
Autoscroll
+/-
esc
set tempo
stop
Contributor
Difficulty
intermediate
Hey! There's an official Ultimate Guitar app which is ideal
for learning songs when you're away from computer. Get the app
WARNING: You are trying to view
                                    content from Ultimate-Guitar.com
                                    in an unauthorized application,
                                    which is prohibited.

                                    Please use an official Ultimate
                                    Guitar Tabs application for iPhone,
                                    iPad or Android to access legitimate
                                    chords, guitar, bass, and drum tabs
                                    from Ultimate-Guitar.com database.

                                    Type "ultimate guitar tabs" in Apple
                                    App Store's or Android Market's
                                    search to find the application.
-------------------------------------------------------------------------------
                                                         FAR AWAY - MxPx
-------------------------------------------------------------------------------

Year: 2012

Album: Plans Within Plans 

Track: 9

Tabbed by: Punk Rock Mike

Tuning: Standard


************************************

| /   slide up
| \   slide down
| h   hammer-on
| p   pull-off
| ~   vibrato
| +   harmonic
| x   Mute note
| b   Bend
| *   Palm Mute

************************************


Intro
e|-----------------------------------------------------------------------------|
B|-----------------------------------------------------------------------------|
G|-----------------------------------------------------------------------------|
D|--5-2~~~~~~~~~~~-5-2----Pick-Slide-------------------------------------------|
A|--5-2~~~~~~~~~~~-5-2---------------------------------------------------------|
E|--3-0~~~~~~~~~~~-3-0---------------------------------------------------------|

Main Riff/Solo 1 (Guitar 1)
e|-----------------------------------------------------------------------------|
B|-------------13-12-13h15-13-12-----------------------------------------------|
G|--/12-11-12--0--0--0-----0--0--12-11-11\9~-9b-7b-----------------------------|
D|---0--0--0---------------------0--0--0-----------9b--------------------------|
A|-----------------------------------------------------------------------------|
E|-----------------------------------------------------------------------------|
 |
 |
 |(Guitar 2)
e|-----------------------------------------------------------------------------|
B|-----------------------------------------------------------------------------|
G|---------------5----------------------------5---7----------------------------|
D|--5-2~~~~~~~~~-5-5~~~~~~~~~~-5-2~~~~~~~~~~~-5-5-7----------------------------|
A|--5-2~~~~~~~~~-3-5~~~~~~~~~~-5-2~~~~~~~~~~~-3-5-5----------------------------|
E|--3-0~~~~~~~~~---3~~~~~~~~~~-3-0~~~~~~~~~~~---3------------------------------|

(Guitar 1)
e|------------------------------12b--12b-10------------------------------------|
B|------------13-12-13h15-13-12-------------12-10-12b-12b-10-------------------|
G|--/12-11-12-0--0--0-----0--0-------------------------------12-11-9-9-7-7\4---|
D|---0--0--0-------------------------------------------------------------------|
A|-----------------------------------------------------------------------------|
E|-----------------------------------------------------------------------------|
 |
 |
 |(Guitar 2)
e|-----------------------------------------------------------------------------|
B|-----------------------------------------------------------------------------|
G|---------------5----------------------------5---7----------------------------|
D|--5-2~~~~~~~~~-5-5~~~~~~~~~~-5-2~~~~~~~~~~~-5-5-7----------------------------|
A|--5-2~~~~~~~~~-3-5~~~~~~~~~~-5-2~~~~~~~~~~~-3-5-5----------------------------|
E|--3-0~~~~~~~~~---3-----------3-0~~~~~~~~~~~---3------------------------------|

Verse
e|-----------------------------------------------------------------------------|
B|-----------------------------------------------------------------------------|
G|---------------555555/121212121212--------------555555/121212121212----------|
D|--222222222222-555555/121212121212-222222222222-555555/121212121212----------|
A|--222222222222-333333/101010101010-222222222222-333333/101010101010----------|
E|--000000000000---------------------000000000000------------------------------|

e|-----------------------------------------------------------------------------|
B|-----------------------------------------------------------------------------|
G|--777777777777-555555---------777777777777-555555----------------------------|
D|--777777777777-555555-5555555-777777777777-555555-555555---------------------|
A|--555555555555-333333-5555555-555555555555-333333-555555---------------------|
E|----------------------3333333---------------------333333---------------------|

e|-----------------------------------------------------------------------------|
B|-----------------------------------------------------------------------------|
G|--777777777777777777777777--------555555---------------------777777----------|
D|--777777777777777777777777-555555-555555-555555555555-555555-777777----------|
A|--555555555555555555555555-555555-333333-555555555555-555555-555555----------|
E|---------------------------333333--------333333333333-333333-----------------|

e|-----------------------------------------------------------------------------|
B|-----------------------------------------------------------------------------|
G|-----------------------777777/121212121212121212121212-----------------------|
D|--555555555555-5555555-777777/x-x-x-x-x-x-x-x-x-x-x-x------------------------|
A|--555555555555-5555555-555555/101010101010101010101010-----------------------|
E|--333333333333-3333333-------------------------------------------------------|

e|-----------------------------------------------------------------------------|
B|-----------------------------------------------------------------------------|
G|--777777777777777777777777---------------------------------------------------|
D|--777777777777777777777777---------------------------------------------------|
A|--555555555555555555555555---------------------------------------------------|
E|-----------------------------------------------------------------------------|

Main Riff/Solo 2 (Guitar 1)
e|-----------------------------------------------------------------------------|
B|-------------13-12-13h15-13-12----------------------10----12b-12~------------|
G|--/12-11-12--0--0--0-----0--0--12-11-11\9~-12-11-12----12--------------------|
D|---0--0--0---------------------0--0--0---------------------------------------|
A|-----------------------------------------------------------------------------|
E|-----------------------------------------------------------------------------|
 |
 |
 |(Guitar 2)
e|-----------------------------------------------------------------------------|
B|-----------------------------------------------------------------------------|
G|---------------5----------------------------5---7----------------------------|
D|--5-2~~~~~~~~~-5-5~~~~~~~~~~-5-2~~~~~~~~~~~-5-5-7----------------------------|
A|--5-2~~~~~~~~~-3-5~~~~~~~~~~-5-2~~~~~~~~~~~-3-5-5----------------------------|
E|--3-0~~~~~~~~~---3~~~~~~~~~~-3-0~~~~~~~~~~~---3------------------------------|

Verse
e|-----------------------------------------------------------------------------|
B|-----------------------------------------------------------------------------|
G|---------------555555/121212121212--------------555555/121212121212----------|
D|--222222222222-555555/121212121212-222222222222-555555/121212121212----------|
A|--222222222222-333333/101010101010-222222222222-333333/101010101010----------|
E|--000000000000---------------------000000000000------------------------------|

e|-----------------------------------------------------------------------------|
B|-----------------------------------------------------------------------------|
G|--777777777777-555555---------777777777777-555555----------------------------|
D|--777777777777-555555-5555555-777777777777-555555-555555---------------------|
A|--555555555555-333333-5555555-555555555555-333333-555555---------------------|
E|----------------------3333333---------------------333333---------------------|

e|-----------------------------------------------------------------------------|
B|-----------------------------------------------------------------------------|
G|--777777777777777777777777--------555555---------------------777777----------|
D|--777777777777777777777777-555555-555555-555555555555-555555-777777----------|
A|--555555555555555555555555-555555-333333-555555555555-555555-555555----------|
E|---------------------------333333--------333333333333-333333-----------------|

e|-----------------------------------------------------------------------------|
B|-----------------------------------------------------------------------------|
G|-----------------------777777/121212121212121212121212-----------------------|
D|--555555555555-5555555-777777/x-x-x-x-x-x-x-x-x-x-x-x------------------------|
A|--555555555555-5555555-555555/101010101010101010101010-----------------------|
E|--333333333333-3333333-------------------------------------------------------|

e|-----------------------------------------------------------------------------|
B|-----------------------------------------------------------------------------|
G|--777777777777777777777777---------------------------------------------------|
D|--777777777777777777777777---------------------------------------------------|
A|--555555555555555555555555---------------------------------------------------|
E|-----------------------------------------------------------------------------|

Main Riff/Solo 3 (Guitar 1)
e|----------------------------------------8b-8b-8b-10b-10b-10b-12b-12b-10b-12\-|
B|-----------13-12-13h15-13-12-------------------------------------------------|
G|-/12-11-12-0--0--0-----0--0--12-11-11\9~-------------------------------------|
D|--0--0--0--------------------0--0--0-----------------------------------------|
A|-----------------------------------------------------------------------------|
E|-----------------------------------------------------------------------------|
 |
 |
 |(Guitar 2)
e|-----------------------------------------------------------------------------|
B|-----------------------------------------------------------------------------|
G|---------------5--------------------------5--5--5--7--7--7-------------------|
D|--5-2~~~~~~~~~-5-5~~~~~~~~~~-5-2~~~~~~~~~-5--5--5--7--7--7--5--2--2--2-------|
A|--5-2~~~~~~~~~-3-5~~~~~~~~~~-5-2~~~~~~~~~-3--3--3--5--5--5--5--2--2--2-------|
E|--3-0~~~~~~~~~---3~~~~~~~~~~-3-0~~~~~~~~~-------------------3--0--0--0-------|

Breakdown
e|-----------------------------------------------------------------------------|
B|-----------------------------------------------------------------------------|
G|--5--5--5---------------------3--3--3----------------------------------------| 2x
D|--5--5--5--5--5--5-5-2--2--2--3--3--3--3--3--3-3-2--2--2---------------------|
A|--3--3--3--5--5--5-5-2--2--2--1--1--1--3--3--3-3-2--2--2---------------------|
E|-----------3--3--3-3-0--0--0-----------1--1--1-1-0--0--0---------------------|

Bride/Bass Solo
e|-----------------------------------------------------------------------------|
B|-----------------------------------------------------------------------------|
G|--5~~~~~-7~~~~~-9~~~~~~~~~~-5~~~~~~~~~~---------7~~~~~~-9~~~~~~~~~~~---------|
D|--5~~~~~-7~~~~~-9~~~~~~~~~~-5~~~~~~~~~~-5~~~~~~-7~~~~~~-9~~~~~~~~~~~---------|
A|--3~~~~~-5~~~~~-7~~~~~~~~~~-3~~~~~~~~~~-5~~~~~~-5~~~~~~-7~~~~~~~~~~~---------|
E|----------------------------------------3~~~~~~------------------------------|

e|-----------------------------------------------------------------------------|
B|-----------------------------------------------------------------------------|
G|--5~~~~~~~~~~---------7~~~~~~------------------------------------------------|
D|--5~~~~~~~~~~-5~~~~~~-7~~~~~~------------------------------------------------|
A|--3~~~~~~~~~~-5~~~~~~-5~~~~~~------------------------------------------------|
E|--------------3~~~~~~--------------------------------------------------------|

Main Riff/Solo 1 (Guitar 1)
e|-----------------------------------------------------------------------------|
B|-------------13-12-13h15-13-12-----------------------------------------------|
G|--/12-11-12--0--0--0-----0--0--12-11-11\9--9b-7b-----------------------------|
D|---0--0--0---------------------0--0--0-----------9b--------------------------|
A|-----------------------------------------------------------------------------|
E|-----------------------------------------------------------------------------|
 |
 |
 |(Guitar 2)
e|-----------------------------------------------------------------------------|
B|-----------------------------------------------------------------------------|
G|---------------5----------------------------5---7----------------------------|
D|--5-2~~~~~~~~~-5-5~~~~~~~~~~-5-2~~~~~~~~~~~-5-5-7----------------------------|
A|--5-2~~~~~~~~~-3-5~~~~~~~~~~-5-2~~~~~~~~~~~-3-5-5----------------------------|
E|--3-0~~~~~~~~~---3~~~~~~~~~~-3-0~~~~~~~~~~~---3------------------------------|

(Guitar 1)
e|------------------------------12b--12b-10------------------------------------|
B|------------13-12-13h15-13-12-------------12-10-12b-12b-10-------------------|
G|--/12-11-12-0--0--0-----0--0-------------------------------12-11-9-9-7-7-9~~~|
D|---0--0--0-------------------------------------------------------------------|
A|-----------------------------------------------------------------------------|
E|-----------------------------------------------------------------------------|
 |
 |
 |(Guitar 2)
e|-----------------------------------------------------------------------------|
B|-----------------------------------------------------------------------------|
G|---------------5----------------------------5---7----------------------------|
D|--5-2~~~~~~~~~-5-5~~~~~~~~~~-5-2~~~~~~~~~~~-5-5-7----------------------------|
A|--5-2~~~~~~~~~-3-5~~~~~~~~~~-5-2~~~~~~~~~~~-3-5-5----------------------------|
E|--3-0~~~~~~~~~---3~~~~~~~~~~-3-0~~~~~~~~~~~---3------------------------------|

Verse
e|-----------------------------------------------------------------------------|
B|-----------------------------------------------------------------------------|
G|---------------555555/121212121212--------------555555/121212121212----------|
D|--222222222222-555555/121212121212-222222222222-555555/121212121212----------|
A|--222222222222-333333/101010101010-222222222222-333333/101010101010----------|
E|--000000000000---------------------000000000000------------------------------|

e|-----------------------------------------------------------------------------|
B|-----------------------------------------------------------------------------|
G|--777777777777-555555---------777777777777-555555----------------------------|
D|--777777777777-555555-5555555-777777777777-555555-555555---------------------|
A|--555555555555-333333-5555555-555555555555-333333-555555---------------------|
E|----------------------3333333---------------------333333---------------------|

e|-----------------------------------------------------------------------------|
B|-----------------------------------------------------------------------------|
G|--777777777777777777777777--------555555---------------------777777----------|
D|--777777777777777777777777-555555-555555-555555555555-555555-777777----------|
A|--555555555555555555555555-555555-333333-555555555555-555555-555555----------|
E|---------------------------333333--------333333333333-333333-----------------|

e|-----------------------------------------------------------------------------|
B|-----------------------------------------------------------------------------|
G|-----------------------777777/121212121212121212121212-----------------------|
D|--555555555555-5555555-777777/x-x-x-x-x-x-x-x-x-x-x-x------------------------|
A|--555555555555-5555555-555555/101010101010101010101010-----------------------|
E|--333333333333-3333333-------------------------------------------------------|

e|-----------------------------------------------------------------------------|
B|-----------------------------------------------------------------------------|
G|--777777777777777777777777-555555--------777777777777-555555-----------------|
D|--777777777777777777777777-555555-555555-777777777777-555555-555555----------|
A|--555555555555555555555555-333333-555555-555555555555-333333-555555----------|
E|----------------------------------333333---------------------333333----------|

e|-----------------------------------------------------------------------------|
B|-----------------------------------------------------------------------------|
G|--777777777777-555555--------777777777777-555555--------777777777777---------|
D|--777777777777-555555-555555-777777777777-555555-555555-777777777777---------|
A|--555555555555-333333-555555-555555555555-333333-555555-555555555555---------|
E|----------------------333333---------------------333333----------------------|

Ending
e|-----------------------------------------------------------------------------|
B|-----------------------------------------------------------------------------|
G|-----------------------------------------------------------------------------|
D|--5--2--2--2-----------------------------------------------------------------|
A|--5--2--2--2-----------------------------------------------------------------|
E|--3--0--0--0-----------------------------------------------------------------|


comments
We did not receive enough feedback on this tab! Please rate:
print report bad tab
1 2 3 4 5
1 comment total.
0 reply
Ich.Dato wrote on March 29 2013, 08:36 pm

is it possible for you to tab an acoustic version for me? :)

I want to post or [tab]
guest
You may want to rate the tab now too:
select rating
Please do not post tabs as comments. Select "correction" instead!