Oops, an error
Loading. Please wait.

Story Tab

by Mxpx
ver2
ver2

Whole song

Interactive

More versions @911Tabs.com
88 views 1 this week
no commentswrite comment
1 2 3 4 5
please rate
add to favorites launch autoscroll
font size
0
reset
Autoscroll
+/-
esc
set tempo
stop
Contributor
Tuning
D A D G B E
WARNING: You are trying to view
                                    content from Ultimate-Guitar.com
                                    in an unauthorized application,
                                    which is prohibited.

                                    Please use an official Ultimate
                                    Guitar Tabs application for iPhone,
                                    iPad or Android to access legitimate
                                    chords, guitar, bass, and drum tabs
                                    from Ultimate-Guitar.com database.

                                    Type "ultimate guitar tabs" in Apple
                                    App Store's or Android Market's
                                    search to find the application.
I did this complitely by ear, so there must be something wrong with it hahah...coment 
rate please. and I havent figured out one lead guitar part, if I do I will post it...

Gtr I (D A D G B E) - 'Untitled'
Gtr II (D A D G B E) - 'Untitled'

 Intro
  Q=200
 4/4
  Gtr II
   W                                E E E E E E Q
|---------------------------------|-----------------|
|---------------------------------|-----------------|
|---------------------------------|-----------------|
|---------------------------------|-0-0-0-3-3-3-----|
|---------------------------------|-0-0-0-3-3-3-----|
|---------------------------------|-0-0-0-3-3-3-----|
|
| Gtr I
|  E   E   E   E   E   E   E   E    E E E E E E E E
|---------------------------------|-----------------|
|---------------------------------|-----------------|
|---------------------------------|-------------1-1-|
|-<7>-<7>-<7>-<7>-<7>-<7>-<7>-<7>-|-0-0-0-3-3-3-----|
|---------------------------------|-----------------|
|---------------------------------|-----------------|


  Q   E E E E E E   H       E E E E   E E H       E E
|-----------------|-----------------|-------------------|
|-----------------|-----------------|-------------------|
|-----------------|-----------------|-------------------|
|-----0-0-0-3-3-3-|---------0-0-0-3-|-3-3---------0-0---|
|-----0-0-0-3-3-3-|---------0-0-0-3-|-3-3---------0-0---|
|-----0-0-0-3-3-3-|---------0-0-0-3-|-3-3---------0-0---|
|
| E E E E E E E E   E E E E E E E E   E E E E E E E E
|-----------------|-----------------|-------------------|
|-----------------|-----------------|-------------------|
|-2-2-------------|-1-1-2-2---------|-----1-1-2-2-------|
|-----0-0-0-3-3-3-|---------0-0-0-3-|-3-3---------0-0---|
|-----------------|-----------------|-------------------|
|-----------------|-----------------|-------------------|


  E E E E H         E E E E E E E E
|-----------------|-----------------|
|-----------------|-----------------|
|-----------------|-----------------|
|-0-3-3-3---------|-0-0-0-3-3-3-6-6-|
|-0-3-3-3---------|-0-0-0-3-3-3-6-6-|
|-0-3-3-3---------|-0-0-0-3-3-3-6-6-|
|
| E E E E E E E E   E E E E E E E E
|-----------------|-----------------|
|-----------------|-----------------|
|---------1-1-2-2-|-------------1-1-|
|-0-3-3-3---------|-0-0-0-3-3-3-----|
|-----------------|-0-0-0-3-3-3-----|
|-----------------|-0-0-0-3-3-3-----|


  E E E E E E E E   E E E E E E E E   E E E E E E E E
|-----------------|-----------------|-----------------|
|-----------------|-----------------|-----------------|
|-----------------|-----------------|-----------------|
|-7-7-0-0-0-3-3-3-|-6-6-7-7-0-0-0-3-|-3-3-6-6-6-7-7-7-|
|-7-7-0-0-0-3-3-3-|-6-6-7-7-0-0-0-3-|-3-3-6-6-6-7-7-7-|
|-7-7-0-0-0-3-3-3-|-6-6-7-7-0-0-0-3-|-3-3-6-6-6-7-7-7-|
|
| E E E E E E E E   E E E E E E E E   E E E E E E E E
|-----------------|-----------------|-----------------|
|-----------------|-----------------|-----------------|
|-2-2-------------|-1-1-2-2---------|-----1-1-1-2-2-2-|
|-----0-0-0-3-3-3-|---------0-0-0-3-|-3-3-------------|
|-----0-0-0-3-3-3-|---------0-0-0-3-|-3-3-------------|
|-----0-0-0-3-3-3-|---------0-0-0-3-|-3-3-------------|


                         Verse
  W          +W           W          +W           +W
|----------|------------|----------|------------|--------|
|----------|------------|----------|------------|--------|
|----------|------------|----------|------------|--------|
|-8--------|-(8)--------|-0--------|-(0)--------|-(0)----|
|-8--------|-(8)--------|-0--------|-(0)--------|-(0)----|
|-8--------|-(8)--------|-0--------|-(0)--------|-(0)----|


  +W           +W           +W           +W           +W
|------------|------------|------------|------------|--------|
|------------|------------|------------|------------|--------|
|------------|------------|------------|------------|--------|
|-(0)--------|-(0)--------|-(0)--------|-(0)--------|-(0)----|
|-(0)--------|-(0)--------|-(0)--------|-(0)--------|-(0)----|
|-(0)--------|-(0)--------|-(0)--------|-(0)--------|-(0)----|


  +W           W          +W           +W           +W
|------------|----------|------------|------------|--------|
|------------|----------|------------|------------|--------|
|------------|----------|------------|------------|--------|
|-(0)--------|-0--------|-(0)--------|-(0)--------|-(0)----|
|-(0)--------|-0--------|-(0)--------|-(0)--------|-(0)----|
|-(0)--------|-0--------|-(0)--------|-(0)--------|-(0)----|


  +W           +W           +W           +W           +W
|------------|------------|------------|------------|--------|
|------------|------------|------------|------------|--------|
|------------|------------|------------|------------|--------|
|-(0)--------|-(0)--------|-(0)--------|-(0)--------|-(0)----|
|-(0)--------|-(0)--------|-(0)--------|-(0)--------|-(0)----|
|-(0)--------|-(0)--------|-(0)--------|-(0)--------|-(0)----|


   Prechorus
    Gtr I
    Q  E Q  E Q     Q   E Q  E Q     Q   E Q  E Q     Q   E Q  E Q
||---------------|----------------|----------------|---------------|
||o--------------|----------------|----------------|---------------|
||---------------|----------------|----------------|---------------|
||-------5--7----|--------5--7----|--------5--7----|--------5--7---|
||o-5--8------8--|--5---8------8--|--5---8------8--|--5---8------8-|
||---------------|----------------|----------------|---------------|
|
|   Gtr II
|   W              +W               +W               +W
||---------------|----------------|----------------|---------------|
||o--------------|----------------|----------------|---------------|
||---------------|----------------|----------------|---------------|
||--0------------|-(0)------------|-(0)------------|-(0)-----------|
||o-0------------|-(0)------------|-(0)------------|-(0)-----------|
||--0------------|-(0)------------|-(0)------------|-(0)-----------|


                                                1.
  Q  E Q  E Q     Q   E Q  E Q    Q  E Q  E Q     Q   E Q  E Q
|--------------|----------------|--------------|-----------------||
|--------------|----------------|--------------|----------------o||
|--------------|----------------|--------------|-----------------||
|------5--7----|--------5--7----|------5--7----|--------5--7-----||
|-5--8------8--|--5---8------8--|-5--8------8--|--5---8------8--o||
|--------------|----------------|--------------|-----------------||
|
| W              +W               W              +W
|--------------|----------------|--------------|-----------------||
|--------------|----------------|--------------|----------------o||
|--------------|----------------|--------------|-----------------||
|-8------------|-(8)------------|-5------------|-(5)-------------||
|-8------------|-(8)------------|-5------------|-(5)------------o||
|-8------------|-(8)------------|-5------------|-(5)-------------||


              chorus
  2.
  W            E E E E E E E E   E E E E E E E E   E E E E E E E E
|----------||------------------|-----------------|-----------------|
|----------||o-----------------|-----------------|-----------------|
|----------||------------------|-----------------|-----------------|
|----------||--0-0-0-0-0-0-0-0-|-0-0-0-0-0-0-0-0-|-8-8-8-8-8-8-8-8-|
|----------||o-0-0-0-0-0-0-0-0-|-0-0-0-0-0-0-0-0-|-8-8-8-8-8-8-8-8-|
|----------||--0-0-0-0-0-0-0-0-|-0-0-0-0-0-0-0-0-|-8-8-8-8-8-8-8-8-|


  E E E E E E E E   E E E E E E E E   E E E E E E E E   E E E E E E E E
|-----------------|-----------------|-----------------|-----------------|
|-----------------|-----------------|-----------------|-----------------|
|-----------------|-----------------|-----------------|-----------------|
|-8-8-8-8-8-8-8-8-|-5-5-5-5-5-5-5-5-|-5-5-5-5-5-5-5-5-|-0-0-0-0-0-0-0-0-|
|-8-8-8-8-8-8-8-8-|-5-5-5-5-5-5-5-5-|-5-5-5-5-5-5-5-5-|-0-0-0-0-0-0-0-0-|
|-8-8-8-8-8-8-8-8-|-5-5-5-5-5-5-5-5-|-5-5-5-5-5-5-5-5-|-0-0-0-0-0-0-0-0-|


  Q  E Q  E Q      Q  E Q  E Q    Q  E Q  E Q    Q  E Q  E Q
|---------------||--------------|--------------|--------------|
|--------------o||--------------|--------------|--------------|
|---------------||--------------|--------------|--------------|
|-0--3-5--7-3---||-0--3-5--7-3--|-0--3-5--7-3--|-0--3-5--7-3--|
|-0--3-5--7-3--o||-0--3-5--7-3--|-0--3-5--7-3--|-0--3-5--7-3--|
|-0--3-5--7-3---||-0--3-5--7-3--|-0--3-5--7-3--|-0--3-5--7-3--|


 verse
  Gtr II
  W          +W           +W           +W
|----------|------------|------------|--------|
|----------|------------|------------|--------|
|----------|------------|------------|--------|
|-0--------|-(0)--------|-(0)--------|-(0)----|
|-0--------|-(0)--------|-(0)--------|-(0)----|
|-0--------|-(0)--------|-(0)--------|-(0)----|


  +W           +W           +W           +W
|------------|------------|------------|--------|
|------------|------------|------------|--------|
|------------|------------|------------|--------|
|-(0)--------|-(0)--------|-(0)--------|-(0)----|
|-(0)--------|-(0)--------|-(0)--------|-(0)----|
|-(0)--------|-(0)--------|-(0)--------|-(0)----|


  +W               Wx9
|----------------|--------|
|----------------|--------|
|----------------|--------|
|-(0)------------|--------|
|-(0)------------|--------|
|-(0)------------|--------|
|
| Gtr I
|  H     E E E E   Wx9
|----------------|--------|
|----------------|--------|
|----------------|--------|
|----------x-x-x-|--------|
|----------x-x-x-|--------|
|----------x-x-x-|--------|


   prechorus
    Q  E Q  E Q     Q   E Q  E Q     Q   E Q  E Q     Q   E Q  E Q
||---------------|----------------|----------------|---------------|
||o--------------|----------------|----------------|---------------|
||---------------|----------------|----------------|---------------|
||-------5--7----|--------5--7----|--------5--7----|--------5--7---|
||o-5--8------8--|--5---8------8--|--5---8------8--|--5---8------8-|
||---------------|----------------|----------------|---------------|
|
|   W              +W               +W               +W
||---------------|----------------|----------------|---------------|
||o--------------|----------------|----------------|---------------|
||---------------|----------------|----------------|---------------|
||--0------------|-(0)------------|-(0)------------|-(0)-----------|
||o-0------------|-(0)------------|-(0)------------|-(0)-----------|
||--0------------|-(0)------------|-(0)------------|-(0)-----------|


                                                1.
  Q  E Q  E Q     Q   E Q  E Q    Q  E Q  E Q     Q   E Q  E Q
|--------------|----------------|--------------|-----------------||
|--------------|----------------|--------------|----------------o||
|--------------|----------------|--------------|-----------------||
|------5--7----|--------5--7----|------5--7----|--------5--7-----||
|-5--8------8--|--5---8------8--|-5--8------8--|--5---8------8--o||
|--------------|----------------|--------------|-----------------||
|
| W              +W               W              +W
|--------------|----------------|--------------|-----------------||
|--------------|----------------|--------------|----------------o||
|--------------|----------------|--------------|-----------------||
|-8------------|-(8)------------|-5------------|-(5)-------------||
|-8------------|-(8)------------|-5------------|-(5)------------o||
|-8------------|-(8)------------|-5------------|-(5)-------------||


              chorus
  2.
  W            E E E E E E E E   E E E E E E E E   E E E E E E E E
|----------||------------------|-----------------|-----------------|
|----------||o-----------------|-----------------|-----------------|
|----------||------------------|-----------------|-----------------|
|----------||--0-0-0-0-0-0-0-0-|-0-0-0-0-0-0-0-0-|-8-8-8-8-8-8-8-8-|
|----------||o-0-0-0-0-0-0-0-0-|-0-0-0-0-0-0-0-0-|-8-8-8-8-8-8-8-8-|
|----------||--0-0-0-0-0-0-0-0-|-0-0-0-0-0-0-0-0-|-8-8-8-8-8-8-8-8-|


  E E E E E E E E   E E E E E E E E   E E E E E E E E   E E E E E E E E
|-----------------|-----------------|-----------------|-----------------|
|-----------------|-----------------|-----------------|-----------------|
|-----------------|-----------------|-----------------|-----------------|
|-8-8-8-8-8-8-8-8-|-5-5-5-5-5-5-5-5-|-5-5-5-5-5-5-5-5-|-0-0-0-0-0-0-0-0-|
|-8-8-8-8-8-8-8-8-|-5-5-5-5-5-5-5-5-|-5-5-5-5-5-5-5-5-|-0-0-0-0-0-0-0-0-|
|-8-8-8-8-8-8-8-8-|-5-5-5-5-5-5-5-5-|-5-5-5-5-5-5-5-5-|-0-0-0-0-0-0-0-0-|


                      interlude
  Q  E Q  E Q          Q  Q  Q  Q    Q  Q  Q  Q    Q  Q  Q  Q
|---------------||-||--------------|-------------|--------------|
|--------------o||-||o-------------|-------------|--------------|
|---------------||-||--------------|-------------|--------------|
|-0--3-5--7-3---||-||--0--0--0--0--|-5--5--5--5--|-8--8--8--8---|
|-0--3-5--7-3--o||-||o-0--0--0--0--|-5--5--5--5--|-8--8--8--8---|
|-0--3-5--7-3---||-||--0--0--0--0--|-5--5--5--5--|-8--8--8--8---|


  Q  Q  Q  Q    Q  Q  Q  Q    Q  Q  Q  Q    Q  Q  Q  Q
|-------------|-------------|-------------|--------------||
|-------------|-------------|-------------|-------------o||
|-------------|-------------|-------------|--------------||
|-8--8--8--8--|-8--8--8--8--|-8--8--8--8--|-8--8--8--8---||
|-8--8--8--8--|-8--8--8--8--|-8--8--8--8--|-8--8--8--8--o||
|-8--8--8--8--|-8--8--8--8--|-8--8--8--8--|-8--8--8--8---||


 bridge
  E E E E E E Q     W                 E E E E E E E E   E E E E E E E E
|-----------------|-----------------|-----------------|-----------------|
|-----------------|-----------------|-----------------|-----------------|
|-----------------|-----------------|-----------------|-----------------|
|-0-0-0-3-3-3-----|-----------------|-6-6-7-7-0-0-0-3-|-3-3-6-6-7-7-0-0-|
|-0-0-0-3-3-3-----|-----------------|-6-6-7-7-0-0-0-3-|-3-3-6-6-7-7-0-0-|
|-0-0-0-3-3-3-----|-----------------|-6-6-7-7-0-0-0-3-|-3-3-6-6-7-7-0-0-|
|
| Gtr I
| H         Q E E   E E E E E E E E   H       E E E E   E E E E E E E E
|-----------------|-----------------|-----------------|-----------------|
|-----------------|-----------------|-----------------|-----------------|
|-------------1-1-|-2-2-------------|-----------------|-----1-1-2-2-----|
|-----------------|-----0-0-0-3-3-3-|---------0-0-0-3-|-3-3---------0-0-|
|-----------------|-----0-0-0-3-3-3-|---------0-0-0-3-|-3-3---------0-0-|
|-----------------|-----0-0-0-3-3-3-|---------0-0-0-3-|-3-3---------0-0-|


  E E E E E E E E   E E E E E E E E
|-----------------|-----------------|
|-----------------|-----------------|
|-----------------|-----------------|
|-0-3-3-3-6-6-7-7-|-0-0-0-3-3-3-6-6-|
|-0-3-3-3-6-6-7-7-|-0-0-0-3-3-3-6-6-|
|-0-3-3-3-6-6-7-7-|-0-0-0-3-3-3-6-6-|
|
| E E E E E E E E   E E E E E E E E
|-----------------|-----------------|
|-----------------|-----------------|
|---------1-1-2-2-|-------------1-1-|
|-0-3-3-3---------|-0-0-0-3-3-3-----|
|-0-3-3-3---------|-0-0-0-3-3-3-----|
|-0-3-3-3---------|-0-0-0-3-3-3-----|


  E E E E E E E  E    E  E  E  E  H
|------------------|-------------------------|
|------------------|-------------------------|
|------------------|-------------------------|
|-6-7-7-7-8-8-8-10-|-10-10-12-12-15----------|
|-6-7-7-7-8-8-8-10-|-10-10-12-12-15----------|
|-6-7-7-7-8-8-8-10-|-10-10-12-12-15----------|
|
| E E E E E E E  E    E  E  E  E  E  E  E  E
|------------------|-------------------------|
|------------------|-------------------------|
|-1-2-2-2-3-3-3--5-|--5--5--7--7-10-10-10-10-|
|------------------|-------------------------|
|------------------|-------------------------|
|------------------|-------------------------|


   +W                          +W
|---------------------------|---------------------------|
|---------------------------|---------------------------|
|---------------------------|---------------------------|
|-(15)----------------------|-(15)----------------------|
|-(15)----------------------|-(15)----------------------|
|-(15)----------------------|-(15)----------------------|
|
|   E   E  E  E  E  E  E  E     E   E  E  E  E  E  E  E
|---------------------------|---------------------------|
|---------------------------|---------------------------|
|--10--10-10-10-10-10-10-10-|--10--10-10-10-10-10-10-10-|
|---------------------------|---------------------------|
|---------------------------|---------------------------|
|---------------------------|---------------------------|


   chorus
    W                 W
||------------------|-----------------|
||o-----------------|-----------------|
||------------------|-----------------|
||------------------|-----------------|
||o-----------------|-----------------|
||------------------|-----------------|
|
|   E E E E E E E E   E E E E E E E E
||------------------|-----------------|
||o-----------------|-----------------|
||------------------|-----------------|
||--0-0-0-0-0-0-0-0-|-0-0-0-0-0-0-0-0-|
||o-0-0-0-0-0-0-0-0-|-0-0-0-0-0-0-0-0-|
||--0-0-0-0-0-0-0-0-|-0-0-0-0-0-0-0-0-|


  E E E E E E E E   E E E E E E E E   E E E E E E E E   E E E E E E E E
|-----------------|-----------------|-----------------|-----------------|
|-----------------|-----------------|-----------------|-----------------|
|-----------------|-----------------|-----------------|-----------------|
|-8-8-8-8-8-8-8-8-|-8-8-8-8-8-8-8-8-|-5-5-5-5-5-5-5-5-|-5-5-5-5-5-5-5-5-|
|-8-8-8-8-8-8-8-8-|-8-8-8-8-8-8-8-8-|-5-5-5-5-5-5-5-5-|-5-5-5-5-5-5-5-5-|
|-8-8-8-8-8-8-8-8-|-8-8-8-8-8-8-8-8-|-5-5-5-5-5-5-5-5-|-5-5-5-5-5-5-5-5-|


  E E E E E E E E   Q  E Q  E Q          Q  E Q  E Q     Q   E Q  E Q
|-----------------|---------------||-||---------------|-----------------|
|-----------------|--------------o||-||o--------------|-----------------|
|-----------------|---------------||-||---------------|-----------------|
|-0-0-0-0-0-0-0-0-|-0--3-5--7-3---||-||-------5--7----|--------5--7-----|
|-0-0-0-0-0-0-0-0-|-0--3-5--7-3--o||-||o-5--8------8--|--5---8------8---|
|-0-0-0-0-0-0-0-0-|-0--3-5--7-3---||-||---------------|-----------------|
|
| Gtr I
| W                 W                    W              +W
|-----------------|---------------||-||---------------|-----------------|
|-----------------|--------------o||-||o--------------|-----------------|
|-----------------|---------------||-||---------------|-----------------|
|-----------------|---------------||-||--0------------|-(0)-------------|
|-----------------|--------------o||-||o-0------------|-(0)-------------|
|-----------------|---------------||-||--0------------|-(0)-------------|


   Q   E Q  E Q     Q   E Q  E Q    Q  E Q  E Q     Q   E Q  E Q
|----------------|----------------|--------------|----------------|
|----------------|----------------|--------------|----------------|
|----------------|----------------|--------------|----------------|
|--------5--7----|--------5--7----|------5--7----|--------5--7----|
|--5---8------8--|--5---8------8--|-5--8------8--|--5---8------8--|
|----------------|----------------|--------------|----------------|
|
| +W               +W               W              +W
|----------------|----------------|--------------|----------------|
|----------------|----------------|--------------|----------------|
|----------------|----------------|--------------|----------------|
|-(0)------------|-(0)------------|-8------------|-(8)------------|
|-(0)------------|-(0)------------|-8------------|-(8)------------|
|-(0)------------|-(0)------------|-8------------|-(8)------------|


                                   outro
                1.                 2.
  Q  E Q  E Q     Q   E Q  E Q      Q   E Q   E Q     Q   E Q   E Q
|--------------|-----------------||-----------------|-----------------|
|--------------|----------------o||-----------------|-----------------|
|--------------|-----------------||-----------------|-----------------|
|------5--7----|--------5--7-----||-------5---7-----|-------5---7-----|
|-5--8------8--|--5---8------8--o||-5---8-------8---|-5---8-------8---|
|--------------|-----------------||-----------------|-----------------|
|
| W              +W                 E E E E E E E E   E E E E E E E E
|--------------|-----------------||-----------------|-----------------|
|--------------|----------------o||-----------------|-----------------|
|--------------|-----------------||-----------------|-----------------|
|-5------------|-(5)-------------||-0-0-0-0-0-0-0-0-|-0-0-0-0-0-0-0-0-|
|-5------------|-(5)------------o||-0-0-0-0-0-0-0-0-|-0-0-0-0-0-0-0-0-|
|-5------------|-(5)-------------||-0-0-0-0-0-0-0-0-|-0-0-0-0-0-0-0-0-|


  Q   E Q   E Q     Q   E Q   E Q     Q   E Q   E Q     Q   E Q   E Q
|-----------------|-----------------|-----------------|-----------------|
|-----------------|-----------------|-----------------|-----------------|
|-----------------|-----------------|-----------------|-----------------|
|-------5---7-----|-------5---7-----|-------5---7-----|-------5---7-----|
|-5---8-------8---|-5---8-------8---|-5---8-------8---|-5---8-------8---|
|-----------------|-----------------|-----------------|-----------------|
|
| E E E E E E E E   E E E E E E E E   E E E E E E E E   E E E E E E E E
|-----------------|-----------------|-----------------|-----------------|
|-----------------|-----------------|-----------------|-----------------|
|-----------------|-----------------|-----------------|-----------------|
|-0-0-0-0-0-0-0-0-|-0-0-0-0-0-0-0-0-|-0-0-0-0-0-0-0-0-|-0-0-0-0-0-0-0-0-|
|-0-0-0-0-0-0-0-0-|-0-0-0-0-0-0-0-0-|-0-0-0-0-0-0-0-0-|-0-0-0-0-0-0-0-0-|
|-0-0-0-0-0-0-0-0-|-0-0-0-0-0-0-0-0-|-0-0-0-0-0-0-0-0-|-0-0-0-0-0-0-0-0-|


  Q   E Q   E Q     Q   E Q   E Q     Q  H    Q
|-----------------|-----------------|-----------*|
|-----------------|-----------------|-----------*|
|-----------------|-----------------|-----------*|
|-------5---7-----|-------5---7-----|-----------*|
|-5---8-------8---|-5---8-------8---|-5---------*|
|-----------------|-----------------|-----------*|
|
| E E E E E E E E   E E E E E E E E   Q  H    Q
|-----------------|-----------------|-----------*|
|-----------------|-----------------|-----------*|
|-----------------|-----------------|-----------*|
|-0-0-0-0-0-0-0-0-|-0-0-0-0-0-0-0-0-|-0---------*|
|-0-0-0-0-0-0-0-0-|-0-0-0-0-0-0-0-0-|-0---------*|
|-0-0-0-0-0-0-0-0-|-0-0-0-0-0-0-0-0-|-0---------*|


Duration Legend
---------------
W - whole; H - half; Q - quarter; E - 8th; S - 16th; T - 32nd; X - 64th; a - acciaccatura
+ - note tied to previous; . - note dotted; .. - note double dotted
Uncapitalized letters represent notes that are staccato (1/2 duration)
Irregular groupings are notated above the duration line
Duration letters will always appear directly above the note/fret number it represents the
duration for.  Duration letters with no fret number below them represent rests.  Multi-
bar rests are notated in the form Wxn, where n is the number of bars to rest for.  Low
melody durations appear below the staff

Tablature Legend
----------------
 h   - hammer-on
 p   - pull-off
 b   - bend
 pb  - pre-bend
 r   - bend release (if no number after the r, then release immediately)
 /\  - slide into or out of (from/to "nowhere")
 s   - legato slide
 S   - shift slide
  - natural harmonic
[n]  - artificial harmonic
n(n) - tapped harmonic
 ~   - vibrato
 tr  - trill
 T   - tap
 TP  - trem. picking
 PM  - palm muting
\n/  - tremolo bar dip; n = amount to dip
 \n  - tremolo bar down
 n/  - tremolo bar up
/n\  - tremolo bar inverted dip
 =   - hold bend; also acts as connecting device for hammers/pulls
 <>  - volume swell (louder/softer)
 x   - on rhythm slash represents muted slash
 o   - on rhythm slash represents single note slash

Misc Legend
-----------
 |  - bar
||  - double bar
||o - repeat start
o|| - repeat end
*|  - double bar (ending)
 :  - bar (freetime)
 $  - Segno
 &  - Coda
Tempo markers -  = BPM(8/16=s8/s16), where s8 = swing 8ths, s16 = swing 16ths


***************************************************************************************
* Generated using Power Tab Editor by Brad Larsen - http://powertab.guitarnetwork.org *
***************************************************************************************


I did this in power tab, that is why its so long, its just:

intro
verse
prechorus
chorus
verse
prechorus
chorus
interlude
bridge
chorus
same as prechorus
outro
comments
We did not receive enough feedback on this tab! Please rate:
print report bad tab
1 2 3 4 5
I want to post or [tab]
guest
You may want to rate the tab now too:
select rating
Please do not post tabs as comments. Select "correction" instead!