Oops, an error
Loading. Please wait.

Poison Tab

ver1
ver1

Whole song

More versions @911Tabs.com
980 views 1 this week
1 commentread comment
1 2 3 4 5
please rate
Autoscroll
+/-
esc
set tempo
stop
Contributor
Difficulty
Tuning
intermediate
D A D G B E
WARNING: You are trying to view
                                    content from Ultimate-Guitar.com
                                    in an unauthorized application,
                                    which is prohibited.

                                    Please use an official Ultimate
                                    Guitar Tabs application for iPhone,
                                    iPad or Android to access legitimate
                                    chords, guitar, bass, and drum tabs
                                    from Ultimate-Guitar.com database.

                                    Type "ultimate guitar tabs" in Apple
                                    App Store's or Android Market's
                                    search to find the application.
==============================================================================

song: poison
artist: my american heart
album: the meaning in makeup

tuning: drop D, half step down
        1.D# 2.A# 3.F# 4.C# 5.G# 6.C#

transcribed by carlo palacpac.

i love this song. MAH WESTCOAST LOVE tour.
sat. dec.15.07 at 7PM; epicentre SD!! anyone?

INTRO.
GTR. 1
D#----------------------------------------------------|
A#----------------------------------------------------|
F#-------------10 9--------------10 9-----------------|
C#------------------------------------10--------------|
G#-12 10 12 10-------------10 12---------12 12 12-----|
C#----------------------------------------------------|
  play only 4x. second time around, 2nd GTR comes in.

*GTR. 2
D#-------------------------------------------------------------------------|
A#-------------------------------------------------------------------------|
F#-------------------------------------------------------------------------|
C#-------------------------------------------------------------------------|
G#-------------------------------------------------------------------------|
C#-10-0-0-10-0-0-10-0-0-10-0-0-10-0-12--10-0-0-10-0-0-10-0-0-10-0-0-5-0-3--|

  -------------------------------------------------------------------------|
  -------------------------------------------------------------------------|
  -------------------------------------------------------------------------|
  ------------------------------------------------------------------5-0-3--|
  ------------------------------------------------------------------5-0-3--|
  -10-0-0-10-0-0-10-0-0-10-0-0-10-0-12--10-0-0-10-0-0-10-0-0-10-0-0-5-0-3--|
  after this, both GTRS. play at the same time below.

GTR. 1
D#---------------------------------------|
A#---------------------------------------|
F#---------------------------------------|
C#-----10p0-12p0---10p0---12p0-----------|    play 8x
G#-0-0-----------0-------------5 0 3-----|
C#-0-0-----------0-------------5 0 3-----|
   x x           x

*GTR. 2
D#---------------------------------------|
A#---------------------------------------|
F#---------------------------------------|
C#-0-0---------0-----------5-0-3---------|    play 8x
G#-0-0-3p0-5p0-0-3p0---5p0-5-0-3---------|    [synchronize w/GTR.1]
C#-0-0---------0-----------5-0-3---------|
   x x         x

~GTR. 3 [GTR. 3 comes in 5th time around GTRS. 1&2]
D#----------------------------------------------------------------------|
A#----------------------------------------------------------------------|
F#-777777777777/10101010\999999999999/12121212\101010101010101010101010\
C#-xxxxxxxxxxxx/x x x x \xxxxxxxxxxxx/x x x x \x x x x x x x x x x x x \
G#-555555555555/8 8 8 8 \777777777777/10101010\8 8 8 8 8 8 8 8 8 8 8 8 \
C#----------------------------------------------------------------------

  --------------------------------|
  --------------------------------|
  9999/121212121212121212121212---|
  xxxx/x x x x x x x x x x x x ---|
  7777/101010101010101010101010---|
  --------------------------------|

  END INTRO.


verse 1
GTR. 1
D#----------------------------------|----------------------------------|
A#----------------------------------|----------------------------------|
F#----------------------------------|--------------------------10-10\--|
C#----------------------------------|--------------------------x -x \--|
G#-3-0--5-0--3--0--5-0--3/5--5-0-3--|5-5-5-5-5-5-5-5-5-5-5-5-5-8 -8 \--|
C#----------------------------------|----------------------------------|
  play 3x

D#----------------------------------|-----------------------------------|
A#----------------------------------|-----------------------------------|
F#----------------------------------|-----------------------------------|
C#----------------------------------|-----------------------------------|
G#-3-0--5-0--3--0--5-0--3/5--5-0-3--|5-5-5-5-5-5-5-5-8-8-8-8-7-7-7-7----|
C#----------------------------------|-----------------------------------|
  play 3x                            x x x x


*GTR. 2
D#---------------------------------------------------------------------|
A#---------------------------------------------------------------------|
F#---------------------------------------------------------------------|
C#0000000000000000-3333333333333333-5555555555555555-88888888-10101010-|
G#0000000000000000-3333333333333333-5555555555555555-88888888-10101010-|
C#0000000000000000-3333333333333333-5555555555555555-88888888-10101010-|
  xxxxxxxxxxxxxxxx xxxxxxxxxxxxxxxx xxxxxxxxxxxxxxxx xxxxxxxx x x x x -

------------------------------------------------------------------|
------------------------------------------------------------------|
------------------------------------------------------------------|
12 12-0000000000000000-3333333333333333-5555555555555555-88888888-|
12 12-0000000000000000-3333333333333333-5555555555555555-88888888-|
12 12-0000000000000000-3333333333333333-5555555555555555-88888888-|
      xxxxxxxxxxxxxxxx xxxxxxxxxxxxxxxx xxxxxxxxxxxxxxxx xxxxxxxx

------------------------------------------|
------------------------------------------|
------------------------------------------|
1010101010101010-----7-7-----7-7-10101010-|
1010101010101010-8-8-8-8-8-8-8-8-10101010-|
1010101010101010-8-8-7-7-8-8-7-7-10101010-|

VERSE 1 END.

CHORUS
*GTR. 2 [GTR. 2 comes in before GTR. 1 in chorus]
D#-------------------------------------------------------------------|
A#-------------------------------------------------------------------|
F#-------------------------------------------------------------------|
C#-0--0-0--0--0---3--3-3--3--3---10--10-10----10-10------10-10-10----|
G#-0--0-0--0--0---3--3-3--3--3---8---8--8--0--8--8--0-0--8--8--8-----|
C#-0--0-0--0--0---3--3-3--3--3---8---8--8--0--8--8--0-0--8--8--8-----|
                                           x        x x

  ---------------------------------------------------------------------|
  ---------------------------------------------------------------------|
  ---------------------------------------------------------------------|
  -0--0-0--0--0---3--3-3--3-3-3-3--8-----7-----8-----7-------10-10-10--|
  -0--0-0--0--0---3--3-3--3-3-3-3--8-8-8-8-8-8-8-8-8-8-8-8---10-10-10--|
  -0--0-0--0--0---3--3-3--3-3-3-3--8-8-8-7-7-7-8-8-8-7-7-7---10-10-10--|
  play twice


GTR. 1  [play GTR. 1 second time around GTR. 2]
D#-------------------------------------------------------------------|
A#-------------------------------------------------------------------|
F#-------------------------------------------------------------------|
C#-0--0-0--0--0---3--3-3--3--3---10--10-10----10-10------10-10-10----|
G#-0--0-0--0--0---3--3-3--3--3---8---8--8--0--8--8--0-0--8--8--8-----|
C#-0--0-0--0--0---3--3-3--3--3---8---8--8--0--8--8--0-0--8--8--8-----|
                                           x        x x

  ---------------------------------------------------------------------|
  ---------------------------------------------------------------------|
  ---------------------------------------------------------------------|
  -0--0-0--0--0---3--3-3--3-3-3-3--8-----7-----8-----7-------10-10-10--|
  -0--0-0--0--0---3--3-3--3-3-3-3--8-8-8-8-8-8-8-8-8-8-8-8---10-10-10--|
  -0--0-0--0--0---3--3-3--3-3-3-3--8-8-8-7-7-7-8-8-8-7-7-7---10-10-10--|

  solo
  ---------------------------------------------------------------------|
  -10h11p0-------------------------------------------------------------|
  ---------12-10----10--------12b--10----------10-----------10------10-|
  ---------------12----12-10----------12-10-12----12--7---8----7--8----|
  ---------------------------------------------------------------------|
  ---------------------------------------------------------------------|

  ------------------13----------------------------------------------------|
  ------------10-11----11-10-10h11p0--------------------------------------|
  ------10/12------------------------12-10----10-------12b--10---------10-|
  -7--8------------------------------------12----12-10--------12-10-12----|
  ------------------------------------------------------------------------|
  ------------------------------------------------------------------------|

  ----------13-------13-------13---------------------|
  ----10-11----10-11----10-11------------------------|
  ------------------------------------10-----10\-----|
  -12-----------------------------7-8----7-8---------|
  ---------------------------------------------------|
  ---------------------------------------------------|
  CHORUS END. SOLO END.

BRIDGE
GTR. 1
D#---------------------------------------|-----------------------------|
A#---------------------------------------|-----------------------------|
F#---------------------------------------|-----------------------------|
C#-----10p0-12p0---10p0---12p0-----------|-----10p0-12p0---10p0---12p0-|
G#-0-0-----------0-------------5 0 3-----|-0-0-----------0-------------|
C#-0-0-----------0-------------5 0 3-----|-0-0-----------0-------------|
   x x           x
   play 3x

  ----------------------------|
  ----------------------------|
  ----------------------------|
  ---0--10-12-0-------10-12---|
  -0-0----------10-12---------|
  -0-0------------------------|

*GTR. 2
D#--------------------------------|----------------------------------|
A#--------------------------------|----------------------------------|
F#--------------------------------|----------------------------------|
C#-0-0---------0-----------5-0-3--|0-0-------------------------------|
G#-0-0-3p0-5p0-0-3p0---5p0-5-0-3--|0-0-3p0-5p0--3-5---3-5-0-----3-5--|
C#-0-0---------0-----------5-0-3--|0-0----------------------3-5------|
   play 3x [same as GTR. 1]

BRIDGE END.

VERSE 2
GTR. 1
D#---------------------------------------------------------------------------|
A#---------------------------------------------------------------------------|
F#------------------10-9-------------------10-9----------10-9----------------|
C#------------------------------------------------------------10-------------|
G#--5/12-----10-12------------12-10-12-10---------10-12----------12-12-12----|
C#---------------------------------------------------------------------------|

  -------------------------------------------------------------------|
  -------------------------------------------------------------------|
  -----------------------------------------10-9-------------10-9-----|
  -------------------------------------------------------------------|
  -12-10-12-10---12-12-12-12-12-12-10--12-------12-10-12-10----------|
  -------------------------------------------------------------------|

  -----------------------------|
  -----------------------------|
  --------10-9-----------------|
  -------------10--------------|
  -10-12-----------12-12-12----|
  -----------------------------|

  ----------------------------------------------------------------------|
  ----------------------------------------------------------------------|
  -7--7-7--7-7-7---7-7-7--7-7-7---10-1010--101010--101010--101010-------|
  -x--x-x--x-x-x---x-x-x--x-x-x---x--x-x---x-x-x---x-x-x---x-x-x--------|
  -5--5-5--5-5-5---5-5-5--5-5-5---8--8-8---8-8-8---8-8-8---8-8-8--------|
  ----------------------------------------------------------------------|

  -----------------------------------------------------------------------|
  -----------------------------------------------------------------------|
  -7--7-7--7-7-7---7-7-7--7-7-7---10-10101010101010--121212121212--------|
  -x--x-x--x-x-x---x-x-x--x-x-x---x--x-x-x-x-x-x-x---x-x-x-x-x-x---------|
  -5--5-5--5-5-5---5-5-5--5-5-5---8--8-8-8-8-8-8-8---101010101010--------|
  -----------------------------------------------------------------------|

*GTR. 2 [GTR.2 comes in after "living hell"]
D#-----------------------------------------------------------|
A#-----------------------------------------------------------|
F#-----------------------------------------------------------|
C#-12-12--0000000000000000-3333333333333333-5555555555555555-|
G#-12-12--0000000000000000-3333333333333333-5555555555555555-|
C#-12-12--0000000000000000-3333333333333333-5555555555555555-|
          xxxxxxxxxxxxxxxx xxxxxxxxxxxxxxxx xxxxxxxxxxxxxxxx
                  so just... say no.. we'll find our way home..

  ----------------------------|
  ----------------------------|
  ----------------------------|
  -88888888-1010101010101010--|
  -88888888-1010101010101010--|
  -88888888-1010101010101010--|

  ----------------------------------------------------------------------|
  ----------------------------------------------------------------------|
  -7--7-7--7-7-7---7-7-7--7-7-7---10-1010--101010--101010--101010-------|
  -x--x-x--x-x-x---x-x-x--x-x-x---x--x-x---x-x-x---x-x-x---x-x-x--------|
  -5--5-5--5-5-5---5-5-5--5-5-5---8--8-8---8-8-8---8-8-8---8-8-8--------|
  ----------------------------------------------------------------------|

  -----------------------------------------------------------------------|
  -----------------------------------------------------------------------|
  -7--7-7--7-7-7---7-7-7--7-7-7---10-10101010101010--121212121212--------|
  -x--x-x--x-x-x---x-x-x--x-x-x---x--x-x-x-x-x-x-x---x-x-x-x-x-x---------|
  -5--5-5--5-5-5---5-5-5--5-5-5---8--8-8-8-8-8-8-8---101010101010--------|
  -----------------------------------------------------------------------|

  VERSE 2 END.

  after verse 2, repeat chorus but w/ this alternate ending solo

GTR.1 alternate ending solo
  ---------------------------------------------------------------------|
  -10h11p0-------------------------------------------------------------|
  ---------12-10----10--------12b--10----------10-----------10------10-|
  ---------------12----12-10----------12-10-12----12--7---8----7--8----|
  ---------------------------------------------------------------------|
  ---------------------------------------------------------------------|

  ------------------13----------------------------------------------------|
  ------------10-11----11-10-10h11p0--------------------------------------|
  ------10/12------------------------12-10----10-------12b--10---------10-|
  -7--8------------------------------------12----12-10--------12-10-12----|
  ------------------------------------------------------------------------|
  ------------------------------------------------------------------------|

  ----------13-------13-------13-------13------13/15-----------------|
  ----10-11----10-11----10-11----10-11----10-11----------------------|
  --------------------------------------------------------10-----10--|
  -12-------------------------------------------------7-8----7-8-----|
  -------------------------------------------------------------------|
  -------------------------------------------------------------------|

  -------------------------13-------13-------13-------13/15----------|
  -------------------10-11----10-11----10-11----10-11----------------|
  -----10-----10/12----------------------------------------------10--|
  -7-8----7-8------------------------------------------------7-8-----|
  -------------------------------------------------------------------|
  -------------------------------------------------------------------|

  -------------------------------|
  -------------------------------|
  -----10-----10-----10/12-------|
  -7-8----7-8----7-8--------0----|
  --------------------------0----|
  --------------------------0----|

  CHORUS/SOLO, END.


pre-outro?
*GTR. 2 [GTR. 2comes in first with this]
D#--------------------------------------------------|
A#--------------------------------------------------|
F#--------------------------------------------------|
C#------------------------------------------------0-|
G#------------------------------------------------0-| play 8x.
C#-12-10-12-12-10-12-12-10-12-10-12-12-10-12-12---0-|

GTR 1
D#---------------------------------------------------------------------|
A#---------------------------------------------------------------------|
F#-7777777777777777/9999999999999999/10101010101010101010101010101010/-
C#-xxxxxxxxxxxxxxxx/xxxxxxxxxxxxxxxx/x x x x x x x x x x x x x x x x /-
G#-5555555555555555/7777777777777777/8 8 8 8 8 8 8 8 8 8 8 8 8 8 8 8 /-
C#---------------------------------------------------------------------

  -----------------------------------------------------------------------|
  -----------------------------------------------------------------------|
  -12121212121212121212121212121212--------------------------------------|
  -x x x x x x x x x x x x x x x x --------------------------------------|
  -10101010101010101010101010101010-00-3p0-5p0-0-3p0---5p0-5-0-3--00-3p0-|
  ----------------------------------00---------0-----------5-0-3--00-----|
                                    xx         x                  xx

  -------------------------------------------------------------------|
  -------------------------------------------------------------------|
  -------------------------------------------------------------------|
  -----3-5-----------------------------------------------------5-0-3-|
  -5p0-3-5-00-3p0-5p0-0-3p0---5p0-5-0-3-00-3p0-5p0-0-3p0---5p0-5-0-3-|
  -----3-5-00---------0-----------5-0-3-00---------0-----------5-0-3-|
           xx         x                 xx         x

~GTR. 3
D#---------------------------------------------------------------------|
A#---------------------------------------------------------------------|
F#-7777777777777777/9999999999999999/10101010101010101010101010101010/-
C#-xxxxxxxxxxxxxxxx/xxxxxxxxxxxxxxxx/x x x x x x x x x x x x x x x x /-
G#-5555555555555555/7777777777777777/8 8 8 8 8 8 8 8 8 8 8 8 8 8 8 8 /-
C#---------------------------------------------------------------------

  ------------------------------------|
  ------------------------------------|
  -12121212121212121212121212121212---|
  -x x x x x x x x x x x x x x x x ---|
  -10101010101010101010101010101010---|
  ------------------------------------| play twice.
  PRE-OUTRO, END.

  outro
all GTRS.
D#------------------------------------------------------------------------|
A#------------------------------------------------------------------------|
F#------------------------------------------------------------------------|
C#-0----0--0------------0----0--0-----3-5--0----0--0------------0----0--0-|
G#-0----0--0------------0----0--0-----3-5--0----0--0------------0----0--0-|
C#-0----0--0------------0----0--0-----3-5--0----0--0------------0----0--0-|

  ------------------------|
  ------------------------|
  ------------------------|
  -0----0--0-----3-5-0----|
  -0----0--0-----3-5-0----|
  -0----0--0-----3-5-0----|

  Outro, end...

  any questions,comments, watever;
  www.myspace.com/carloclap

  k.thanks! enjoy.  DG<33
comments
We did not receive enough feedback on this tab! Please rate:
print report bad tab
1 2 3 4 5
1 comment total.
0 reply
heyitsthemokid wrote on December 12 2007, 09:57 pm

im going to epicentre. :]

I want to post or [tab]
guest
You may want to rate the tab now too:
select rating
Please do not post tabs as comments. Select "correction" instead!