Oops, an error
Loading. Please wait.

Process Tab

ver1
ver1

Whole song

Interactive

More versions @911Tabs.com
1,288 views 1 this week
3 commentsread comments
1 2 3 4 5
worth learning
x 2
Autoscroll
+/-
esc
set tempo
stop
Contributor
Difficulty
Tuning
intermediate
C# G# C# F# A# D#
Hey! There's an official Ultimate Guitar app which is ideal
for learning songs when you're away from computer. Get the app
WARNING: You are trying to view
                                    content from Ultimate-Guitar.com
                                    in an unauthorized application,
                                    which is prohibited.

                                    Please use an official Ultimate
                                    Guitar Tabs application for iPhone,
                                    iPad or Android to access legitimate
                                    chords, guitar, bass, and drum tabs
                                    from Ultimate-Guitar.com database.

                                    Type "ultimate guitar tabs" in Apple
                                    App Store's or Android Market's
                                    search to find the application.
This tab was done completely by ear. Have fun, thanks.

Guitar 1
       E   E   E   E   E   E   E   E      E   E   E   E   E   E   E   E   
D#||----------------------------------|----------------------------------|
A#||--13--13--13--13--13--13--13--13--|--10--10--10--10--10--10--10--10--|
F#||--10--10--10--10--10--10--10--10--|--10--10--10--10--10--10--10--10--|
C#||--12--12--12--12--12--12--12--12--|--12--12--12--12--12--12--12--12--|
G#||----------------------------------|----------------------------------|
C#||----------------------------------|----------------------------------|


   E   E   E   E   E   E   E   E      E   E   E   E   E   E   E   E   
----------------------------------|----------------------------------|
--11--11--11--11--11--11--11--11--|----------------------------------|
--10--10--10--10--10--10--10--10--|--12--12--12--12--12--12--12--12--|
--12--12--12--12--12--12--12--12--|--12--12--12--12--12--12--12--12--|
----------------------------------|----------------------------------|
----------------------------------|----------------------------------|


   E   E   E   E   E   E   E   E      E   E   E   E   E   E   E   E   
----------------------------------|----------------------------------|
--13--13--13--13--13--13--13--13--|--10--10--10--10--10--10--10--10--|
--10--10--10--10--10--10--10--10--|--10--10--10--10--10--10--10--10--|
--12--12--12--12--12--12--12--12--|--12--12--12--12--12--12--12--12--|
----------------------------------|----------------------------------|
----------------------------------|----------------------------------|


   E   E   E   E   E   E   E   E     E  E  E  E  S   S E  E   E   
----------------------------------|------------------------------|
--13--13--13--13--13--13--13--13--|--------6--8--9s-10-8--6--13--|
--10--10--10--10--10--10--10--10--|-----7--------------------10--|
--12--12--12--12--12--12--12--12--|--------------------------12--|
----------------------------------|------------------------------|
----------------------------------|------------------------------|


  E   E   E   E   E   E   E   E      E   E   E   E   E   E   E   E   
---------------------------------|----------------------------------|
--L--13--13--13--13--13--13--13--|--10--10--10--10--10--10--10--10--|
--L--10--10--10--10--10--10--10--|--10--10--10--10--10--10--10--10--|
--L--12--12--12--12--12--12--12--|--12--12--12--12--12--12--12--12--|
---------------------------------|----------------------------------|
---------------------------------|----------------------------------|


   E   E   E   E   E   E   E   E      E   E   E   E   E   E   E   E   
----------------------------------|----------------------------------|
--13--13--13--13--13--13--13--13--|----------------------------------|
--10--10--10--10--10--10--10--10--|--12--12--12--12--12--12--12--12--|
--12--12--12--12--12--12--12--12--|--12--12--12--12--12--12--12--12--|
----------------------------------|----------------------------------|
----------------------------------|----------------------------------|


   E   E   E   E   E   E   E   E      E   E   E   E   E   E   E   E   
----------------------------------|----------------------------------|
--13--13--13--13--13--13--13--13--|--10--10--10--10--10--10--10--10--|
--10--10--10--10--10--10--10--10--|--10--10--10--10--10--10--10--10--|
--12--12--12--12--12--12--12--12--|--12--12--12--12--12--12--12--12--|
----------------------------------|----------------------------------|
----------------------------------|----------------------------------|


   E   E   E   E   E   E   E   E      E   E   E   E   E   E   E   E   
----------------------------------|----------------------------------|
--13--13--13--13--13--13--13--13--|----------------------------------|
--10--10--10--10--10--10--10--10--|--12--12--12--12--12--12--12--12--|
--12--12--12--12--12--12--12--12--|--12--12--12--12--12--12--12--12--|
----------------------------------|----------------------------------|
----------------------------------|----------------------------------|


    E   E    E   E    E   E    E   E       E   E    E   E    E   E    E   E   
--------------------------------------|--------------------------------------|
--(13)-----(13)-----(13)-----(13)-----|--(10)-----(10)-----(10)-----(10)-----|
--(10)-----(10)-----(10)-----(10)-----|--(10)-----(10)-----(10)-----(10)-----|
--(12)-----(12)-----(12)-----(12)-----|--(12)-----(12)-----(12)-----(12)-----|
--------------------------------------|--------------------------------------|
--------------------------------------|--------------------------------------|


    E   E    E   E    E   E    E   E       E   E    E   E    E   E    E   E   
--------------------------------------|--------------------------------------|
--(13)-----(13)-----(13)-----(13)-----|--------------------------------------|
--(10)-----(10)-----(10)-----(10)-----|--(12)-----(12)-----(12)-----(12)-----|
--(12)-----(12)-----(12)-----(12)-----|--(12)-----(12)-----(12)-----(12)-----|
--------------------------------------|--------------------------------------|
--------------------------------------|--------------------------------------|


    E   E    E   E    E   E    E   E       E   E    E   E    E   E    E   E   
--------------------------------------|--------------------------------------|
--(13)-----(13)-----(13)-----(13)-----|--(10)-----(10)-----(10)-----(10)-----|
--(10)-----(10)-----(10)-----(10)-----|--(10)-----(10)-----(10)-----(10)-----|
--(12)-----(12)-----(12)-----(12)-----|--(12)-----(12)-----(12)-----(12)-----|
--------------------------------------|--------------------------------------|
--------------------------------------|--------------------------------------|


    E   E    E   E    E   E    E   E       E   E    E   E    E   E    E   E   
--------------------------------------|--------------------------------------|
--(13)-----(13)-----(13)-----(13)-----|--------------------------------------|
--(10)-----(10)-----(10)-----(10)-----|--(12)-----(12)-----(12)-----(12)-----|
--(12)-----(12)-----(12)-----(12)-----|--(12)-----(12)-----(12)-----(12)-----|
--------------------------------------|--------------------------------------|
--------------------------------------|--------------------------------------|


    E   E    E   E    E   E    E   E       E   E    E   E    E   E    E   E   
--------------------------------------|--------------------------------------|
--(13)-----(13)-----(13)-----(13)-----|--(10)-----(10)-----(10)-----(10)-----|
--(10)-----(10)-----(10)-----(10)-----|--(10)-----(10)-----(10)-----(10)-----|
--(12)-----(12)-----(12)-----(12)-----|--(12)-----(12)-----(12)-----(12)-----|
--------------------------------------|--------------------------------------|
--------------------------------------|--------------------------------------|


    E   E    E   E    E   E    E   E       E   E    E   E    E   E    E   E   
--------------------------------------|--------------------------------------|
--(13)-----(13)-----(13)-----(13)-----|--------------------------------------|
--(10)-----(10)-----(10)-----(10)-----|--(12)-----(12)-----(12)-----(12)-----|
--(12)-----(12)-----(12)-----(12)-----|--(12)-----(12)-----(12)-----(12)-----|
--------------------------------------|--------------------------------------|
--------------------------------------|--------------------------------------|


    E   E    E   E    E   E    E   E       E   E    E   E    E   E    E   E   
--------------------------------------|--------------------------------------|
--(13)-----(13)-----(13)-----(13)-----|--(10)-----(10)-----(10)-----(10)-----|
--(10)-----(10)-----(10)-----(10)-----|--(10)-----(10)-----(10)-----(10)-----|
--(12)-----(12)-----(12)-----(12)-----|--(12)-----(12)-----(12)-----(12)-----|
--------------------------------------|--------------------------------------|
--------------------------------------|--------------------------------------|


    E   E    E   E    E   E    E   E       E   E    E   E    E   E    E   E   
--------------------------------------|--------------------------------------|
--(13)-----(13)-----(13)-----(13)-----|--------------------------------------|
--(10)-----(10)-----(10)-----(10)-----|--(12)-----(12)-----(12)-----(12)-----|
--(12)-----(12)-----(12)-----(12)-----|--(12)-----(12)-----(12)-----(12)-----|
--------------------------------------|--------------------------------------|
--------------------------------------|--------------------------------------|


   E    E    E    E    E    E    E    E    
------------------------------------------|
------------------------------------------|
--(7)--(7)--(7)--(7)--(7)--(7)--(7)--(7)--|
------------------------------------------|
--(5)--(5)--(5)--(5)--(5)--(5)--(5)--(5)--|
------------------------------------------|


    E     E     E     E     E     E     E     E    
--------------------------------------------------|
--------------------------------------------------|
--(10)--(10)--(10)--(10)--(10)--(10)--(10)--(10)--|
--------------------------------------------------|
---(8)---(8)---(8)---(8)---(8)---(8)---(8)---(8)--|
--------------------------------------------------|


    E     E     E     E     E     E     E     E    
--------------------------------------------------|
--------------------------------------------------|
--(12)--(12)--(12)--(12)--(12)--(12)--(12)--(12)--|
--------------------------------------------------|
--(10)--(10)--(10)--(10)--(10)--(10)--(10)--(10)--|
--------------------------------------------------|


  E  E  E  E  S   S E  E   E     E   E   E   E   E   E   E   E   
------------------------------|---------------------------------|
--------6--8--9s-10-8--6--13--|--L--13--13--13--13--13--13--13--|
-----7--------------------10--|--L--10--10--10--10--10--10--10--|
--------------------------12--|--L--12--12--12--12--12--12--12--|
------------------------------|---------------------------------|
------------------------------|---------------------------------|


   E   E   E   E   E   E   E   E      E   E   E   E   E   E   E   E   
----------------------------------|----------------------------------|
--10--10--10--10--10--10--10--10--|--13--13--13--13--13--13--13--13--|
--10--10--10--10--10--10--10--10--|--10--10--10--10--10--10--10--10--|
--12--12--12--12--12--12--12--12--|--12--12--12--12--12--12--12--12--|
----------------------------------|----------------------------------|
----------------------------------|----------------------------------|


   E   E   E   E   E   E   E   E      E   E   E   E   E   E   E   E   
----------------------------------|----------------------------------|
----------------------------------|--13--13--13--13--13--13--13--13--|
--12--12--12--12--12--12--12--12--|--10--10--10--10--10--10--10--10--|
--12--12--12--12--12--12--12--12--|--12--12--12--12--12--12--12--12--|
----------------------------------|----------------------------------|
----------------------------------|----------------------------------|


   E   E   E   E   E   E   E   E      E   E   E   E   E   E   E   E   
----------------------------------|----------------------------------|
--10--10--10--10--10--10--10--10--|--13--13--13--13--13--13--13--13--|
--10--10--10--10--10--10--10--10--|--10--10--10--10--10--10--10--10--|
--12--12--12--12--12--12--12--12--|--12--12--12--12--12--12--12--12--|
----------------------------------|----------------------------------|
----------------------------------|----------------------------------|


   E   E   E   E   E   E   E   E     E  E   E  E   E   E   E  E   
----------------------------------|------------------------------|
----------------------------------|------------------------------|
--12--12--12--12--12--12--12--12--|--5--7--10--7--14--12--10--7--|
--12--12--12--12--12--12--12--12--|------------------------------|
----------------------------------|------------------------------|
----------------------------------|------------------------------|


   E  E  E  Q    E  E   E     E   E   E   E   E  E  E  E   
---------------------------|-----------------10--8--5--L--|
---------------------------|------------------------------|
--10--7--5--7----5--7--10--|--7--10--14--10---------------|
---------------------------|------------------------------|
---------------------------|------------------------------|
---------------------------|------------------------------|


   E  E  Q     E   E   E  E     E  E   E   E   E   E   E  E   
--10--8--5-------------------|-------------------------------|
-----------------------------|-------------------------------|
-----------------------------|-----7--10--12--14--12--10--7--|
-----------------------------|-------------------------------|
---------------x---x---x--x--|-------------------------------|
---------------x---x---x--x--|-------------------------------|


   E  E  E  Q.      E  E      E   E   E   E   E  E  Q     
--------------------------|------------------10--8--5----|
--------------------------|------------------------------|
--10--7--5--7~------5--7--|--10--12--14--12--------------|
--------------------------|------------------------------|
--------------------------|------------------------------|
--------------------------|------------------------------|


  E  E  E  E  E  E  E  E     E   E    E    E    E    E    E    E    
--1--1--1--1--1--1--1--1--|----------------------------------------|
--3--3--3--3--3--3--3--3--|----------------------------------------|
--------------------------|----------------------------------------|
--------------------------|----------------------------------------|
--------------------------|-----(0)--(3)--(5)--(6)--(5)--(3)--(0)--|
--------------------------|-----(0)--(3)--(5)--(6)--(5)--(3)--(0)--|


  E   E    E    E    E    E    E    E    
----------------------------------------|
----------------------------------------|
----------------------------------------|
----------------------------------------|
-----(6)--(5)--(0)--(3)--(3)--(3)--(3)--|
-----(6)--(5)--(0)--(3)--(3)--(3)--(3)--|


  E   E    E    E    E    E    E    E    
----------------------------------------|
----------------------------------------|
----------------------------------------|
----------------------------------------|
-----(0)--(3)--(5)--(6)--(5)--(3)--(0)--|
-----(0)--(3)--(5)--(6)--(5)--(3)--(0)--|


  E   E    E    E    E    E    E    E        E   E    E   E    E   E    E   E   
----------------------------------------|--------------------------------------|
----------------------------------------|--(13)-----(13)-----(13)-----(13)-----|
----------------------------------------|--(10)-----(10)-----(10)-----(10)-----|
----------------------------------------|--(12)-----(12)-----(12)-----(12)-----|
-----(6)--(5)--(0)--(3)--(3)--(3)--(3)--|--------------------------------------|
-----(6)--(5)--(0)--(3)--(3)--(3)--(3)--|--------------------------------------|


    E   E    E   E    E   E    E   E       E   E    E   E    E   E    E   E   
--------------------------------------|--------------------------------------|
--(10)-----(10)-----(10)-----(10)-----|--(13)-----(13)-----(13)-----(13)-----|
--(10)-----(10)-----(10)-----(10)-----|--(10)-----(10)-----(10)-----(10)-----|
--(12)-----(12)-----(12)-----(12)-----|--(12)-----(12)-----(12)-----(12)-----|
--------------------------------------|--------------------------------------|
--------------------------------------|--------------------------------------|


    E   E    E   E    E   E    E   E       E   E    E   E    E   E    E   E   
--------------------------------------|--------------------------------------|
--------------------------------------|--(13)-----(13)-----(13)-----(13)-----|
--(12)-----(12)-----(12)-----(12)-----|--(10)-----(10)-----(10)-----(10)-----|
--(12)-----(12)-----(12)-----(12)-----|--(12)-----(12)-----(12)-----(12)-----|
--------------------------------------|--------------------------------------|
--------------------------------------|--------------------------------------|


    E   E    E   E    E   E    E   E       E   E    E   E    E   E    E   E   
--------------------------------------|--------------------------------------|
--(10)-----(10)-----(10)-----(10)-----|--(13)-----(13)-----(13)-----(13)-----|
--(10)-----(10)-----(10)-----(10)-----|--(10)-----(10)-----(10)-----(10)-----|
--(12)-----(12)-----(12)-----(12)-----|--(12)-----(12)-----(12)-----(12)-----|
--------------------------------------|--------------------------------------|
--------------------------------------|--------------------------------------|


    E   E    E   E    E   E    E   E     W                   W                 
--------------------------------------|-------------------|-------------------|
--------------------------------------|-------------------|-------------------|
--(12)-----(12)-----(12)-----(12)-----|-------------------|-------------------|
--(12)-----(12)-----(12)-----(12)-----|-------------------|-------------------|
--------------------------------------|-------------------|-------------------|
--------------------------------------|-------------------|-------------------|


  W                   W                     E   E    E   E    E   E    E   E   
-------------------|-------------------|--------------------------------------|
-------------------|-------------------|--(13)-----(13)-----(13)-----(13)-----|
-------------------|-------------------|--(10)-----(10)-----(10)-----(10)-----|
-------------------|-------------------|--(12)-----(12)-----(12)-----(12)-----|
-------------------|-------------------|--------------------------------------|
-------------------|-------------------|--------------------------------------|


    E   E    E   E    E   E    E   E       E   E    E   E    E   E    E   E   
--------------------------------------|--------------------------------------|
--(10)-----(10)-----(10)-----(10)-----|--(13)-----(13)-----(13)-----(13)-----|
--(10)-----(10)-----(10)-----(10)-----|--(10)-----(10)-----(10)-----(10)-----|
--(12)-----(12)-----(12)-----(12)-----|--(12)-----(12)-----(12)-----(12)-----|
--------------------------------------|--------------------------------------|
--------------------------------------|--------------------------------------|


    E   E    E   E    E   E    E   E   
--------------------------------------|
--------------------------------------|
--(12)-----(12)-----(12)-----(12)-----|
--(12)-----(12)-----(12)-----(12)-----|
--------------------------------------|
--------------------------------------|


   E    E    E    E    E    E    E    E    
------------------------------------------|
------------------------------------------|
--(7)--(7)--(7)--(7)--(7)--(7)--(7)--(7)--|
------------------------------------------|
--(5)--(5)--(5)--(5)--(5)--(5)--(5)--(5)--|
------------------------------------------|


    E     E     E     E     E     E     E     E    
--------------------------------------------------|
--------------------------------------------------|
--(10)--(10)--(10)--(10)--(10)--(10)--(10)--(10)--|
--------------------------------------------------|
---(8)---(8)---(8)---(8)---(8)---(8)---(8)---(8)--|
--------------------------------------------------|


    E     E     E     E     E     E     E     E    
--------------------------------------------------|
--------------------------------------------------|
--(12)--(12)--(12)--(12)--(12)--(12)--(12)--(12)--|
--------------------------------------------------|
--(10)--(10)--(10)--(10)--(10)--(10)--(10)--(10)--|
--------------------------------------------------|


  E  E  E  E  S   S E  E   E     E   E   E   E   E   E   E   E   
------------------------------|---------------------------------|
--------6--8--9s-10-8--6--13--|--L--13--13--13--13--13--13--13--|
-----7--------------------10--|--L--10--10--10--10--10--10--10--|
--------------------------12--|--L--12--12--12--12--12--12--12--|
------------------------------|---------------------------------|
------------------------------|---------------------------------|


   E   E   E   E   E   E   E   E      E   E   E   E   E   E   E   E   
----------------------------------|----------------------------------|
--10--10--10--10--10--10--10--10--|--13--13--13--13--13--13--13--13--|
--10--10--10--10--10--10--10--10--|--10--10--10--10--10--10--10--10--|
--12--12--12--12--12--12--12--12--|--12--12--12--12--12--12--12--12--|
----------------------------------|----------------------------------|
----------------------------------|----------------------------------|


   E   E   E   E   E   E   E   E      E   E   E   E   E   E   E   E   
----------------------------------|----------------------------------|
----------------------------------|--13--13--13--13--13--13--13--13--|
--12--12--12--12--12--12--12--12--|--10--10--10--10--10--10--10--10--|
--12--12--12--12--12--12--12--12--|--12--12--12--12--12--12--12--12--|
----------------------------------|----------------------------------|
----------------------------------|----------------------------------|


   E   E   E   E   E   E   E   E      E   E   E   E   E   E   E   E   
----------------------------------|----------------------------------|
--10--10--10--10--10--10--10--10--|--13--13--13--13--13--13--13--13--|
--10--10--10--10--10--10--10--10--|--10--10--10--10--10--10--10--10--|
--12--12--12--12--12--12--12--12--|--12--12--12--12--12--12--12--12--|
----------------------------------|----------------------------------|
----------------------------------|----------------------------------|


   E   E   E   E   E   E   E   E     E  E   E  E   E   E   E  E   
----------------------------------|------------------------------|
----------------------------------|------------------------------|
--12--12--12--12--12--12--12--12--|--5--7--10--7--14--12--10--7--|
--12--12--12--12--12--12--12--12--|------------------------------|
----------------------------------|------------------------------|
----------------------------------|------------------------------|


   E  E  E  Q    E  E   E     E   E   E   E   E  E  E  E   
---------------------------|-----------------10--8--5--L--|
---------------------------|------------------------------|
--10--7--5--7----5--7--10--|--7--10--14--10---------------|
---------------------------|------------------------------|
---------------------------|------------------------------|
---------------------------|------------------------------|


   E  E  Q     E   E   E  E     E  E   E   E   E   E   E  E   
--10--8--5-------------------|-------------------------------|
-----------------------------|-------------------------------|
-----------------------------|-----7--10--12--14--12--10--7--|
-----------------------------|-------------------------------|
---------------x---x---x--x--|-------------------------------|
---------------x---x---x--x--|-------------------------------|


   E  E  E  Q.      E  E      E   E   E   E   E  E  Q     
--------------------------|------------------10--8--5----|
--------------------------|------------------------------|
--10--7--5--7~------5--7--|--10--12--14--12--------------|
--------------------------|------------------------------|
--------------------------|------------------------------|
--------------------------|------------------------------|


  E  E  E  E  E  E  E  E     E   Q.      E   Q.       
--1--1--1--1--1--1--1--1--|--------------------------|
--3--3--3--3--3--3--3--3--|--------------------------|
--------------------------|--------------------------|
--------------------------|-----(0)---------(0)------|
--------------------------|-----(0)---------(0)------|
--------------------------|-----(0)---------(0)------|


  E   E    E    E    E    E    E    E      E   Q.      E   Q.       
----------------------------------------|--------------------------|
----------------------------------------|--------------------------|
----------------------------------------|--------------------------|
-----(3)--(3)--(3)--(3)--(3)--(3)--(3)--|-----(0)---------(0)------|
-----(3)--(3)--(3)--(3)--(3)--(3)--(3)--|-----(0)---------(0)------|
-----(3)--(3)--(3)--(3)--(3)--(3)--(3)--|-----(0)---------(0)------|


  E   E    E    E    E    E    E    E      E   Q.      E   Q.       
----------------------------------------|--------------------------|
----------------------------------------|--------------------------|
----------------------------------------|--------------------------|
-----(3)--(3)--(3)--(5)--(5)--(5)--(5)--|-----(0)---------(0)------|
-----(3)--(3)--(3)--(5)--(5)--(5)--(5)--|-----(0)---------(0)------|
-----(3)--(3)--(3)--(5)--(5)--(5)--(5)--|-----(0)---------(0)------|


  E   E    E    E    E    E    E    E      E   E    E    E    E    E   E   E    
----------------------------------------|--------------------------------------|
----------------------------------------|--------------------------------------|
----------------------------------------|--------------------------------------|
-----(5)--(5)--(5)--(6)--(6)--(6)--(6)--|--------------------------------------|
-----(5)--(5)--(5)--(6)--(6)--(6)--(6)--|-----(6)--(5)--(0)--(3)--(0)-----(6)--|
-----(5)--(5)--(5)--(6)--(6)--(6)--(6)--|-----(6)--(5)--(0)--(3)--(0)-----(6)--|


   E    E    E    E   E   E   E   E      E   E    E    E    E    E   E   E    
--------------------------------------|--------------------------------------|
--------------------------------------|--------------------------------------|
--------------------------------------|--------------------------------------|
-------------------------(x)-----(x)--|--------------------------------------|
--(5)--(0)--(3)--(5)-----(x)-----(x)--|-----(6)--(5)--(0)--(3)--(0)-----(6)--|
--(5)--(0)--(3)--(5)-----(x)-----(x)--|-----(6)--(5)--(0)--(3)--(0)-----(6)--|


   E    E    E    E   E    E   E    E     
-----------------------------------------|
-----------------------------------------|
-----------------------------------------|
-------------------------(12)-----(12)\--|
--(5)--(0)--(3)--(5)-----(12)-----(12)\--|
--(5)--(0)--(3)--(5)-----(12)-----(12)\--|


  S S  E    E    E    E    E   E   E    
---------------------------------------|
---------------------------------------|
---------------------------------------|
--L------------------------------------|
--L---(6)--(5)--(0)--(3)--(0)-----(6)--|
--L---(6)--(5)--(0)--(3)--(0)-----(6)--|


   E    E    E    E   E   E    E    E      E   E    E    E    E    E   E   E    
----------------------------------------|--------------------------------------|
----------------------------------------|--------------------------------------|
----------------------------------------|--------------------------------------|
-------------------------(x)--(x)--(x)--|--------------------------------------|
--(5)--(0)--(3)--(5)-----(x)--(x)--(x)--|-----(6)--(5)--(0)--(3)--(0)-----(6)--|
--(5)--(0)--(3)--(5)-----(x)--(x)--(x)--|-----(6)--(5)--(0)--(3)--(0)-----(6)--|


   E    E    E    E    E    E    E    E      W                 
------------------------------------------|-------------------|
------------------------------------------|-------------------|
------------------------------------------|-------------------|
-------------------------------------(0)--|--L----------------|
--(5)--(0)--(3)--(5)--(x)--(3)--(5)--(0)--|--L----------------|
--(5)--(0)--(3)--(5)--(x)--(3)--(5)--(0)--|--L----------------|


   W                     E   E   E   E   E   E   E   E   
---------------------|----------------------------------|
---------------------|----------------------------------|
---------------------|--12--12--12--12--12--12--12--12--|
--(8)----------------|----------------------------------|
--(8)----------------|--10--10--10--10--10--10--10--10--|
--(8)----------------|----------------------------------|


   E   E   E   E   E   E   E   E     E  E  E  E  E  E  E  E   
----------------------------------|--------------------------|
----------------------------------|--------------------------|
--15--15--15--15--15--15--15--15--|--7--7--7--7--7--7--7--7--|
----------------------------------|--------------------------|
--13--13--13--13--13--13--13--13--|--5--5--5--5--5--5--5--5--|
----------------------------------|--------------------------|


   E   E   E   E   E   E   E   E      E   E   E   E   E   E   E   E   
----------------------------------|----------------------------------|
----------------------------------|----------------------------------|
--10--10--10--10--10--10--10--10--|--12--12--12--12--12--12--12--12--|
----------------------------------|----------------------------------|
---8---8---8---8---8---8---8---8--|--10--10--10--10--10--10--10--10--|
----------------------------------|----------------------------------|


   E   E   E   E   E   E   E   E     E  E   E  E   E   E   E  E   
----------------------------------|------------------------------|
----------------------------------|------------------------------|
--15--15--15--15--15--15--15--15--|-----7--10--7--14--12--10--7--|
----------------------------------|------------------------------|
--13--13--13--13--13--13--13--13--|------------------------------|
----------------------------------|------------------------------|


   E  E  E  Q    E  E   E     E   E   E   E   E  E  E  E   
---------------------------|-----------------10--8--5--L--|
---------------------------|------------------------------|
--10--7--5--7----5--7--10--|--7--10--14--10---------------|
---------------------------|------------------------------|
---------------------------|------------------------------|
---------------------------|------------------------------|


   E  E   E  E   E  E  E   E     E  E   E   E   E   E   E  E   
--13-----12-----10-----8--10--|-------------------------------|
------------------------------|-------------------------------|
------------------------------|-----7--10--12--14--12--10--7--|
------------------------------|-------------------------------|
------------------------------|-------------------------------|
------------------------------|-------------------------------|


   E  E  E  Q.      E  E      E   E   E   E   E  E  Q     
--------------------------|------------------10--8--5----|
--------------------------|------------------------------|
--10--7--5--7~------5--7--|--10--12--14--12--------------|
--------------------------|------------------------------|
--------------------------|------------------------------|
--------------------------|------------------------------|


  E  E  E  E  E  E  E  E     E   E    E   E   E    E   E   E    
--1--1--1--1--1--1--1--1--|------------------------------------|
--3--3--3--3--3--3--3--3--|------------------------------------|
--------------------------|------------------------------------|
--------------------------|------------------------------------|
--------------------------|-----(0)--(0)-----(0)--(0)-----(0)--|
--------------------------|-----(0)--(0)-----(0)--(0)-----(0)--|


   E   E   E    E   H           E   E    E   E   E    E   E   E    
-----------------------------|------------------------------------|
-----------------------------|------------------------------------|
-----------------------------|------------------------------------|
-----------------------------|------------------------------------|
--(0)-----(0)--(0)-----------|-----(0)--(0)-----(0)--(0)-----(0)--|
--(0)-----(0)--(0)-----------|-----(0)--(0)-----(0)--(0)-----(0)--|


   E   E   E    E   E    E   E    E       S S  E    E   E   E    E   E   E    
---------------------------------------|-------------------------------------|
---------------------------------------|-------------------------------------|
---------------------------------------|-------------------------------------|
-----------------------(12)-----(12)\--|--L----------------------------------|
--(0)-----(0)--(0)-----(12)-----(12)\--|--L---(0)--(0)-----(0)--(0)-----(0)--|
--(0)-----(0)--(0)-----(12)-----(12)\--|--L---(0)--(0)-----(0)--(0)-----(0)--|


   E   E   E    E   H           E   E    E   E   E    E   E   E    
-----------------------------|------------------------------------|
-----------------------------|------------------------------------|
-----------------------------|------------------------------------|
-----------------------------|------------------------------------|
--(0)-----(0)--(0)-----------|-----(0)--(0)-----(0)--(0)-----(0)--|
--(0)-----(0)--(0)-----------|-----(0)--(0)-----(0)--(0)-----(0)--|


   E   E   E    E   E    E   E    E       Q.     Q.     Q     
---------------------------------------|---------------------|
---------------------------------------|---------------------|
---------------------------------------|---------------------|
-----------------------(12)-----(12)\--|--L------------------|
--(0)-----(0)--(0)-----(12)-----(12)\--|--L------------------|
--(0)-----(0)--(0)-----(12)-----(12)\--|--L------------------|




Guitar 2
      W                   W                   W                 
D#||-------------------|-------------------|-------------------|
A#||-------------------|-------------------|-------------------|
F#||-------------------|-------------------|-------------------|
C#||-------------------|-------------------|-------------------|
G#||-------------------|-------------------|-------------------|
C#||-------------------|-------------------|-------------------|


  H        Q      Q         W                    W                 
-------------------------|-------------------|--------------------|
-------------------------|-------------------|--------------------|
-------------------------|-------------------|--------------------|
----------------(12)\----|--0----------------|--10----------------|
----------------(12)\----|--0----------------|---8----------------|
----------------(12)\----|--0----------------|---8----------------|


   W                   E  E  E  E  E  E  E  E     Q    Q    Q    Q     
--------------------|--------------------------|----------------------|
--------------------|--------------------------|----------------------|
--------------------|--------------------------|----------------------|
---9----------------|-----------------------0--|--L----0----0----0----|
--10----------------|-----0--3--5--6--5--3--0--|--L----0----0----0----|
---9----------------|-----0--3--5--6--5--3--0--|--L----0----0----0----|


  Q    Q    Q    Q        Q     Q     Q     Q       Q    Q    Q    Q     
----------------------|--------------------------|----------------------|
----------------------|--------------------------|----------------------|
----------------------|--------------------------|----------------------|
--8----8----8----8----|---9-----9-----9-----9----|--8----8----8----8----|
--8----8----8----8----|--10----10----10----10----|--8----8----8----8----|
--8----8----8----8----|---9-----9-----9-----9----|--8----8----8----8----|


  Q    Q    Q    Q       Q    Q    Q    Q        Q     Q     Q     Q     
----------------------|----------------------|--------------------------|
----------------------|----------------------|--------------------------|
----------------------|----------------------|--------------------------|
--0----0----0----0----|--8----8----8----8----|---9-----9-----9-----9----|
--0----0----0----0----|--8----8----8----8----|--10----10----10----10----|
--0----0----0----0----|--8----8----8----8----|---9-----9-----9-----9----|


                            PM PM PM PM PM PM PM       PM PM PM PM PM PM PM  
  Q    Q    Q    Q       E  E  E  E  E  E  E  E     E  E  E  E  E  E  E  E   
----------------------|--------------------------|--------------------------|
----------------------|--------------------------|--------------------------|
----------------------|--------------------------|--------------------------|
--8----8----8----8----|-----0--0--0--0--0--0--0--|-----8--8--8--8--8--8--8--|
--8----8----8----8----|-----0--0--0--0--0--0--0--|-----8--8--8--8--8--8--8--|
--8----8----8----8----|-----0--0--0--0--0--0--0--|-----8--8--8--8--8--8--8--|


      PM  PM  PM  PM  PM  PM  PM       PM PM PM PM PM PM PM  
  E   E   E   E   E   E   E   E     E  E  E  E  E  E  E  E   
---------------------------------|--------------------------|
---------------------------------|--------------------------|
---------------------------------|--------------------------|
------9---9---9---9---9---9---9--|--------------------------|
-----10--10--10--10--10--10--10--|-----0--3--5--6--5--6--0--|
------9---9---9---9---9---9---9--|-----0--3--5--6--5--6--0--|


     PM PM PM PM PM PM PM       PM PM PM PM PM PM PM  
  E  E  E  E  E  E  E  E     E  E  E  E  E  E  E  E   
--------------------------|--------------------------|
--------------------------|--------------------------|
--------------------------|--------------------------|
-----0--0--0--0--0--0--0--|-----8--8--8--8--8--8--8--|
-----0--0--0--0--0--0--0--|-----8--8--8--8--8--8--8--|
-----0--0--0--0--0--0--0--|-----8--8--8--8--8--8--8--|


      PM  PM  PM  PM  PM  PM  PM                               
  E   E   E   E   E   E   E   E      E   E  E  E  E  E  E  E   
---------------------------------|----------------------------|
---------------------------------|----------------------------|
---------------------------------|----------------------------|
------9---9---9---9---9---9---9--|----------------------------|
-----10--10--10--10--10--10--10--|--12\--0--3--5--6--5--3--0--|
------9---9---9---9---9---9---9--|--12\--0--3--5--6--5--3--0--|


     PM PM PM PM PM PM PM       PM PM PM PM PM PM PM  
  E  E  E  E  E  E  E  E     E  E  E  E  E  E  E  E   
--------------------------|--------------------------|
--------------------------|--------------------------|
--------------------------|--------------------------|
-----0--0--0--0--0--0--0--|-----8--8--8--8--8--8--8--|
-----0--0--0--0--0--0--0--|-----8--8--8--8--8--8--8--|
-----0--0--0--0--0--0--0--|-----8--8--8--8--8--8--8--|


      PM  PM  PM  PM  PM  PM  PM       PM PM PM PM PM PM      
  E   E   E   E   E   E   E   E     E  E  E  E  E  E  E  E    
---------------------------------|---------------------------|
---------------------------------|---------------------------|
---------------------------------|-----------------------7\--|
------9---9---9---9---9---9---9--|---------------------------|
-----10--10--10--10--10--10--10--|-----0--3--5--0--3--5--5\--|
------9---9---9---9---9---9---9--|-----0--3--5--0--3--5------|


      PM PM PM PM PM PM PM       PM PM PM PM PM PM PM  
  S S E  E  E  E  E  E  E     E  E  E  E  E  E  E  E   
---------------------------|--------------------------|
---------------------------|--------------------------|
--L------------------------|--------------------------|
------0--0--0--0--0--0--0--|-----8--8--8--8--8--8--8--|
--L---0--0--0--0--0--0--0--|-----8--8--8--8--8--8--8--|
------0--0--0--0--0--0--0--|-----8--8--8--8--8--8--8--|


      PM  PM  PM  PM  PM  PM  PM                               
  E   E   E   E   E   E   E   E      E   E  E  E  E  E  E  E   
---------------------------------|----------------------------|
---------------------------------|----------------------------|
---------------------------------|----------------------------|
------9---9---9---9---9---9---9--|----------------------------|
-----10--10--10--10--10--10--10--|--12\--0--3--5--6--5--3--5--|
------9---9---9---9---9---9---9--|--12\--0--3--5--6--5--3--5--|


  W                    W                    W                 
-------------------|--------------------|--------------------|
-------------------|--------------------|--------------------|
-------------------|--------------------|--------------------|
--0----------------|--10----------------|---9----------------|
--0----------------|---8----------------|--10----------------|
--0----------------|---8----------------|---9----------------|


  E  E  E  E  E  E  E  E     Q    Q    Q    Q       Q    Q    Q    Q     
--------------------------|----------------------|----------------------|
--------------------------|----------------------|----------------------|
--------------------------|----------------------|----------------------|
-----------------------0--|--L----0----0----0----|--8----8----8----8----|
-----0--3--5--6--5--3--0--|--L----0----0----0----|--8----8----8----8----|
-----0--3--5--6--5--3--0--|--L----0----0----0----|--8----8----8----8----|


   Q     Q     Q     Q       Q    Q    Q    Q       Q    Q    Q    Q     
--------------------------|----------------------|----------------------|
--------------------------|----------------------|----------------------|
--------------------------|----------------------|----------------------|
---9-----9-----9-----9----|--8----8----8----8----|--0----0----0----0----|
--10----10----10----10----|--8----8----8----8----|--0----0----0----0----|
---9-----9-----9-----9----|--8----8----8----8----|--0----0----0----0----|


  Q    Q    Q    Q        Q     Q     Q     Q       Q    Q    Q    Q     
----------------------|--------------------------|----------------------|
----------------------|--------------------------|----------------------|
----------------------|--------------------------|----------------------|
--8----8----8----8----|---9-----9-----9-----9----|--8----8----8----8----|
--8----8----8----8----|--10----10----10----10----|--8----8----8----8----|
--8----8----8----8----|---9-----9-----9-----9----|--8----8----8----8----|


  E  E  E  E  E  E  E  E     E  E  E  E  E  E  E  E   
--------------------------|--------------------------|
--------------------------|--------------------------|
--------------------------|--------------------------|
--0--0--0--0--0--0--0--0--|--8--8--8--8--8--8--8--8--|
--0--0--0--0--0--0--0--0--|--8--8--8--8--8--8--8--8--|
--0--0--0--0--0--0--0--0--|--8--8--8--8--8--8--8--8--|


   E   E   E   E   E   E   E   E     E  E  E  E  E  E  E  E   
----------------------------------|--------------------------|
----------------------------------|--------------------------|
----------------------------------|--------------------------|
---9---9---9---9---9---9---9---9--|--8--8--8--8--8--8--8--8--|
--10--10--10--10--10--10--10--10--|--8--8--8--8--8--8--8--8--|
---9---9---9---9---9---9---9---9--|--8--8--8--8--8--8--8--8--|


  Q    Q    Q    Q       Q    Q    Q    Q        Q     Q     Q     Q     
----------------------|----------------------|--------------------------|
----------------------|----------------------|--------------------------|
----------------------|----------------------|--------------------------|
--0----0----0----0----|--8----8----8----8----|---9-----9-----9-----9----|
--0----0----0----0----|--8----8----8----8----|--10----10----10----10----|
--0----0----0----0----|--8----8----8----8----|---9-----9-----9-----9----|


  Q    Q    Q    E  E     E  E  E  E  E  E  E  E     E  E  E  E  E  E  E  E   
-----------------------|--------------------------|--------------------------|
-----------------------|--------------------------|--------------------------|
-----------------------|--------------------------|--------------------------|
--8----8----8----8--8--|--------------------------|--------------------------|
--8----8----8----8--8--|-----0--3--5--6--5--3--0--|-----6--5--0--3--3--3--3--|
--8----8----8----8--8--|-----0--3--5--6--5--3--0--|-----6--5--0--3--3--3--3--|


  E  E  E  E  E  E  E  E     E  E  E  E  E  E  E  E   
--------------------------|--------------------------|
--------------------------|--------------------------|
--------------------------|--------------------------|
--------------------------|--------------------------|
-----0--3--5--6--5--3--0--|-----6--5--0--3--3--3--3--|
-----0--3--5--6--5--3--0--|-----6--5--0--3--3--3--3--|


  PM PM PM PM PM PM PM PM    PM PM PM PM PM PM PM PM  
  E  E  E  E  E  E  E  E     E  E  E  E  E  E  E  E   
--------------------------|--------------------------|
--------------------------|--------------------------|
--------------------------|--------------------------|
--0--0--0--0--0--0--0--0--|--8--8--8--8--8--8--8--8--|
--0--0--0--0--0--0--0--0--|--8--8--8--8--8--8--8--8--|
--0--0--0--0--0--0--0--0--|--8--8--8--8--8--8--8--8--|


   PM  PM  PM  PM  PM  PM  PM  PM    PM PM PM PM PM             
   E   E   E   E   E   E   E   E     E  E  E  E  E  E  E   E    
----------------------------------|----------------------------|
----------------------------------|----------------------------|
----------------------------------|----------------------------|
---9---9---9---9---9---9---9---9--|--8--8--8--8--8--8-----10\--|
--10--10--10--10--10--10--10--10--|--8--8--8--8--8--8------8\--|
---9---9---9---9---9---9---9---9--|--8--8--8--8--8--8------8\--|


      PM PM PM PM PM PM PM       PM PM PM PM PM PM PM  
  S S E  E  E  E  E  E  E     E  E  E  E  E  E  E  E   
---------------------------|--------------------------|
---------------------------|--------------------------|
---------------------------|--------------------------|
--L---0--0--0--0--0--0--0--|-----8--8--8--8--8--8--8--|
--L---0--0--0--0--0--0--0--|-----8--8--8--8--8--8--8--|
--L---0--0--0--0--0--0--0--|-----8--8--8--8--8--8--8--|


      PM  PM  PM  PM  PM  PM  PM                               
  E   E   E   E   E   E   E   E      E   E  E  E  E  E  E  E   
---------------------------------|----------------------------|
---------------------------------|----------------------------|
---------------------------------|----------------------------|
------9---9---9---9---9---9---9--|----------------------------|
-----10--10--10--10--10--10--10--|--12\--0--3--5--6--5--3--0--|
------9---9---9---9---9---9---9--|--12\--0--3--5--6--5--3--0--|


  W                   W                   W                 
-------------------|-------------------|-------------------|
-------------------|-------------------|-------------------|
-------------------|-------------------|-------------------|
-------------------|-------------------|-------------------|
-------------------|-------------------|-------------------|
-------------------|-------------------|-------------------|


                          PM PM PM PM PM PM PM PM    PM PM PM PM PM PM PM PM  
  H        Q     Q        E  E  E  E  E  E  E  E     E  E  E  E  E  E  E  E   
-----------------------|--------------------------|--------------------------|
-----------------------|--------------------------|--------------------------|
-----------------------|--------------------------|--------------------------|
----------------12\----|--0--0--0--0--0--0--0--0--|--8--8--8--8--8--8--8--8--|
----------------12\----|--0--0--0--0--0--0--0--0--|--8--8--8--8--8--8--8--8--|
----------------12\----|--0--0--0--0--0--0--0--0--|--8--8--8--8--8--8--8--8--|


   PM  PM  PM  PM  PM  PM                                     
   E   E   E   E   E   E   E   E     E  E  E  E  E  E  E  E   
----------------------------------|--------------------------|
----------------------------------|--------------------------|
----------------------------------|--------------------------|
---9---9---9---9---9---9---9---9--|--8--8--8--8--8--8--8--8--|
--10--10--10--10--10--10--10--10--|--8--8--8--8--8--8--8--8--|
---9---9---9---9---9---9---9---9--|--8--8--8--8--8--8--8--8--|


  W                    W                    W                 
-------------------|--------------------|--------------------|
-------------------|--------------------|--------------------|
-------------------|--------------------|--------------------|
--0----------------|--10----------------|---9----------------|
--0----------------|---8----------------|--10----------------|
--0----------------|---8----------------|---9----------------|


  E  E  E  E  E  E  E  E     Q    Q    Q    Q       Q    Q    Q    Q     
--------------------------|----------------------|----------------------|
--------------------------|----------------------|----------------------|
--------------------------|----------------------|----------------------|
-----------------------0--|--L----0----0----0----|--8----8----8----8----|
-----0--3--5--6--5--3--0--|--L----0----0----0----|--8----8----8----8----|
-----0--3--5--6--5--3--0--|--L----0----0----0----|--8----8----8----8----|


   Q     Q     Q     Q       Q    Q    Q    Q       Q    Q    Q    Q     
--------------------------|----------------------|----------------------|
--------------------------|----------------------|----------------------|
--------------------------|----------------------|----------------------|
---9-----9-----9-----9----|--8----8----8----8----|--0----0----0----0----|
--10----10----10----10----|--8----8----8----8----|--0----0----0----0----|
---9-----9-----9-----9----|--8----8----8----8----|--0----0----0----0----|


  Q    Q    Q    Q        Q     Q     Q     Q       Q    Q    Q    Q     
----------------------|--------------------------|----------------------|
----------------------|--------------------------|----------------------|
----------------------|--------------------------|----------------------|
--8----8----8----8----|---9-----9-----9-----9----|--8----8----8----8----|
--8----8----8----8----|--10----10----10----10----|--8----8----8----8----|
--8----8----8----8----|---9-----9-----9-----9----|--8----8----8----8----|


  E  E  E  E  E  E  E  E     E  E  E  E  E  E  E  E   
--------------------------|--------------------------|
--------------------------|--------------------------|
--------------------------|--------------------------|
--0--0--0--0--0--0--0--0--|--8--8--8--8--8--8--8--8--|
--0--0--0--0--0--0--0--0--|--8--8--8--8--8--8--8--8--|
--0--0--0--0--0--0--0--0--|--8--8--8--8--8--8--8--8--|


   E   E   E   E   E   E   E   E     E  E  E  E  E  E  E  E   
----------------------------------|--------------------------|
----------------------------------|--------------------------|
----------------------------------|--------------------------|
---9---9---9---9---9---9---9---9--|--8--8--8--8--8--8--8--8--|
--10--10--10--10--10--10--10--10--|--8--8--8--8--8--8--8--8--|
---9---9---9---9---9---9---9---9--|--8--8--8--8--8--8--8--8--|


  Q    Q    Q    Q       Q    Q    Q    Q        Q     Q     Q     Q     
----------------------|----------------------|--------------------------|
----------------------|----------------------|--------------------------|
----------------------|----------------------|--------------------------|
--0----0----0----0----|--8----8----8----8----|---9-----9-----9-----9----|
--0----0----0----0----|--8----8----8----8----|--10----10----10----10----|
--0----0----0----0----|--8----8----8----8----|---9-----9-----9-----9----|


  Q    Q    E  E  E  E     E  Q.     E  Q.        E  E  E  E  E  E  E  E   
------------------------|----------------------|--------------------------|
------------------------|----------------------|--------------------------|
------------------------|----------------------|--------------------------|
--8----8----8--8--8--8--|-----0---------0------|-----3--3--3--3--3--3--3--|
--8----8----8--8--8--8--|-----0---------0------|-----3--3--3--3--3--3--3--|
--8----8----8--8--8--8--|-----0---------0------|-----3--3--3--3--3--3--3--|


  E  Q.     E  Q.        E  E  E  E  E  E  E  E     E  Q.     E  Q.      
----------------------|--------------------------|----------------------|
----------------------|--------------------------|----------------------|
----------------------|--------------------------|----------------------|
-----0---------0------|-----3--3--3--5--5--5--5--|-----0---------0------|
-----0---------0------|-----3--3--3--5--5--5--5--|-----0---------0------|
-----0---------0------|-----3--3--3--5--5--5--5--|-----0---------0------|


  E  E  E  E  E  E  E  E     E  E  E  E  E  E  E  E   
--------------------------|--------------------------|
--------------------------|--------------------------|
--------------------------|--------------------------|
-----5--5--5--6--6--6--6--|--------------------------|
-----5--5--5--6--6--6--6--|-----6--5--0--3--0-----6--|
-----5--5--5--6--6--6--6--|-----6--5--0--3--0-----6--|


  E  E  E  E  E  E  E  E     E  E  E  E  E  E  E  E   
--------------------------|--------------------------|
--------------------------|--------------------------|
--------------------------|--------------------------|
-----------------x-----x--|--------------------------|
--5--0--3--5-----x-----x--|-----6--5--0--3--0-----6--|
--5--0--3--5-----x-----x--|-----6--5--0--3--0-----6--|


  E  E  E  E  E   E  E   E      S S E  E  E  E  E  E  E   
-----------------------------|---------------------------|
-----------------------------|---------------------------|
-----------------------------|---------------------------|
-----------------12-----12\--|--L------------------------|
--5--0--3--5-----12-----12\--|--L---6--5--0--3--0-----6--|
--5--0--3--5-----12-----12\--|--L---6--5--0--3--0-----6--|


  E  E  E  E  E  E  E  E     E  E  E  E  E  E  E  E   
--------------------------|--------------------------|
--------------------------|--------------------------|
--------------------------|--------------------------|
-----------------x--x--x--|--------------------------|
--5--0--3--5-----x--x--x--|-----6--5--0--3--0-----6--|
--5--0--3--5-----x--x--x--|-----6--5--0--3--0-----6--|


  E  E  E  E  E  E  E  E     W                   W                 
--------------------------|-------------------|-------------------|
--------------------------|-------------------|-------------------|
--------------------------|-------------------|-------------------|
-----------------------0--|--L----------------|--8----------------|
--5--0--3--5--0--3--5--0--|--L----------------|--8----------------|
--5--0--3--5--0--3--5--0--|--L----------------|--8----------------|


                                              PM PM PM PM PM PM PM PM  
   W                   H        Q    Q        E  E  E  E  E  E  E  E   
--------------------|----------------------|--------------------------|
--------------------|----------------------|--------------------------|
--------------------|----------------------|--------------------------|
---9----------------|--8--------L----8\----|--0--0--0--0--0--0--0--0--|
--10----------------|--8--------L----8\----|--0--0--0--0--0--0--0--0--|
---9----------------|--8--------L----8\----|--0--0--0--0--0--0--0--0--|


  PM PM PM PM PM PM PM PM     PM  PM  PM  PM                  
  E  E  E  E  E  E  E  E      E   E   E   E   E   E   E   E   
--------------------------|----------------------------------|
--------------------------|----------------------------------|
--------------------------|----------------------------------|
--8--8--8--8--8--8--8--8--|---9---9---9---9---9---9---9---9--|
--8--8--8--8--8--8--8--8--|--10--10--10--10--10--10--10--10--|
--8--8--8--8--8--8--8--8--|---9---9---9---9---9---9---9---9--|


  E  E  E  E  E  E  E  E     E  E  E  E  E  E  E  E   
--------------------------|--------------------------|
--------------------------|--------------------------|
--------------------------|--------------------------|
--8--8--8--8--8--8--8--8--|-----0--0--0--0--0--0--0--|
--8--8--8--8--8--8--8--8--|-----0--0--0--0--0--0--0--|
--8--8--8--8--8--8--8--8--|-----0--0--0--0--0--0--0--|


  E  E  E  E  E  E  E  E      E   E   E   E   E   E   E   E   
--------------------------|----------------------------------|
--------------------------|----------------------------------|
--------------------------|----------------------------------|
--8--8--8--8--8--8--8--8--|---9---9---9---9---9---9---9---9--|
--8--8--8--8--8--8--8--8--|--10--10--10--10--10--10--10--10--|
--8--8--8--8--8--8--8--8--|---9---9---9---9---9---9---9---9--|


  E  E  E  E  E  E  E  E     E  E  E  E  E  E  E  E   
--------------------------|--------------------------|
--------------------------|--------------------------|
--------------------------|--------------------------|
--8--8--8--8--8--8--8--8--|-----0--0--0--0--0--0--0--|
--8--8--8--8--8--8--8--8--|-----0--0--0--0--0--0--0--|
--8--8--8--8--8--8--8--8--|-----0--0--0--0--0--0--0--|


  E  E  E  E  E  E  E  E      E   E   E   E   E   E   E   E   
--------------------------|----------------------------------|
--------------------------|----------------------------------|
--------------------------|----------------------------------|
--8--8--8--8--8--8--8--8--|---9---9---9---9---9---9---9---9--|
--8--8--8--8--8--8--8--8--|--10--10--10--10--10--10--10--10--|
--8--8--8--8--8--8--8--8--|---9---9---9---9---9---9---9---9--|


  E  E  E  E  E  E  E  E     E  E  E  E  E  E  E  E     E  E  E  E  H         
--------------------------|--------------------------|-----------------------|
--------------------------|--------------------------|-----------------------|
--------------------------|--------------------------|-----------------------|
--8--8--8--8--8--8--8--8--|-----0--0-----0--0-----0--|--0-----0--0-----------|
--8--8--8--8--8--8--8--8--|-----0--0-----0--0-----0--|--0-----0--0-----------|
--8--8--8--8--8--8--8--8--|-----0--0-----0--0-----0--|--0-----0--0-----------|


  E  E  E  E  E  E  E  E     E  E  E  E  E   E  E   E    
--------------------------|-----------------------------|
--------------------------|-----------------------------|
--------------------------|-----------------------------|
-----0--0-----0--0-----0--|--0-----0--0-----12-----12\--|
-----0--0-----0--0-----0--|--0-----0--0-----12-----12\--|
-----0--0-----0--0-----0--|--0-----0--0-----12-----12\--|


  S S E  E  E  E  E  E  E     E  E  E  E  H           E  E  E  E  E  E  E  E   
---------------------------|-----------------------|--------------------------|
---------------------------|-----------------------|--------------------------|
---------------------------|-----------------------|--------------------------|
--L---0--0-----0--0-----0--|--0-----0--0-----------|-----0--0-----0--0-----0--|
--L---0--0-----0--0-----0--|--0-----0--0-----------|-----0--0-----0--0-----0--|
--L---0--0-----0--0-----0--|--0-----0--0-----------|-----0--0-----0--0-----0--|


  E  E  E  E  E   E  E   E      Q.     Q.     Q       W                  
-----------------------------|---------------------|-------------------||
-----------------------------|---------------------|-------------------||
-----------------------------|---------------------|-------------------||
--0-----0--0-----12-----12\--|--L------------------|-------------------||
--0-----0--0-----12-----12\--|--L------------------|-------------------||
--0-----0--0-----12-----12\--|--L------------------|-------------------||
comments
We did not receive enough feedback on this tab! Please rate:
print report bad tab
1 2 3 4 5
3 comments total.
0 reply
JonamaticStatic wrote on December 27 2006, 06:13 pm

I can play this song by droping my guitar down to a D tuning.

0 reply
SLVRSTN+HH4LIFE wrote on August 5 2007, 11:56 am

will somebody please make a good tab for this? its not in dropped C and this one is so confusing its impossible to follow

0 reply
markchordz wrote on November 18 2009, 03:48 am

the tuning is wrong not drop C# you can transcribe the song in drop D pattern..the song can be drop in 2 notes...

I want to post or [tab]
guest
You may want to rate the tab now too:
select rating
Please do not post tabs as comments. Select "correction" instead!