Oops, an error
Loading. Please wait.

Search And Rescue Tab

372 views 1 this week
1 commentread comment
1 2 3 4 5
excellent!
x 4
Autoscroll
+/-
esc
set tempo
stop
Contributor
Hey! There's an official Ultimate Guitar app which is ideal
for learning songs when you're away from computer. Get the app
WARNING: You are trying to view
                                    content from Ultimate-Guitar.com
                                    in an unauthorized application,
                                    which is prohibited.

                                    Please use an official Ultimate
                                    Guitar Tabs application for iPhone,
                                    iPad or Android to access legitimate
                                    chords, guitar, bass, and drum tabs
                                    from Ultimate-Guitar.com database.

                                    Type "ultimate guitar tabs" in Apple
                                    App Store's or Android Market's
                                    search to find the application.
http://www.myamericanheartrock.com
http://www.purevolume.com/myamericanheart

Band: My American Heart
Song: Search And Rescure
Album: My American Heart

tabbed by Jeremy Mendez ©

Really great song, also Fun Song To Play, Enjoy :).
- Edwin

~ = hold.
-x- = scratch.
/ = slide.
x = palm mute.
> = continue playing chord.
[] = repeat markers.
. = bend.

INTRO:
e|---------------------------------------------------------------------xxx--|
B|--------------------5~------------------------------5~---------------xxx--|
G|--------------------5~------------------------------5~---------------xxx--|
D|x0~---0-2-3-0-5-3-0-3~----------------0-2-3-0-5-3-0-3~---------------xxx--|
A|x0~---0-2-3-0-5-3-0-3~----------------0-2-3-0-5-3-0-3~---------------xxx--|
d|x0~---0-2-3-0-5-3-0-3~----------------0-2-3-0-5-3-0-3~---------------xxx--|
                      a dozen city lights... its bitter cold tonight.

e|--------------------------------------------------------------------------|
B|--------------------------------------------------------------------------|
G|--------------------------------------------------------------------------|
D|-7-7--9--9--9--9---9---9--------9-9-9--9--9--9---9-----------x0~----------|
A|-7-7--7--7--7--10--10--8/7------7-7-7--7--7--10--10----------x0~----------|
d|-7-7--7--7--7--7---7---7--------7-7-7--7--7--7---9-----------x0~----------|


e|--------------------------------------------------------------------------|
B|---------------5~------------------------------5~-------------------------|
G|---------------5~------------------------------5~-------------------------|
D|-0-2-3-0-5-3-0-3~----------------0-2-3-0-5-3-0-3~-------------------------|
A|-0-2-3-0-5-3-0-3~----------------0-2-3-0-5-3-0-3~-------------------------|
d|-0-2-3-0-5-3-0-3~----------------0-2-3-0-5-3-0-3~-------------------------|


e|--------------------------------------------------------------------------|
B|--------------------------------------------------------------------------|
G|--------------------------------------------------------------------------|
D|-7-7--9--9--9--9---9---9--------9-9-9--9--9---9---------------------------|
A|-7-7--7--7--7--10--10--8/7------7-7-7--7--7---8---------------------------|
d|-7-7--7--7--7--7---7---7--------7-7-7--7--7---7---------------------------|
        im not satisfied... (just complicated.)


VERSE:
e|---------------------------------xxx---------------------------------------|
B|---------------------------------xxx-----------5-5-5-----------------------|
G|---------------------------------xxx-----------5-5-5---4-4-4---2-2-2---xxx-|
D|-3-3-3---5-5-5---3-3-3---5-5-5---xxx---0-0-0---0-0-0---5-5-5---3-3-3---xxx-|
A|-3-3-3---3-3-3---3-3-3---3-3-3---xxx---0-0-0---0-0-0---0-0-0---0-0-0---xxx-|
d|-3-3-3---3-3-3---3-3-3---3-3-3---xxx---0-0-0---0-0-0---0-0-0---0-0-0---xxx-|
        so go and we'll jet this..

e|-----------------------------------------xxxxx------------------------------|
B|-----------------------------------------xxxxx----------5-5-5---------------|
G|-----------------------------------------xxxxx----------5-5-5---4-4-4-2-2-2-|
D|-3-3-xx-xx--3-3-x-xxxxx-3-3-xx-xx--3-3-3-xxxxx5-0-0-0---0-0-0---5-5-5-3-3-3-|
A|-3-3-xx-xx--3-3-x-xxxxx-3-3-xx-xx--3-3-3-xxxxx--0-0-0---0-0-0---0-0-0-0-0-0-|
d|-3-3-xx-xx--3-3-x-xxxxx-3-3-xx-xx--3-3-3-xxxxx--0-0-0---0-0-0---0-0-0-0-0-0-|


CHORUS:
e|--------------------------------------------------------------------------|
B|--------------------------------------------------------------------------|
G|--------------------------------------------------------------------------|
D|--3-5-5->--0-2-2->----9-99-9-99-9-99-9-99---5/7/5------[repeat 3x]--------|
A|--3-3-3->--0-0-0->----7-77-7-77-7-77-7-77---5/7/5-------------------------|
d|--3-3-3->--0-0-0->----7-77-7-77-7-77-7-77---5/7/5-------------------------|
             if forever.. then theres no..

e|--------------------------------------------------------------------------|
B|--------------------------------------------------------------------------|
G|--------------------------------------------------------------------------|
D|--3-5-5->--0-2-2->----9-9-xx--9-9-9-9-------------------------------------|
A|--3-3-3->--0-0-0->----7-7-xx--7-7-7-7-------------------------------------|
d|--3-3-3->--0-0-0->----7-7-xx--7-7-7-7-------------------------------------|


CHORUS PART II:

e|--------------------------------------------------------------------------|
B|--------------------------------------------------------------------------|
G|--------------------------------------------------------------------------|
D|--5/7-7-7-7-77--5-5-5-5--555-5-5-5-5-5-5-5~-------------------------------|
A|--5/7-7-7-7-77--3-3-3-3--222-2-3-3-3-3-5-5~-------------------------------|
d|--5/7-7-7-7-77-----------222-2-3-3-3-3-5-5~-------------------------------|

                  lets go somewhere far now...

e|--------------------------------------------------------------------------|
B|--------------------------------------------------------------------------|
G|--------------------------------------------------------------------------|
D|--5/7-7-7-7-77--5-5-5-5------5-5-5-5-5-555~-------------------------------|
A|--5/7-7-7-7-77--3-3-3-3--000-3-3-3-3-3-555~-------------------------------|
d|--5/7-7-7-7-77-----------000-3-3-3-3-3-555~-------------------------------|

                 we'll dissapate our fears..

(lead)
e|---------------------------------------------------------------------------|
B|-----------------------------5/0-------5/0---------------------------------|
G|---------------------------------5/0-------5/0--4/5/4/0--------------------|
D|---------------------------------------------------------------------------|
A|---------------------------------------------------------------------------|
d|---------------------------------------------------------------------------|

e|--------------------------------------------------------------------------|
B|--------------------------------------------------------------------------|
G|--------------------------------------------------------------------------|
D|--5/7-7-7-7-77--5-5-5-5--555-5-5-5-5-5-5-5~-------------------------------|
A|--5/7-7-7-7-77--3-3-3-3--222-2-3-3-3-3-5-5~-------------------------------|
d|--5/7-7-7-7-77-----------222-2-3-3-3-3-5-5~-------------------------------|

                   your saying..

(lead)
e|--------------------------------------------------------------------------|
B|--------------------------------------------------------------------------|
G|------------------------------7-77/9-9-9/7-7--7/5-------------------------|
D|--------------------------------------------------------------------------|
A|------------------------------5-55/7-7-7/5-5--5/3-------------------------|
d|--------------------------------------------------------------------------|


e|--------------------------------------------------------------------------|
B|--------------------------------------------------------------------------|
G|--------------------------------------------------------------------------|
D|---5/7-7-7-7-77--5-5-5-5----------3~--------------------------------------|
A|---5/7-7-7-7-77--3-3-3-3---2222---3~--------------------------------------|
d|---5/7-7-7-7-77------------2222---3~--------------------------------------|
                             xxx
but she doesnt know. ill never...

INTRO:

e|--------------------------------------------------------------------------|
B|---------------5~------------------------------5~-------------------------|
G|---------------5~------------------------------5~-------------------------|
D|-0-2-3-0-5-3-0-3~----------------0-2-3-0-5-3-0-3~----5--7~---9.~----------|
A|-0-2-3-0-5-3-0-3~----------------0-2-3-0-5-3-0-3~----5--7~---7~-----------|
d|-0-2-3-0-5-3-0-3~----------------0-2-3-0-5-3-0-3~----5--7~---7~-----------|
                                                          a lover..

VERSE:

e|--------------------------------------------------------------------------|
B|--------------------------------------------------------------------------|
G|-----555--444--444---5--444--555--444--4----------------------------------|
D|--2--555--555--555---5--555--555--555--5----------------------------------|
A|--2--333--333--333---3--333--333--333--3----------------------------------|
d|--2--333--333--333---3--333--333--333--3----------------------------------|
so ill wait forever but she's already

e|--------------------------------------------------------------------------|
B|--------------------------------------------------------------------------|
G|--------------------------------------------------------------------------|
D|-7-7--9--9--9--9---9---9--------9-9-9--9--9--9---9---9-----xxx------------|
A|-7-7--7--7--7--10--10--8/7------7-7-7--7--7--10--10--8/7---xxx------------|
d|-7-7--7--7--7--7---7---7--------7-7-7--7--7--7---7---7-----xxx------------|
mine.. my heart. search &

e|-------------------xxxxx--------------------------------------------------|
B|-------------------xxxxx--------------------------------------------------|
G|---555----444--444-xxxxx--5--444--5---------------------------------------|
D|---555----555--555-xxxxx--5--555--5---------------------------------------|
A|---333----333--333-xxxxx--3--333--3---------------------------------------|
d|---333----333--333-xxxxx--3--333--3---------------------------------------|
rescue but ive...

CHORUS:


e|--------------------------------------------------------------------------|
B|--------------------------------------------------------------------------|
G|--------------------------------------------------------------------------|
D|--5/7-7-7-7-77--5-5-5-5--555-5-5-5-5-5-5-5~-------------------------------|
A|--5/7-7-7-7-77--3-3-3-3--222-2-3-3-3-3-5-5~-------------------------------|
d|--5/7-7-7-7-77-----------222-2-3-3-3-3-5-5~-------------------------------|


e|--------------------------------------------------------------------------|
B|--------------------------------------------------------------------------|
G|--------------------------------------------------------------------------|
D|--5/7-7-7-7-77--5-5-5-5------5-5-5-5-5-555~-------------------------------|
A|--5/7-7-7-7-77--3-3-3-3--000-3-3-3-3-3-555~-------------------------------|
d|--5/7-7-7-7-77-----------000-3-3-3-3-3-555~-------------------------------|


e|--------------------------------------------------------------------------|
B|--------------------------------------------------------------------------|
G|--------------------------------------------------------------------------|
D|--5/7-7-7-7-77--5-5-5-5--555-5-5-5-5-5-5-5~-------------------------------|
A|--5/7-7-7-7-77--3-3-3-3--222-2-3-3-3-3-5-5~-------------------------------|
d|--5/7-7-7-7-77-----------222-2-3-3-3-3-5-5~-------------------------------|


e|--------------------------------------------------------------------------|
B|--------------------------------------------------------------------------|
G|--------------------------------------------------------------------------|
D|---5/7-7-7-7-77--5-5-5-5-----2--3~----0~-----7~-------9~-----9------------|
A|---5/7-7-7-7-77--3-3-3-3---2-2--3~----0~-----7~-------8~-----8------------|
d|---5/7-7-7-7-77------------2-2--3~----0~-----7~-------7~-----7------------|
                       but she doesnt know...

e|--------------------------------------------------------------------------|
B|--------------------------------------------------------------------------|
G|--------------------------------------------------------------------------|
D|------3~----0~----7~------------------x0----------------------------------|
A|------3~----0~----7~----77777777------x0----------------------------------|
d|------3~----0~----7~----77777777------x0----------------------------------|
                          xxxxxxxx


e|--------------------------------------------------------------------------|
B|----------12-12-12------------12-12-12------------------------------------|
G|----------15-15-15------------15-15-15---9-9-9-9-9-9-9-9------------------|
D|-----------------------------------------8-8-8-8-8-8-8-8-----[x3]---------|
A|----3-3-3-----------0-00-0-0-------------7-7-7-7-7-7-7-7------------------|
d|----3-3-3-----------0-00-0-0-------------7-7-7-7-7-7-7-7------------------|
but hey (wonderful) isnt she (beautiful) goodnight....


e|--------------------------------------------------------------------------|
B|-----------12-12-12----------12-12-12-------------------------------------|
G|-----------15-15-15----------15-15-15----9-9-9-9-9-9-9-9----xx0-----------|
D|-----------------------------------------8-8-8-8-8-8-8-8----xx0-----------|
A|----3-3-3-----------0-00-0-0-------------7-7-7-7-7-7-7-7----xx0-----------|
d|----3-3-3-----------0-00-0-0-------------7-7-7-7-7-7-7-7----xx0-----------|
     but hey (wonderful) isnt she (beautiful) goodnight....

e|--------------------------------------------------------------------------|
B|--------------------------------------------------------------------------|
G|--------------------------------------------------------------------------|
D|----33--33--00--00--0-0---77--77--55--55--5-5------[x2]-------------------|
A|----33--33--00--00--0-0---77--77--55--55--5-5-----------------------------|
d|----33--33--00--00--0-0---77--77--55--55--5-5-----------------------------|


e|--------------------------------------------------------------------------|
B|--------------------------------------------------------------------------|
G|--------------------------------------------------------------------------|
D|---3333--00000000--7777777--5555555-------[x2]----------------------------|
A|---3333--00000000--7777777--5555555---------------------------------------|
d|---3333--00000000--7777777--5555555---------------------------------------|
    (goodnight) goodnight...


e|--------------------------------------------------------------------------|
B|--------------------------------------------------------------------------|
G|--------------------------------------------------------------------------|
D|--5/7-7-7-7-77--5-5-5-5--555-5--5~----------------------------------------|
A|--5/7-7-7-7-77--3-3-3-3--222-2--3~----------------------------------------|
d|--5/7-7-7-7-77-----------222-2--3~----------------------------------------|
xxx x
ending lead:
e|--------------------------------------------------------------------------|
B|--------------------------------------------------------------------------|
G|-------------------------------5/7~/5~------------------------------------|
D|-------------------------------x/x~/x~------------------------------------|
A|-------------------------------3/5~/3~------------------------------------|
E|--------------------------------------------------------------------------|
comments
print report bad tab
1 comment total.
0 reply
baka.aegis wrote on March 25 2007, 06:45 pm

good job

I want to post or [tab]
guest
You may want to rate the tab now too:
select rating
Please do not post tabs as comments. Select "correction" instead!