Oops, an error
Loading. Please wait.

We Are The Fabrication Tab

462 views 1 this week
no commentswrite comment
1 2 3 4 5
worth learning
x 1
Autoscroll
+/-
esc
set tempo
stop
Contributor
Difficulty
Tuning
novice
C# G# C# F# A# D#
WARNING: You are trying to view
                                    content from Ultimate-Guitar.com
                                    in an unauthorized application,
                                    which is prohibited.

                                    Please use an official Ultimate
                                    Guitar Tabs application for iPhone,
                                    iPad or Android to access legitimate
                                    chords, guitar, bass, and drum tabs
                                    from Ultimate-Guitar.com database.

                                    Type "ultimate guitar tabs" in Apple
                                    App Store's or Android Market's
                                    search to find the application.
This was done by ear, Have Fun, thanks

Guitar 1
      PM PM PM PM PM PM PM PM    PM PM PM PM PM PM PM PM  
      E  E  E  E  E  E  E  E     E  E  E  E  E  E  E  E   
D#||--------------------------|--------------------------|
A#||--------------------------|--------------------------|
F#||--------------------------|--------------------------|
C#||--------------------------|--------------------------|
G#||--------------------------|--------------------------|
C#||--7--7--7--7--7--7--7--7--|--7--7--7--7--7--5--7--5--|


  PM PM PM PM PM PM PM PM    PM PM PM PM PM PM PM PM  
  E  E  E  E  E  E  E  E     E  E  E  E  E  E  E  E   
--------------------------|--------------------------|
--------------------------|--------------------------|
--------------------------|--------------------------|
--------------------------|--------------------------|
--------------------------|--------------------------|
--7--7--7--7--7--7--7--7--|--7--7--7--7--7--5--7--5--|


  PM PM PM PM PM PM PM PM    PM PM PM PM PM PM PM PM  
  E  E  E  E  E  E  E  E     E  E  E  E  E  E  E  E   
--------------------------|--------------------------|
--------------------------|--------------------------|
--------------------------|--------------------------|
--------------------------|--------------------------|
--------------------------|--------------------------|
--3--3--3--3--3--3--3--3--|--3--3--3--3--3--5--5--5--|


  PM PM PM PM PM PM PM PM    PM PM PM PM PM PM PM PM  
  E  E  E  E  E  E  E  E     E  E  E  E  E  E  E  E   
--------------------------|--------------------------|
--------------------------|--------------------------|
--------------------------|--------------------------|
--------------------------|--------------------------|
--------------------------|--------------------------|
--0--0--0--0--0--0--0--0--|--0--0--0--0--0--0--0--0--|


  PM PM PM PM PM PM PM PM    PM PM PM PM PM PM PM PM  
  E  E  E  E  E  E  E  E     E  E  E  E  E  E  E  E   
--------------------------|--------------------------|
--------------------------|--------------------------|
--------------------------|--------------------------|
--------------------------|--------------------------|
--------------------------|--------------------------|
--7--7--7--7--7--7--7--7--|--7--7--7--7--7--5--7--5--|


  PM PM PM PM PM PM PM PM    PM PM PM PM PM PM PM PM  
  E  E  E  E  E  E  E  E     E  E  E  E  E  E  E  E   
--------------------------|--------------------------|
--------------------------|--------------------------|
--------------------------|--------------------------|
--------------------------|--------------------------|
--------------------------|--------------------------|
--7--7--7--7--7--7--7--7--|--7--7--7--7--7--5--7--5--|


  PM PM PM PM PM PM PM PM    PM PM PM PM PM PM PM PM  
  E  E  E  E  E  E  E  E     E  E  E  E  E  E  E  E   
--------------------------|--------------------------|
--------------------------|--------------------------|
--------------------------|--------------------------|
--------------------------|--------------------------|
--------------------------|--------------------------|
--3--3--3--3--3--3--3--3--|--3--3--3--3--3--5--5--5--|


  PM PM PM PM PM PM PM PM    PM PM PM PM PM PM PM PM  
  E  E  E  E  E  E  E  E     E  E  E  E  E  E  E  E   
--------------------------|--------------------------|
--------------------------|--------------------------|
--------------------------|--------------------------|
--------------------------|--------------------------|
--------------------------|--------------------------|
--0--0--0--0--0--0--0--0--|--0--0--0--0--0--0--0--0--|


  PM PM PM PM PM PM PM PM    PM PM PM PM PM PM PM PM  
  E  E  E  E  E  E  E  E     E  E  E  E  E  E  E  E   
--------------------------|--------------------------|
--------------------------|--------------------------|
--------------------------|--------------------------|
--------------------------|--------------------------|
--------------------------|--------------------------|
--7--7--7--7--7--7--7--7--|--7--7--7--7--7--5--7--5--|


  PM PM PM PM PM PM PM PM    PM PM PM PM PM PM PM PM  
  E  E  E  E  E  E  E  E     E  E  E  E  E  E  E  E   
--------------------------|--------------------------|
--------------------------|--------------------------|
--------------------------|--------------------------|
--------------------------|--------------------------|
--------------------------|--------------------------|
--7--7--7--7--7--7--7--7--|--7--7--7--7--7--5--7--5--|


  PM PM PM PM PM PM PM PM    PM PM PM PM PM PM PM PM  
  E  E  E  E  E  E  E  E     E  E  E  E  E  E  E  E   
--------------------------|--------------------------|
--------------------------|--------------------------|
--------------------------|--------------------------|
--------------------------|--------------------------|
--------------------------|--------------------------|
--3--3--3--3--3--3--3--3--|--3--3--3--3--3--5--5--5--|


  PM PM PM PM PM PM PM PM    PM PM PM PM PM PM PM PM  
  E  E  E  E  E  E  E  E     E  E  E  E  E  E  E  E   
--------------------------|--------------------------|
--------------------------|--------------------------|
--------------------------|--------------------------|
--------------------------|--------------------------|
--------------------------|--------------------------|
--0--0--0--0--0--0--0--0--|--0--0--0--0--0--0--0--0--|


  PM PM PM PM PM PM PM PM    PM PM PM PM PM PM PM PM  
  E  E  E  E  E  E  E  E     E  E  E  E  E  E  E  E   
--------------------------|--------------------------|
--------------------------|--------------------------|
--------------------------|--------------------------|
--------------------------|--------------------------|
--------------------------|--------------------------|
--7--7--7--7--7--7--7--7--|--7--7--7--7--7--7--7--7--|


  PM PM PM PM PM PM PM PM    PM PM PM PM PM PM                                  
  E  E  E  E  E  E  E  E     E  E  E  E  E  E  Q       E  E  E  E  E  E  E  E   
--------------------------|-------------------------|--------------------------|
--------------------------|-------------------------|--------------------------|
--------------------------|-------------------------|--------------------------|
--------------------------|-------------------------|--7--7--7--7--7--7--7--7--|
--------------------------|-------------------------|--7--7--7--7--7--7--7--7--|
--7--7--7--7--7--7--7--7--|--7--7--7--7--7--7-------|--7--7--7--7--7--7--7--7--|


  E  E  E  E  E  E  E  E     E  E  E  E  E  E  E  E   
--------------------------|--------------------------|
--------------------------|--------------------------|
--------------------------|--------------------------|
--7--7--7--7--7--7--7--7--|--7--7--7--7--7--7--7--7--|
--7--7--7--7--7--7--7--7--|--7--7--7--7--7--7--7--7--|
--7--7--7--7--7--7--7--7--|--7--7--7--7--7--7--7--7--|


  E  E  E  E  E  E  E  E     E  E  E  E  E  E  E  E   
--------------------------|--------------------------|
--------------------------|--------------------------|
--------------------------|--------------------------|
--7--7--7--7--7--7--7--7--|--3--3--3--3--3--3--3--3--|
--7--7--7--7--7--7--7--7--|--3--3--3--3--3--3--3--3--|
--7--7--7--7--7--7--7--7--|--3--3--3--3--3--3--3--3--|


  E  E  E  E  E  E  E  E     E  E  E  E  E  E  E  E   
--------------------------|--------------------------|
--------------------------|--------------------------|
--------------------------|--------------------------|
--3--3--3--3--3--3--3--3--|--3--3--3--3--3--3--3--3--|
--3--3--3--3--3--3--3--3--|--3--3--3--3--3--3--3--3--|
--3--3--3--3--3--3--3--3--|--3--3--3--3--3--3--3--3--|


  E  E  E  E  E  E  E  E     E  E  E  E  E  E  E  E   
--------------------------|--------------------------|
--------------------------|--------------------------|
--------------------------|--------------------------|
--3--3--3--3--3--3--3--3--|--7--7--7--7--7--7--7--7--|
--3--3--3--3--3--3--3--3--|--7--7--7--7--7--7--7--7--|
--3--3--3--3--3--3--3--3--|--7--7--7--7--7--7--7--7--|


  E  E  E  E  E  E  E  E     E  E  E  E  E  E  E  E   
--------------------------|--------------------------|
--------------------------|--------------------------|
--------------------------|--------------------------|
--7--7--7--7--7--7--7--7--|--7--7--7--7--7--7--7--7--|
--7--7--7--7--7--7--7--7--|--7--7--7--7--7--7--7--7--|
--7--7--7--7--7--7--7--7--|--7--7--7--7--7--7--7--7--|


  E  E  E  E  E  E  E  E     E  E  E  E  E  E  E  E   
--------------------------|--------------------------|
--------------------------|--------------------------|
--------------------------|--------------------------|
--7--7--7--7--7--7--7--7--|--3--3--3--3--3--3--3--3--|
--7--7--7--7--7--7--7--7--|--3--3--3--3--3--3--3--3--|
--7--7--7--7--7--7--7--7--|--3--3--3--3--3--3--3--3--|


  E  E  E  E  E  E  E  E     E  E  E  E  E  E  E  E   
--------------------------|--------------------------|
--------------------------|--------------------------|
--------------------------|--------------------------|
--3--3--3--3--3--3--3--3--|--3--3--3--3--3--3--3--3--|
--3--3--3--3--3--3--3--3--|--3--3--3--3--3--3--3--3--|
--3--3--3--3--3--3--3--3--|--3--3--3--3--3--3--3--3--|


  E  E  E  E  E  E  E  E     H        Q    Q       H        Q    Q     
--------------------------|---------------------|---------------------|
--------------------------|---------------------|---------------------|
--------------------------|---------------------|---------------------|
--3--3--3--3--3--3--3--3--|--7--------x---------|--7--------x---------|
--3--3--3--3--3--3--3--3--|--7--------x---------|--7--------x---------|
--3--3--3--3--3--3--3--3--|--7--------x---------|--7--------x---------|


  E  Q.      Q    Q       E.  E.  E  E.  E.  E     H        Q    Q     
-----------------------|------------------------|---------------------|
-----------------------|------------------------|---------------------|
-----------------------|------------------------|---------------------|
--x--7\------x---------|--3---3---3--0---0---0--|--7--------x---------|
--x--7\------x---------|--3---3---3--0---0---0--|--7--------x---------|
--x--7\------x---------|--3---3---3--0---0---0--|--7--------x---------|


  H        Q    Q       E  Q    H         E     E.  E.  E  E.  E.  E   
---------------------|-----------------------|------------------------|
---------------------|-----------------------|------------------------|
---------------------|-----------------------|------------------------|
--7--------x---------|--x--7----7\-----------|--3---3---3--0---0---0--|
--7--------x---------|--x--7----7\-----------|--3---3---3--0---0---0--|
--7--------x---------|--x--7----7\-----------|--3---3---3--0---0---0--|


  H        Q    Q       H        Q    Q       E  Q    Q    Q.      
---------------------|---------------------|----------------------|
---------------------|---------------------|----------------------|
---------------------|---------------------|----------------------|
--7--------x---------|--7--------x---------|--x--7----7----7------|
--7--------x---------|--7--------x---------|--x--7----7----7------|
--7--------x---------|--7--------x---------|--x--7----7----7------|


  E.  E.  E  E.  E.  E     W                   W                 
------------------------|-------------------|-------------------|
------------------------|-------------------|-------------------|
------------------------|-------------------|-------------------|
--3---3---3--0---0---0--|--7----------------|-------------------|
--3---3---3--0---0---0--|--7----------------|-------------------|
--3---3---3--0---0---0--|--7----------------|-------------------|


  W                   W                  
-------------------|-------------------||
-------------------|-------------------||
-------------------|-------------------||
-------------------|--L----------------||
-------------------|--L----------------||
-------------------|--L----------------||



Guitar 2
      W                   W                   W                 
D#||-------------------|-------------------|-------------------|
A#||-------------------|-------------------|-------------------|
F#||-------------------|-------------------|-------------------|
C#||-------------------|-------------------|-------------------|
G#||-------------------|-------------------|-------------------|
C#||-------------------|-------------------|-------------------|


  W                    Q     E   E    E     Q       E      W                 
-------------------|------------------------------------|-------------------|
-------------------|------------------------------------|-------------------|
-------------------|--12----12---L--(12)------------L---|--L----------------|
-------------------|------------------------------------|-------------------|
-------------------|------------12----L---(12)----(12)--|--L----------------|
-------------------|------------------------------------|-------------------|


   Q     E   E    E     E     E     E        Q       H.             
----------------------------------------|--------------------------|
----------------------------------------|--------------------------|
--12----12---L--(12)----L---(12)--------|------------L-------------|
------------10----L---(10)----L---(10)--|----L-------L-------------|
-----------------------------12-----L---|--(12)----(12)------------|
----------------------------------------|--------------------------|


   E   E    E    Q.      E   E       E    Q.      E   E   E   E   
--------------------------------|--------------------------------|
--------------------------------|--------------------------------|
--------------------------------|--------------------------------|
----------------10--------------|--------10--------------10--12--|
--10--12--(10)----------10--12--|--(10)----------10--12----------|
--------------------------------|--------------------------------|


   E   E    E    Q.      E   E       E    Q.      E   E   E   E   
--------------------------------|--------------------------------|
--------------------------------|--------------------------------|
--------------------------------|--------------------------------|
----------------10--------------|--------10--------------10--12--|
--10--12--(10)----------10--12--|--(10)----------10--12----------|
--------------------------------|--------------------------------|


   E   E    E    Q.      E   E       E    Q.      E   E   E   E   
--------------------------------|--------------------------------|
--------------------------------|--------------------------------|
----------------12--------------|--------12--------------12--14--|
--12--14--(12)----------12--14--|--(12)----------12--14----------|
--------------------------------|--------------------------------|
--------------------------------|--------------------------------|


   E   E    E    Q.      E   E       E    Q.      E   E   E   E   
--------------------------------|--------------------------------|
--------------------------------|--------------------------------|
----------------12--------------|--------12--------------12--14--|
--12--14--(12)----------12--14--|--(12)----------12--14----------|
--------------------------------|--------------------------------|
--------------------------------|--------------------------------|


   E   E    E    Q.      E   E       E    Q.      E   E   E   E   
--------------------------------|--------------------------------|
--------------------------------|--------------------------------|
--------------------------------|--------------------------------|
----------------10--------------|--------10--------------10--12--|
--10--12--(10)----------10--12--|--(10)----------10--12----------|
--------------------------------|--------------------------------|


   E   E    E    Q.      E   E       E    Q.      E   E   E   E   
--------------------------------|--------------------------------|
--------------------------------|--------------------------------|
--------------------------------|--------------------------------|
----------------10--------------|--------10--------------10--12--|
--10--12--(10)----------10--12--|--(10)----------10--12----------|
--------------------------------|--------------------------------|


   E   E    E    Q.      E   E       E    Q.      E   E   E   E   
--------------------------------|--------------------------------|
--------------------------------|--------------------------------|
----------------12--------------|--------12--------------12--14--|
--12--14--(12)----------12--14--|--(12)----------12--14----------|
--------------------------------|--------------------------------|
--------------------------------|--------------------------------|


    Q       Q       Q       Q      
----------------------------------|
----------------------------------|
--(12)----(12)----(12)----(12)----|
----------------------------------|
----------------------------------|
----------------------------------|


    E     E     E     E     E     E     E     E    
---(0)---(0)---(0)---(0)---(0)---(0)---(0)---(0)--|
--(10)--(10)--(10)--(10)--(10)--(10)--(10)--(10)--|
--------------------------------------------------|
--------------------------------------------------|
--------------------------------------------------|
--------------------------------------------------|


   PM  PM  PM  PM  PM  PM  PM  PM     PM  PM  PM  PM  PM  PM  PM  PM  
   E   E   E   E   E   E   E   E      E   E   E   E   E   E   E   E   
----------------------------------|----------------------------------|
----------------------------------|----------------------------------|
----------------------------------|----------------------------------|
----------------------------------|----------------------------------|
--12--12--12--12--12--12--12--12--|--12--12--12--12--12--12--12--12--|
----------------------------------|----------------------------------|


   PM  PM  PM  PM  PM  PM  PM  PM     PM  PM  PM  PM  PM  PM       
   E   E   E   E   E   E   E   E      E   E   E   E   E   E  Q     
----------------------------------|-------------------------------|
----------------------------------|-------------------------------|
----------------------------------|-------------------------------|
----------------------------------|-------------------------------|
--14--14--14--14--14--14--14--14--|--15--15--15--15--15--15-------|
----------------------------------|-------------------------------|


  E  E  E  E  E  E  E  E     E  E  E  E  E  E  E  E   
--------------------------|--------------------------|
--------------------------|--------------------------|
--------------------------|--------------------------|
--7--7--7--7--7--7--7--7--|--7--7--7--7--7--7--7--7--|
--7--7--7--7--7--7--7--7--|--7--7--7--7--7--7--7--7--|
--7--7--7--7--7--7--7--7--|--7--7--7--7--7--7--7--7--|


  E  E  E  E  E  E  E  E     E  E  E  E  E  E  E  E   
--------------------------|--------------------------|
--------------------------|--------------------------|
--------------------------|--------------------------|
--7--7--7--7--7--7--7--7--|--7--7--7--7--7--7--7--7--|
--7--7--7--7--7--7--7--7--|--7--7--7--7--7--7--7--7--|
--7--7--7--7--7--7--7--7--|--7--7--7--7--7--7--7--7--|


  E  E  E  E  E  E  E  E     E  E  E  E  E  E  E  E   
--------------------------|--------------------------|
--------------------------|--------------------------|
--------------------------|--------------------------|
--3--3--3--3--3--3--3--3--|--3--3--3--3--3--3--3--3--|
--3--3--3--3--3--3--3--3--|--3--3--3--3--3--3--3--3--|
--3--3--3--3--3--3--3--3--|--3--3--3--3--3--3--3--3--|


  E  E  E  E  E  E  E  E     E  E  E  E  E  E  E  E   
--------------------------|--------------------------|
--------------------------|--------------------------|
--------------------------|--------------------------|
--3--3--3--3--3--3--3--3--|--3--3--3--3--3--3--3--3--|
--3--3--3--3--3--3--3--3--|--3--3--3--3--3--3--3--3--|
--3--3--3--3--3--3--3--3--|--3--3--3--3--3--3--3--3--|


   E   E   E   E   E   E   E   E      E   E   E   E   E   E   E   E   
----------------------------------|----------------------------------|
--10--10--10--13--10--10--10--13--|--10--10--10--13--10--10--10--13--|
----------------------------------|----------------------------------|
----------------------------------|----------------------------------|
----------------------------------|----------------------------------|
----------------------------------|----------------------------------|


   E   E   E   E   E   E   E   E      E   E   E   E   E   E   E   E   
----------------------------------|------------------------------10--|
--10--10--10--13--10--10--10--13--|--10--10--10--13--10--10--10------|
----------------------------------|----------------------------------|
----------------------------------|----------------------------------|
----------------------------------|----------------------------------|
----------------------------------|----------------------------------|


   E   E   E   E   E   E   E   E      E   E   E   E   E   E   E   E   
----------------------------------|----------------------------------|
--10--10--10--13--10--10--10--13--|--10--10--10--13--10--10--10--13--|
----------------------------------|----------------------------------|
----------------------------------|----------------------------------|
----------------------------------|----------------------------------|
----------------------------------|----------------------------------|


   E   E   E   E   E   E   E   E      E   E   E   E   E   E   E   E   
----------------------------------|----------------------------------|
--10--10--10--13--10--10--10--13--|--10--10--10--13--10--10--10--13--|
----------------------------------|----------------------------------|
----------------------------------|----------------------------------|
----------------------------------|----------------------------------|
----------------------------------|----------------------------------|


   E   E   E   E   E   E   E   E      E   E   E   E   E   E   E   E   
----------------------------------|----------------------------------|
----------------------------------|----------------------------------|
--14--14--14--14--14--14--14--14--|--16--16--16--16--16--16--16--16--|
----------------------------------|----------------------------------|
--12--12--12--12--12--12--12--12--|--14--14--14--14--14--14--14--14--|
----------------------------------|----------------------------------|


   E   E   E   E   E   E   E   E      E   E   E   E   E   E   E   E   
----------------------------------|----------------------------------|
----------------------------------|----------------------------------|
--17--17--17--17--17--17--17--17--|--19--19--19--19--19--19--19--19--|
----------------------------------|----------------------------------|
--15--15--15--15--15--15--15--15--|--17--17--17--17--17--17--17--17--|
----------------------------------|----------------------------------|


   E   E   E   E   E   E   E   E      E   E   E   E   E   E   E   E   
----------------------------------|----------------------------------|
----------------------------------|----------------------------------|
--14--14--14--14--14--14--14--14--|--16--16--16--16--16--16--16--16--|
----------------------------------|----------------------------------|
--12--12--12--12--12--12--12--12--|--14--14--14--14--14--14--14--14--|
----------------------------------|----------------------------------|


   E   E   E   E   E   E   E   E      E   E   E   E   E   E   E   E   
----------------------------------|----------------------------------|
----------------------------------|----------------------------------|
--17--17--17--17--17--17--17--17--|--19--19--19--19--19--19--19--19--|
----------------------------------|----------------------------------|
--15--15--15--15--15--15--15--15--|--17--17--17--17--17--17--17--17--|
----------------------------------|----------------------------------|


   E   E   E   E   E   E   E   E      E   E   E   E   E   E   E   E   
----------------------------------|-------------------0---0---0---0--|
--10--10--10--10--10--10--10--10--|--10--10--10--10--10--10--10--10--|
----------------------------------|----------------------------------|
----------------------------------|----------------------------------|
----------------------------------|----------------------------------|
----------------------------------|----------------------------------|


   E   E   E   E   E   E   E   E      E   E   E   E   E   E   E   E   
---0---0---0---0---0---0---0---0--|---0---0---0---0---0---0---0---0--|
--10--10--10--10--10--10--10--10--|--10--10--10--10--10--10--10--10--|
----------------------------------|----------------------------------|
----------------------------------|----------------------------------|
----------------------------------|----------------------------------|
----------------------------------|----------------------------------|


   W                   W                   W                   E    
---0----------------|-------------------|-------------------|--L--||
--10----------------|-------------------|-------------------|--L--||
--------------------|-------------------|-------------------|-----||
--------------------|-------------------|-------------------|-----||
--------------------|-------------------|-------------------|-----||
--------------------|-------------------|-------------------|-----||
comments
We did not receive enough feedback on this tab! Please rate:
print report bad tab
1 2 3 4 5
I want to post or [tab]
guest
You may want to rate the tab now too:
select rating
Please do not post tabs as comments. Select "correction" instead!