Oops, an error
Loading. Please wait.

White Lines Tab

ver1
ver1

Intro

Whole song

More versions @911Tabs.com
1,679 views 1 this week
no commentswrite comment
1 2 3 4 5
excellent!
x 1
Autoscroll
+/-
esc
set tempo
stop
Contributor
WARNING: You are trying to view
                                    content from Ultimate-Guitar.com
                                    in an unauthorized application,
                                    which is prohibited.

                                    Please use an official Ultimate
                                    Guitar Tabs application for iPhone,
                                    iPad or Android to access legitimate
                                    chords, guitar, bass, and drum tabs
                                    from Ultimate-Guitar.com database.

                                    Type "ultimate guitar tabs" in Apple
                                    App Store's or Android Market's
                                    search to find the application.
jeremy
      Q        E  E  E  E  E  E  E  E     E  E  E  Q    E  E  E   
E||---------|--------------------------|-------------------------|
B||---------|--------------------------|-------------------------|
G||---------|--2--2--2--2-----2--2--5--|-----5--5--5----5--5--5--|
D||--12\----|--2--2--2--2-----2--2--5--|-----5--5--5----5--5--5--|
A||--12\----|--0--0--0--0-----0--0--3--|-----3--3--3----3--3--3--|
D||--12\----|--------------------------|-------------------------|


  E  E  E  E  E  E  E  E     E  E  E  Q    E  E  E     E  E  E  E  E  E  E  E   
--------------------------|-------------------------|--------------------------|
--------------------------|-------------------------|--------------------------|
--------------------------|-------------------------|--2--2--2--2-----2--2--5--|
-----3--3-----3--3-----3--|--2-----2--0----0--0--0--|--2--2--2--2-----2--2--5--|
-----3--3-----3--3-----3--|--2-----2--0----0--0--0--|--0--0--0--0-----0--0--3--|
-----3--3-----3--3-----3--|--2-----2--0----0--0--0--|--------------------------|


  E  E  E  Q    E  E  E     E  E  E  E  E  E  E  E     E  E  E  Q    E  E  E   
-------------------------|--------------------------|-------------------------|
-------------------------|--------------------------|-------------------------|
-----5--5--5----5--5--5--|--------------------------|-------------------------|
-----5--5--5----5--5--5--|-----3--3-----3--3-----3--|--2-----2--0----0--0--0--|
-----3--3--3----3--3--3--|-----3--3-----3--3-----3--|--2-----2--0----0--0--0--|
-------------------------|-----3--3-----3--3-----3--|--2-----2--0----0--0--0--|


       PM PM PM PM PM PM    PM PM PM PM PM PM PM PM                          
  Q    E  E  E  E  E  E     E  E  E  E  E  E  E  E     E  E  H        E  E   
-------------------------|--------------------------|-----------------------|
-------------------------|--------------------------|-----------------------|
-------------------------|--------------------------|-----------------------|
--3----------------------|--------------------------|--7--7-----------7-----|
--3----3--3--3--3--3--3--|--3--3--3--3--3--3--3--3--|--7--7-----------7-----|
--3----3--3--3--3--3--3--|--3--3--3--3--3--3--3--3--|--7--7-----------7-----|


                                PM PM PM PM PM    PM PM PM PM PM PM PM PM  
  E  E  Q    E  E  E     Q.     E  E  E  E  E     E  E  E  E  E  E  E  E   
----------------------|------------------------|--------------------------|
----------------------|------------------------|--------------------------|
----------------------|------------------------|--------------------------|
-----7-------5--5--5--|--3---------------------|--------------------------|
-----7-------5--5--5--|--3------3--3--3--3--3--|--3--3--3--3--3--3--3--3--|
-----7-------5--5--5--|--3------3--3--3--3--3--|--3--3--3--3--3--3--3--3--|


          PM                                                PM             PM  
  Q    E  E  S S E  E  E     Q    E  E  E  E  E  E     Q    E  E  E  E  E  E   
--------------------------|-------------------------|-------------------------|
--------------------------|-------------------------|-------------------------|
--2----2------------------|-------------------------|--2----------------------|
--2----2--2---------------|--5----------5-----------|--2----2--2--0--------2--|
--0----0--0--0-0-3--2--0--|--5----0--3-----3--2--0--|--0----0--------3--2--0--|
--------------------------|--5----------------------|-------------------------|


       PM             PM           PM PM PM PM PM                            
  Q    E  E  E  E  E  E     Q.     E  E  E  E  E     Q    E  E  E  E  E  E   
-------------------------|------------------------|-------------------------|
-------------------------|------------------------|----------------1--1-----|
-------------------------|------------------------|-------------2--2--2-----|
--3----------------------|--0---------------------|--3-------3--------------|
--3----3-----0--3--3--3--|--0------0--0--0--0--0--|--3----------------------|
--3----3--3-----------3--|--0------0--0--0--0--0--|--3----------------------|


       PM             PM         PM             PM           PM PM PM PM PM  
  Q    E  E  E  E  E  E     Q    E  E  E  E  E  E     Q.     E  E  E  E  E   
-------------------------|-------------------------|------------------------|
-------------------------|-------------------------|------------------------|
--2----------------------|-------------------------|------------------------|
--2----2--2--0--------2--|--3----------------------|--0---------------------|
--0----0--------3--2--0--|--3----3-----0--3--3--3--|--0------0--0--0--0--0--|
-------------------------|--3----3--3-----------3--|--0------0--0--0--0--0--|


                               PM PM PM PM PM PM PM PM  
  Q    E  E  E  E  E  E  E     E  E  E  E  E  E  E  E   
----------------------------|--------------------------|
----------------1--1--1--0--|--------------------------|
-------------2--2--2--2--0--|--------------------5--5--|
--3-------3-----------------|--3--3--3--5--5--5--------|
--3-------------------------|--3--3--3-----------------|
--3-------------------------|--3--3--3-----------------|


  PM PM PM PM PM PM PM PM    PM PM PM PM PM PM PM PM    PM PM                   
  E  E  E  E  E  E  E  E     E  E  E  E  E  E  E  E     E  E  E  E  E  E  Q     
--------------------------|--------------------------|-------------------------|
--------------------------|--------------------------|-------------------------|
--5--4--4--4--------------|--------------------5--5--|--5--4--4--4-------------|
--------------5--5--5--5--|--3--3--3--5--5--5--------|--------------5--5-------|
--------------------------|--------------------------|--------------5--5-------|
--------------------------|--------------------------|--------------5--5-------|


  Q    Q    E  E  E     Q    E  Q    E  E  E     E  E  E  H        E   
---------------------|------------------------|-----------------------|
---------------------|------------------------|-----------------------|
---------------------|------------------------|--5-----5--------------|
--7----7----7--7-----|--3----3--3----3--3-----|--5-----5--0-----------|
--7----7----7--7-----|--3----3--3----3--3-----|--3-----3--0-----------|
--7----7----7--7-----|--3----3--3----3--3-----|-----------0-----------|


  E  E  E  H        E  E     Q    Q    E  E  E     Q    E  Q    E  E  E   
--------------------------|---------------------|------------------------|
--------------------------|---------------------|------------------------|
--5--7--------------------|---------------------|------------------------|
--5--7--7--5--------5--5--|--7----7----7--7-----|--3----3--3----3--3-----|
--3--5--7--5--------5--5--|--7----7----7--7-----|--3----3--3----3--3-----|
--------7--5--------5--5--|--7----7----7--7-----|--3----3--3----3--3-----|


                                                     PM PM PM PM PM PM PM PM  
  E  E  E  H        E     E  E  E  H        E  E     E  E  E  E  E  E  E  E   
-----------------------|--------------------------|--------------------------|
-----------------------|--------------------------|--------------------------|
--5-----5--------------|--5--7--------------------|--------------------------|
--5-----5--0-----------|--5--7--7--5--------5--5--|--------------------------|
--3-----3--0-----------|--3--5--7--5--------5--5--|--7--7--7--7--7--7--7--7--|
-----------0-----------|--------7--5--------5--5--|--7--7--7--7--7--7--7--7--|


  PM PM PM PM PM PM         PM PM PM PM PM PM PM PM    PM PM PM PM PM PM PM  
  E  E  E  E  E  E  Q       E  E  E  E  E  E  E  E     E  E  E  E  E  E  E   
-------------------------|--------------------------|-----------------------|
-------------------------|--------------------------|-----------------------|
--------------------0----|--------------------------|-----------------------|
--------------------0----|--------------------------|-----------------------|
--7--7--7--7--7--7-------|--7--7--7--7--7--7--7--7--|--7--7--7--7--7--7--7--|
--7--7--7--7--7--7-------|--7--7--7--7--7--7--7--7--|--7--7--7--7--7--7--7--|


                                                            PM PM PM PM PM  
  Q.     E  E  E  E  E     Q.     E  E  E  E  E     Q    E  E  E  E  E  E   
------------------------|------------------------|-------------------------|
------------------------|------------------------|-------------------------|
---------5--5--5--5-----|---------4--5--5--5--0--|-------------------------|
--3------5--5--5--5-----|--0------5--5--5--5--0--|--7----7-----------------|
--3---------------------|--0---------------------|--7----7--7--7--7--7--7--|
--3---------------------|--0---------------------|--7----7--7--7--7--7--7--|


  PM PM PM PM PM PM PM PM                                                    
  E  E  E  E  E  E  E  E     Q.     E  E  E  E  E     Q.     E  E  E  E  E   
--------------------------|------------------------|------------------------|
--------------------------|------------------------|------------------------|
--------------------------|---------5--5--5--5-----|---------4--5--5--5--0--|
--------------------------|--3------5--5--5--5-----|--0------5--5--5--5--0--|
--7--7--7--7--7--7--7--7--|--3---------------------|--0---------------------|
--7--7--7--7--7--7--7--7--|--3---------------------|--0---------------------|


  Q    E  E  E  Q    E     E  Q    E  E  E  E  E     Q    E  Q    E  E  E   
------------------------|-------------------------|------------------------|
------------------------|-------------------------|------------------------|
------------------------|-------------------------|------------------------|
--7----7--7--7--7----7--|--7--7----7--7--7--7--7--|--3----3--3----3--3--3--|
--7----7--7--7--7----7--|--7--7----7--7--7--7--7--|--3----3--3----3--3--3--|
--7----7--7--7--7----7--|--7--7----7--7--7--7--7--|--3----3--3----3--3--3--|


  Q    E  Q    E  E  E     Q    E  E  E  Q    E     E  Q    E  E  E  E  E   
------------------------|------------------------|-------------------------|
------------------------|------------------------|-------------------------|
------------------------|------------------------|-------------------------|
--0----0--0----0--0--0--|--7----7--7--7--7----7--|--7--7----7--7--7--7--7--|
--0----0--0----0--0--0--|--7----7--7--7--7----7--|--7--7----7--7--7--7--7--|
--0----0--0----0--0--0--|--7----7--7--7--7----7--|--7--7----7--7--7--7--7--|


  Q    E  Q    E  E  E  E     E  E  E  E  E  E  E  E   
---------------------------|--------------------------|
---------------------------|--------------------------|
---------------------------|--------------------------|
--3----3--3----3--3--3--3--|--0--0--0--0--0--0--0--0--|
--3----3--3----3--3--3--3--|--0--0--0--0--0--0--0--0--|
--3----3--3----3--3--3--3--|--0--0--0--0--0--0--0--0--|


  E  E  E  E  E  E  E  E     E  E  E  E  E  E  E  E     E  E  E  E  E  E  Q     
--------------------------|--------------------------|-------------------------|
--------------------------|--------------------------|-------------------------|
--------------------------|--------------------------|-------------------------|
--0--0--0--0--0--0--0--0--|--5--5--5--5--5--5--5--5--|--5--5--5--5--5--5-------|
--0--0--0--0--0--0--0--0--|--5--5--5--5--5--5--5--5--|--5--5--5--5--5--5-------|
--0--0--0--0--0--0--0--0--|--5--5--5--5--5--5--5--5--|--5--5--5--5--5--5-------|


  Q    Q    E  E  E     Q    E  Q    E  E  E     E  E  E  H        E   
---------------------|------------------------|-----------------------|
---------------------|------------------------|-----------------------|
---------------------|------------------------|--5-----5--------------|
--7----7----7--7-----|--3----3--3----3--3-----|--5-----5--0-----------|
--7----7----7--7-----|--3----3--3----3--3-----|--3-----3--0-----------|
--7----7----7--7-----|--3----3--3----3--3-----|-----------0-----------|


  E  E  E  H        E  E     Q    Q    E  E  E     Q    E  Q    E  E  E   
--------------------------|---------------------|------------------------|
--------------------------|---------------------|------------------------|
--5--7--------------------|---------------------|------------------------|
--5--7--7--5--------5--5--|--7----7----7--7-----|--3----3--3----3--3-----|
--3--5--7--5--------5--5--|--7----7----7--7-----|--3----3--3----3--3-----|
--------7--5--------5--5--|--7----7----7--7-----|--3----3--3----3--3-----|


  E  E  E  H        E     E  E  E  H        E  E   
-----------------------|--------------------------|
-----------------------|--------------------------|
--5-----5--------------|--5--7--------------------|
--5-----5--0-----------|--5--7--7--5--------5--5--|
--3-----3--0-----------|--3--5--7--5--------5--5--|
-----------0-----------|--------7--5--------5--5--|


  E  E  E  E  E  E  E  E  E     E  E  E  E  E  E  E  E   
-----------------------------|--------------------------|
-----------------------------|--------------------------|
-----------------------------|--------------------------|
--7--7--7--7--7--7--7--7-----|--3--3--3--3--3--3--3-----|
--7--7--7--7--7--7--7--7-----|--3--3--3--3--3--3--3-----|
--7--7--7--7--7--7--7--7-----|--3--3--3--3--3--3--3-----|


  E  E  E  E  E  E  E  E     E  E  E  E  E  E     Q    E  E  E  E  E  E   
--------------------------|--------------------|-------------------------|
--------------------------|--------------------|-------------------------|
--------------------------|--------------------|-------------------------|
--0--0--0--0--0--0--0-----|--3--3--3--3--3--3--|--7----7--7--7-----7-----|
--0--0--0--0--0--0--0-----|--3--3--3--3--3--3--|--7----7--7--7-----7-----|
--0--0--0--0--0--0--0-----|--3--3--3--3--3--3--|--7----7--7--7-----7-----|


  E  E  E  E  Q    E  E  E     E  E  Q    E  E  E  E   
----------------------------|-------------------------|
----------------------------|-------------------------|
----------------------------|--5--5--5-------5-----7--|
--3-----3--3--3----3--3--3--|--5--5--5-------5-----7--|
--3-----3--3--3----3--3--3--|--3--3--3-------3-----5--|
--3-----3--3--3----3--3--3--|-------------------------|


  E  E  E  Q    E  E  E     E  E  E   E  E  E  E   E    
-------------------------|---------------------0h--1p--|
-------------------------|-----------------------------|
--L--7-----7----7--7--0--|--2--2--2s--5--0--0----------|
--L--7-----7----7--7--0--|--2--2-----------------------|
--L--5-----5----5--5-----|--0--0-----------------------|
-------------------------|-----------------------------|


  E  E  E   E  E   E  E   E     Q    E   E  E  E  E   E    
--0--------------------------|--------------------0h--1p--|
-----1---------1p--0---------|----------------------------|
--------0h--2---------0h--2--|--2----2s--5--0--0----------|
-----------------------------|--2-------------------------|
-----------------------------|--0-------------------------|
-----------------------------|----------------------------|


  E  E  E   E  E   E  E   E     W                   H        E  E  E  E   
--0--------------------------|-------------------|-----------------------|
-----1---------1p--0---------|-------------------|-----------------------|
--------0h--2---------0h--2--|-------------------|-----------------------|
-----------------------------|-------------------|--------------3--3--3--|
-----------------------------|-------------------|--------------3--3--3--|
-----------------------------|-------------------|--------------3--3--3--|


  Q    H        Q       H        E  E  E     Q    E  E  E  E  E  E   
---------------------|--------------------|-------------------------|
---------------------|--------------------|-------------------------|
---------------------|--------------------|-------------------------|
--L------------------|-----------3--3--5--|--7----7--7--5--7-----7--|
--L------------------|-----------3--3--5--|--7----7--7--5--7-----7--|
--L------------------|-----------3--3--5--|--7----7--7--5--7-----7--|


                PM PM PM                                             PM PM PM  
  E  E  E  Q    E  E  E     Q    E  E  E  E  E  E     E  E  E  E  E  E  E  E   
-------------------------|-------------------------|--------------------------|
-------------------------|-------------------------|--------------------------|
-------------------------|-------------------------|--------------------------|
--5--7-----7-------------|--7----7--7--5--7-----7--|--5--7-----7--7-----------|
--5--7-----7----3--3--3--|--7----7--7--5--7-----7--|--5--7-----7--7--3--3--3--|
--5--7-----7----3--3--3--|--7----7--7--5--7-----7--|--5--7-----7--7--3--3--3--|


                                             PM PM PM PM PM PM PM PM  
  Q.     H.              W                   E  E  E  E  E  E  E  E   
----------------------|-------------------|--------------------------|
----------------------|-------------------|--------------------------|
----------------------|-------------------|--------------------5--5--|
--3-------------------|-------------------|--3--3--3--5--5--5--------|
--3-------------------|-------------------|--3--3--3-----------------|
--3-------------------|-------------------|--3--3--3-----------------|


  PM PM                                                                  
  E  E  E  E  E  E  Q       Q    Q    E  E  E     Q    E  Q    E  E  E   
-------------------------|---------------------|------------------------|
-------------------------|---------------------|------------------------|
--5--4--4--4-------------|---------------------|------------------------|
--------------5--5-------|--7----7----7--7-----|--3----3--3----3--3-----|
--------------5--5-------|--7----7----7--7-----|--3----3--3----3--3-----|
--------------5--5-------|--7----7----7--7-----|--3----3--3----3--3-----|


  E  E  E  H        E     E  E  E  H        E  E     Q    Q    E  E  E   
-----------------------|--------------------------|---------------------|
-----------------------|--------------------------|---------------------|
--5-----5--------------|--5--7--------------------|---------------------|
--5-----5--0-----------|--5--7--7--5--------5--5--|--7----7----7--7-----|
--3-----3--0-----------|--3--5--7--5--------5--5--|--7----7----7--7-----|
-----------0-----------|--------7--5--------5--5--|--7----7----7--7-----|


  Q    E  Q    E  E  E     E  E  E  H        E     E  E  E  H        E  E   
------------------------|-----------------------|--------------------------|
------------------------|-----------------------|--------------------------|
------------------------|--5-----5--------------|--5--7--------------------|
--3----3--3----3--3-----|--5-----5--0-----------|--5--7--7--5--------5--5--|
--3----3--3----3--3-----|--3-----3--0-----------|--3--5--7--5--------5--5--|
--3----3--3----3--3-----|-----------0-----------|--------7--5--------5--5--|


  E  E  E  E  E  E  E  E  E     E  E  E  E  E  E  E  E   
-----------------------------|--------------------------|
-----------------------------|--------------------------|
-----------------------------|--------------------------|
--7--7--7--7--7--7--7--7-----|--3--3--3--3--3--3--3-----|
--7--7--7--7--7--7--7--7-----|--3--3--3--3--3--3--3-----|
--7--7--7--7--7--7--7--7-----|--3--3--3--3--3--3--3-----|


  E  E  E  E  E  E  E  E     E  E  E  E  E  E     Q    E  E  E  E  E  E   
--------------------------|--------------------|-------------------------|
--------------------------|--------------------|-------------------------|
--------------------------|--------------------|-------------------------|
--0--0--0--0--0--0--0-----|--3--3--3--3--3--3--|--7----7--7--7-----7-----|
--0--0--0--0--0--0--0-----|--3--3--3--3--3--3--|--7----7--7--7-----7-----|
--0--0--0--0--0--0--0-----|--3--3--3--3--3--3--|--7----7--7--7-----7-----|


  E  E  E  E  Q    E  E  E     E  E  Q    E  E  E  E   
----------------------------|-------------------------|
----------------------------|-------------------------|
----------------------------|--5--5--5-------5-----7--|
--3-----3--3--3----3--3--3--|--5--5--5-------5-----7--|
--3-----3--3--3----3--3--3--|--3--3--3-------3-----5--|
--3-----3--3--3----3--3--3--|-------------------------|


  E  E  E  Q    E  E  E     Q    Q    E  E  E     Q    E  Q    E  E  E   
-------------------------|---------------------|------------------------|
-------------------------|---------------------|------------------------|
--L--7-----7----7--7--0--|---------------------|------------------------|
--L--7-----7----7--7--0--|--7----7----7--7-----|--3----3--3----3--3-----|
--L--5-----5----5--5-----|--7----7----7--7-----|--3----3--3----3--3-----|
-------------------------|--7----7----7--7-----|--3----3--3----3--3-----|


  E  E  E  H        E     E  E  E  H        E  E     Q    Q    E  E  E   
-----------------------|--------------------------|---------------------|
-----------------------|--------------------------|---------------------|
--5-----5--------------|--5--7--------------------|---------------------|
--5-----5--0-----------|--5--7--7--5--------5--5--|--7----7----7--7-----|
--3-----3--0-----------|--3--5--7--5--------5--5--|--7----7----7--7-----|
-----------0-----------|--------7--5--------5--5--|--7----7----7--7-----|


  Q    E  Q    E  E  E     E  E  E  H        E     E  E  E  H        E  E   
------------------------|-----------------------|--------------------------|
------------------------|-----------------------|--------------------------|
------------------------|--5-----5--------------|--5--7--------------------|
--3----3--3----3--3-----|--5-----5--0-----------|--5--7--7--5--------5--5--|
--3----3--3----3--3-----|--3-----3--0-----------|--3--5--7--5--------5--5--|
--3----3--3----3--3-----|-----------0-----------|--------7--5--------5--5--|


  E  E  E  E  E  E  E  E  E     E  E  E  E  E  E  E  E   
-----------------------------|--------------------------|
-----------------------------|--------------------------|
-----------------------------|--------------------------|
--7--7--7--7--7--7--7--7-----|--3--3--3--3--3--3--3-----|
--7--7--7--7--7--7--7--7-----|--3--3--3--3--3--3--3-----|
--7--7--7--7--7--7--7--7-----|--3--3--3--3--3--3--3-----|


  E  E  E  E  E  E  E  E     E  E  E  E  E  E     Q    E  E  E  E  E  E   
--------------------------|--------------------|-------------------------|
--------------------------|--------------------|-------------------------|
--------------------------|--------------------|-------------------------|
--0--0--0--0--0--0--0-----|--3--3--3--3--3--3--|--7----7--7--7-----7-----|
--0--0--0--0--0--0--0-----|--3--3--3--3--3--3--|--7----7--7--7-----7-----|
--0--0--0--0--0--0--0-----|--3--3--3--3--3--3--|--7----7--7--7-----7-----|


  E  E  E  E  Q    E  E  E     E  E  Q    E  E  E  E   
----------------------------|-------------------------|
----------------------------|-------------------------|
----------------------------|--5--5--5-------5-----7--|
--3-----3--3--3----3--3--3--|--5--5--5-------5-----7--|
--3-----3--3--3----3--3--3--|--3--3--3-------3-----5--|
--3-----3--3--3----3--3--3--|-------------------------|


  E  E  E  Q    E  E  E     E  Q.     H           H        E  E  E  E   
-------------------------|---------------------|-----------------------|
-------------------------|---------------------|-----------------------|
--L--7-----7----7--7--0--|---------------------|-----------------------|
--L--7-----7----7--7--0--|--3--3---------------|--------------3--3--3--|
--L--5-----5----5--5-----|--3--3---------------|--------------3--3--3--|
-------------------------|--3--3---------------|--------------3--3--3--|


  Q    H.              H        E  E  E  E     Q    H.            
--------------------|-----------------------|--------------------|
--------------------|-----------------------|--------------------|
--------------------|-----------------------|--------------------|
--L-----------------|-----------0--0--2--3--|--L-----------------|
--L-----------------|-----------0--0--2--3--|--L-----------------|
--L-----------------|-----------0--0--2--3--|--L-----------------|


  H        E  E  E  E     Q    H.              E  E  E  E  E  E  E  E   
-----------------------|--------------------|--------------------------|
-----------------------|--------------------|--------------------------|
-----------------------|--------------------|--------------------------|
--------------3--3--3--|--L-----------------|--3--3--3--3--3--3--3--3--|
--------------3--3--3--|--L-----------------|--3--3--3--3--3--3--3--3--|
--------------3--3--3--|--L-----------------|--3--3--3--3--3--3--3--3--|


  W                   W                  
-------------------|-------------------||
-------------------|-------------------||
-------------------|-------------------||
-------------------|--L----------------||
-------------------|--L----------------||
-------------------|--L----------------||





jesse
     Q       E  E  E  E  E  E  E  E     E  E  E  Q    E  E  E   
E||-------|--------------------------|-------------------------|
B||-------|--------------------------|-------------------------|
G||-------|--9--9--7--9-----7--5--7--|-----5--4--5----5--5--5--|
D||-------|--------------------------|-------------------------|
A||-------|--7--7--5--7-----5--3--5--|-----3--2--3----3--3--3--|
D||-------|--------------------------|-------------------------|


  E  E  E  E   E   E  E  E     E  E  E  Q    E  E   E   
----------------------------|--------------------------|
----------------------------|--------------------------|
-----9--9-----12--12-----9--|--9-----7--7----7--7s--9--|
----------------------------|--------------------------|
-----7--7-----10--10-----7--|--7-----5--5----5--5s--7--|
----------------------------|--------------------------|


  E  E  E  E  E  E  E  E     E  E  E  Q    E  E  E   
--------------------------|-------------------------|
--------------------------|-------------------------|
--9--9--7--9-----7--5--7--|-----5--4--5----5--5--5--|
--------------------------|-------------------------|
--7--7--5--7-----5--3--5--|-----3--2--3----3--3--3--|
--------------------------|-------------------------|


  E  E  E  E   E   E  E  E     E  E  E  Q    E  E  E   
----------------------------|-------------------------|
----------------------------|-------------------------|
-----9--9-----12--12-----9--|--9-----7--7----7--7--0--|
----------------------------|----------------------0--|
-----7--7-----10--10-----7--|--7-----5--5----5--5-----|
----------------------------|-------------------------|


       PM PM PM PM PM PM    PM PM PM PM PM PM PM PM                             
  Q    E  E  E  E  E  E     E  E  E  E  E  E  E  E     E  E  E  E  E  E  E  E   
-------------------------|--------------------------|--------------------------|
-------------------------|--------------------------|--------------------------|
-------------------------|--------------------------|--2--2--5--5--5--5--2--5--|
--3----------------------|--------------------------|--2--2--5--5--5--5--2--5--|
--3----3--3--3--3--3--3--|--3--3--3--3--3--3--3--3--|--0--0--------------0-----|
--3----3--3--3--3--3--3--|--3--3--3--3--3--3--3--3--|--------------------------|


                                 PM PM PM PM PM    PM PM PM PM PM PM PM PM  
  E  E  E  E  E  E  E     Q.     E  E  E  E  E     E  E  E  E  E  E  E  E   
-----------------------|------------------------|--------------------------|
-----------------------|------------------------|--------------------------|
--5--2--5--5-----------|------------------------|--------------------------|
--5--2--5--5--5--5--5--|--3---------------------|--------------------------|
-----0--------5--5--5--|--3------3--3--3--3--3--|--3--3--3--3--3--3--3--3--|
--------------5--5--5--|--3------3--3--3--3--3--|--3--3--3--3--3--3--3--3--|


                                                    PM PM PM        
  W                   H        Q.     E     Q    E  E  E  E  E  E   
-------------------|---------------------|-------------------------|
-------------------|---------------------|-------------------------|
-------------------|---------------------|--5----5--5--5--5--4-----|
--7----------------|--5--------L---------|--5----5--5--5--5--5-----|
--7----------------|--5--------L---------|-------------------------|
--7----------------|--5--------L---------|-------------------------|


          PM PM PM                  PM PM PM PM PM            PM PM PM PM PM  
  Q    E  E  E  E  E  E     Q    E  E  E  E  E  E     Q    E  E  E  E  E  E   
-------------------------|-------------------------|-------------------------|
-------------------------|-------------------------|-------------------------|
--5----5--5--5--5--4-----|--5----5--5--5--5--5--5--|--4----4--4--4--4--4--4--|
--5----5--5--5--5--5-----|--5----5--5--5--5--5--5--|--5----5--5--5--5--5--5--|
-------------------------|-------------------------|-------------------------|
-------------------------|-------------------------|-------------------------|


          PM PM PM                  PM PM PM                  PM PM PM PM PM  
  Q    E  E  E  E  E  E     Q    E  E  E  E  E  E     Q    E  E  E  E  E  E   
-------------------------|-------------------------|-------------------------|
-------------------------|-------------------------|-------------------------|
--5----5--5--5--5--4-----|--5----5--5--5--5--4-----|--5----5--5--5--5--5--5--|
--5----5--5--5--5--5-----|--5----5--5--5--5--5-----|--5----5--5--5--5--5--5--|
-------------------------|-------------------------|-------------------------|
-------------------------|-------------------------|-------------------------|


  Q    E  E  E  E  E  E  E     W                   W                 
----------------------------|-------------------|-------------------|
----------------------------|-------------------|-------------------|
--4----4--4--4--4--4--4--5--|-------------------|-------------------|
--5----5--5--5--5--5--5--5--|--3----------------|--L----------------|
----------------------------|--3----------------|--L----------------|
----------------------------|--3----------------|--L----------------|


  PM PM PM PM PM PM PM PM    PM PM PM PM                                       
  E  E  E  E  E  E  E  E     E  E  E  E  E  E  Q        Q     Q     E   E  E   
--------------------------|-------------------------|-------------------------|
--------------------------|-------------------------|-------------------------|
--------------------------|-------------------------|--12----12----12--12-----|
--------------------------|--------------3--3-------|-------------------------|
--3--3--3--3--3--3--3--3--|--3--3--3--3--3--3-------|--10----10----10--10-----|
--3--3--3--3--3--3--3--3--|--3--3--3--3--3--3-------|-------------------------|


  Q    E  Q    E  E  E      E  E  E  Q.     E  E     E  E  E  Q.     E  E  E    
------------------------|-------------------------|----------------------------|
------------------------|-------------------------|----------------------------|
--9----9--9----9--9-----|--12-----5--7------7--7--|--7--9--5--4------4--4--4/--|
------------------------|-------------------------|----------------------------|
--7----7--7----7--7-----|--10-----3--5------5--5--|--5--7--3--2------2--2--2/--|
------------------------|-------------------------|----------------------------|


   Q     Q     E   E  E     Q    E  Q    E  E  E      E  E  E  Q.     E  E   
-------------------------|------------------------|-------------------------|
-------------------------|------------------------|-------------------------|
--12----12----12--12-----|--9----9--9----9--9-----|--12-----5--7------7--7--|
-------------------------|------------------------|-------------------------|
--10----10----10--10-----|--7----7--7----7--7-----|--10-----3--5------5--5--|
-------------------------|------------------------|-------------------------|


                                                                  NH    
  E  E  E  Q.     E  E  E     W                   H        Q      Q     
---------------------------|-------------------|-----------------------|
---------------------------|-------------------|-----------------------|
--7--9--5--4------4--4--4--|-------------------|----------------<>5----|
---------------------------|-------------------|----------------<>5----|
--5--7--3--2------2--2--2--|-------------------|-----------------------|
---------------------------|-------------------|-----------------------|


  PM PM PM PM PM PM PM PM    PM PM PM PM PM PM PM                            
  E  E  E  E  E  E  E  E     E  E  E  E  E  E  E     Q    E  E  E  E  E  E   
--------------------------|-----------------------|-------------------------|
--------------------------|-----------------------|-------------------------|
--------------------------|-----------------------|----------5--5--5--5-----|
--------------------------|-----------------------|--3----3--5--5--5--5-----|
--7--7--7--7--7--7--7--7--|--7--7--7--7--7--7--7--|--3----3-----------------|
--7--7--7--7--7--7--7--7--|--7--7--7--7--7--7--7--|--3----3-----------------|


                      PM            PM PM PM PM PM    PM PM PM PM PM PM PM PM  
  Q    E  E  E  E  E  E     Q    E  E  E  E  E  E     E  E  E  E  E  E  E  E   
-------------------------|-------------------------|--------------------------|
-------------------------|-------------------------|--------------------------|
----------4--5--5--5-----|-------------------------|--------------------------|
--0----0--5--5--5--5--0--|--7----7-----------------|--------------------------|
--0----0--------------0--|--7----7--7--7--7--7--7--|--7--7--7--7--7--7--7--7--|
--0----0--------------0--|--7----7--7--7--7--7--7--|--7--7--7--7--7--7--7--7--|


                                                PM                           
  Q    E  E  E  E  E  E     Q    E  E  E  E  E  E     Q    E  E  E  Q    E   
-------------------------|-------------------------|------------------------|
-------------------------|-------------------------|------------------------|
----------5--5--5--5-----|----------4--5--5--5-----|------------------------|
--3----3--5--5--5--5-----|--0----0--5--5--5--5--0--|--7----7--7--7--7----7--|
--3----3-----------------|--0----0--------------0--|--7----7--7--7--7----7--|
--3----3-----------------|--0----0--------------0--|--7----7--7--7--7----7--|


  E  Q    E  E  E  E  E     Q    E  Q    E  E  E     Q    E  Q    E  E  E   
-------------------------|------------------------|------------------------|
-------------------------|------------------------|------------------------|
-------------------------|------------------------|------------------------|
--7--7----7--7--7--7--7--|--3----3--3----3--3--3--|--0----0--0----0--0--0--|
--7--7----7--7--7--7--7--|--3----3--3----3--3--3--|--0----0--0----0--0--0--|
--7--7----7--7--7--7--7--|--3----3--3----3--3--3--|--0----0--0----0--0--0--|


  Q    E  E  E  Q    E     E  Q    E  E  E  E  E     Q    E  Q    E  E  E  E   
------------------------|-------------------------|---------------------------|
------------------------|-------------------------|---------------------------|
------------------------|-------------------------|---------------------------|
--7----7--7--7--7----7--|--7--7----7--7--7--7--7--|--3----3--3----3--3--3--3--|
--7----7--7--7--7----7--|--7--7----7--7--7--7--7--|--3----3--3----3--3--3--3--|
--7----7--7--7--7----7--|--7--7----7--7--7--7--7--|--3----3--3----3--3--3--3--|


  E  E  E  E  E  E  E  E     E  E  E  E  E  E  E  E   
--------------------------|--------------------------|
--------------------------|--------------------------|
--5--5--5--4--5--5--5--4--|--5--5--5--4--5--5--5--4--|
--------------------------|--------------------------|
--3--3--3--2--3--3--3--2--|--3--3--3--2--3--3--3--2--|
--------------------------|--------------------------|


  E  E  E  E  E  E  E   E     E  E  E  E  E  E  Q        Q     Q     E   E  E   
---------------------------|-------------------------|-------------------------|
---------------------------|-------------------------|-------------------------|
--5--5--5--4--5--5--5s--7--|--7--7--7--7--7--7-------|--12----12----12--12-----|
---------------------------|-------------------------|-------------------------|
--3--3--3--2--3--3--3s--5--|--5--5--5--5--5--5-------|--10----10----10--10-----|
---------------------------|-------------------------|-------------------------|


  Q    E  Q    E  E  E      E  E  E  Q.     E  E     E  E  E  Q.     E  E  E    
------------------------|-------------------------|----------------------------|
------------------------|-------------------------|----------------------------|
--9----9--9----9--9-----|--12-----5--7------7--7--|--7--9--5--4------4--4--4/--|
------------------------|-------------------------|----------------------------|
--7----7--7----7--7-----|--10-----3--5------5--5--|--5--7--3--2------2--2--2/--|
------------------------|-------------------------|----------------------------|


   Q     Q     E   E  E     Q    E  Q    E  E  E      E  E  E  Q.     E  E   
-------------------------|------------------------|-------------------------|
-------------------------|------------------------|-------------------------|
--12----12----12--12-----|--9----9--9----9--9-----|--12-----5--7------7--7--|
-------------------------|------------------------|-------------------------|
--10----10----10--10-----|--7----7--7----7--7-----|--10-----3--5------5--5--|
-------------------------|------------------------|-------------------------|


  E  E  E  Q.     E  E  E     E   E  E  E  E  E  E  E  E   
---------------------------|------------------------------|
---------------------------|------------------------------|
--7--9--5--4------4--4--4--|--4s--5--5--5--5--5--5--5-----|
---------------------------|------------------------------|
--5--7--3--2------2--2--2--|--2s--3--3--3--3--3--3--3-----|
---------------------------|------------------------------|


  E  E  E  E   E  E  E  E     E  E  E  E  E  E  E  E     E  E  E  E  E  E   
---------------------------|--------------------------|--------------------|
---------------------------|--------------------------|--------------------|
--7--7--7--7s--9--9--9-----|--5--5--5--5--5--5--5-----|--7--7--7--7--7--7--|
---------------------------|--------------------------|--------------------|
--5--5--5--5s--7--7--7-----|--3--3--3--3--3--3--3-----|--5--5--5--5--5--5--|
---------------------------|--------------------------|--------------------|


  Q    E  E  E  E  E  E     E  E  E  E  Q    E  E  E   
-------------------------|----------------------------|
-------------------------|----------------------------|
--9----9--7--9-----7--5--|--7-----5--4--5----5--5--5--|
-------------------------|----------------------------|
--7----7--5--7-----5--3--|--5-----3--2--3----3--3--3--|
-------------------------|----------------------------|


  E  E  Q    E  E  E  E     E  E  E  Q    E  E  E     E  Q.     H         
-------------------------|-------------------------|---------------------|
-------------------------|-------------------------|---------------------|
--9--9--9-------9-----7--|--L--7-----7----7--7--0--|---------------------|
-------------------------|----------------------0--|--7--7---------------|
--7--7--7-------7-----5--|--L--5-----5----5--5-----|--7--7---------------|
-------------------------|-------------------------|--7--7---------------|


  W                   H.            S E.     W                 
-------------------|----------------------|-------------------|
-------------------|----------------------|-------------------|
-------------------|----------------------|-------------------|
-------------------|--7s------------0-----|-------------------|
-------------------|--7s------------0-----|-------------------|
-------------------|--7s------------0-----|-------------------|


  Q    E  E  E  E  E  E     E  E  E  E  E  E  E  E     Q    E  E  E  E  E  E   
-------------------------|--------------------------|-------------------------|
-------------------------|--------------------------|-------------------------|
-------5--5--5--5--5--5--|--5--5--5--5--5-----------|-------5--5--5--5--5--5--|
--3----5--5--5--5--5--5--|--5--5--5--5--5--3--3--3--|--L----5--5--5--5--5--5--|
--3-------L--------------|-----------------3--3--3--|--L----------------------|
--3-------L--------------|-----------------3--3--3--|--L----------------------|


                                                                   PM PM PM  
  E  E  E  E  E  E  E     Q    E  E  E  E  E  E     E  E  E  E  E  E  E  E   
-----------------------|-------------------------|--------------------------|
-----------------------|-------------------------|--------------------------|
--5--5--5--5-----------|----------5--4--5-----5--|--4--5-----5--0-----------|
--5--5--5--5--3--3--5--|--7----7--5--5--5-----5--|--5--5-----5--------------|
--------------3--3--5--|--7----7-----------------|-----------------3--3--3--|
--------------3--3--5--|--7----7-----------------|-----------------3--3--3--|


                                           PM PM PM  
  Q    E  E  E  E  E  E     E  E  E  E  E  E  E  E   
-------------------------|--------------------------|
-------------------------|--------------------------|
----------5--4--5-----5--|--4--5-----5--0-----------|
--7----7--5--5--5-----5--|--5--5-----5--------------|
--7----7-----------------|-----------------3--3--3--|
--7----7-----------------|-----------------3--3--3--|


  Q.     E  E  E  E  E  E     E  E  E  E  E  E  E  E   
---------------------------|--------------------------|
---------------------------|--------------------------|
---------5--5--5--5--5--5--|--5--5--5--5--5--5--5--5--|
--3------5--5--5--5--5--5--|--5--5--5--5--5--5--5--5--|
--3------------------------|--------------------------|
--3------------------------|--------------------------|


  PM PM PM PM PM PM PM PM    PM PM PM PM                                       
  E  E  E  E  E  E  E  E     E  E  E  E  E  E  Q        Q     Q     E   E  E   
--------------------------|-------------------------|-------------------------|
--------------------------|-------------------------|-------------------------|
--------------------------|-------------------------|--12----12----12--12-----|
--------------------------|--------------3--3-------|-------------------------|
--3--3--3--3--3--3--3--3--|--3--3--3--3--3--3-------|--10----10----10--10-----|
--3--3--3--3--3--3--3--3--|--3--3--3--3--3--3-------|-------------------------|


  Q    E  Q    E  E  E      E  E  E  Q.     E  E     E  E  E  Q.     E  E  E    
------------------------|-------------------------|----------------------------|
------------------------|-------------------------|----------------------------|
--9----9--9----9--9-----|--12-----5--7------7--7--|--7--9--5--4------4--4--4/--|
------------------------|-------------------------|----------------------------|
--7----7--7----7--7-----|--10-----3--5------5--5--|--5--7--3--2------2--2--2/--|
------------------------|-------------------------|----------------------------|


   Q     Q     E   E  E     Q    E  Q    E  E  E      E  E  E  Q.     E  E   
-------------------------|------------------------|-------------------------|
-------------------------|------------------------|-------------------------|
--12----12----12--12-----|--9----9--9----9--9-----|--12-----5--7------7--7--|
-------------------------|------------------------|-------------------------|
--10----10----10--10-----|--7----7--7----7--7-----|--10-----3--5------5--5--|
-------------------------|------------------------|-------------------------|


  E  E  E  Q.     E  E  E     E   E  E  E  E  E  E  E  E   
---------------------------|------------------------------|
---------------------------|------------------------------|
--7--9--5--4------4--4--4--|--4s--5--5--5--5--5--5--5-----|
---------------------------|------------------------------|
--5--7--3--2------2--2--2--|--2s--3--3--3--3--3--3--3-----|
---------------------------|------------------------------|


  E  E  E  E   E  E  E  E     E  E  E  E  E  E  E  E     E  E  E  E  E  E   
---------------------------|--------------------------|--------------------|
---------------------------|--------------------------|--------------------|
--7--7--7--7s--9--9--9-----|--5--5--5--5--5--5--5-----|--7--7--7--7--7--7--|
---------------------------|--------------------------|--------------------|
--5--5--5--5s--7--7--7-----|--3--3--3--3--3--3--3-----|--5--5--5--5--5--5--|
---------------------------|--------------------------|--------------------|


  Q    E  E  E  E  E  E     E  E  E  E  Q    E  E  E   
-------------------------|----------------------------|
-------------------------|----------------------------|
--9----9--7--9-----7--5--|--7-----5--4--5----5--5--5--|
-------------------------|----------------------------|
--7----7--5--7-----5--3--|--5-----3--2--3----3--3--3--|
-------------------------|----------------------------|


  E  E  Q    E  E  E  E     E  E  E  Q    E  E  E      Q     Q     E   E  E   
-------------------------|-------------------------|-------------------------|
-------------------------|-------------------------|-------------------------|
--9--9--9-------9-----7--|--L--7-----7----7--7--0--|--12----12----12--12-----|
-------------------------|----------------------0--|-------------------------|
--7--7--7-------7-----5--|--L--5-----5----5--5-----|--10----10----10--10-----|
-------------------------|-------------------------|-------------------------|


  Q    E  Q    E  E  E      E  E  E  Q.     E  E     E  E  E  Q.     E  E  E    
------------------------|-------------------------|----------------------------|
------------------------|-------------------------|----------------------------|
--9----9--9----9--9-----|--12-----5--7------7--7--|--7--9--5--4------4--4--4/--|
------------------------|-------------------------|----------------------------|
--7----7--7----7--7-----|--10-----3--5------5--5--|--5--7--3--2------2--2--2/--|
------------------------|-------------------------|----------------------------|


   Q     Q     E   E  E     Q    E  Q    E  E  E      E  E  E  Q.     E  E   
-------------------------|------------------------|-------------------------|
-------------------------|------------------------|-------------------------|
--12----12----12--12-----|--9----9--9----9--9-----|--12-----5--7------7--7--|
-------------------------|------------------------|-------------------------|
--10----10----10--10-----|--7----7--7----7--7-----|--10-----3--5------5--5--|
-------------------------|------------------------|-------------------------|


  E  E  E  Q.     E  E  E     E   E  E  E  E  E  E  E  E   
---------------------------|------------------------------|
---------------------------|------------------------------|
--7--9--5--4------4--4--4--|--4s--5--5--5--5--5--5--5-----|
---------------------------|------------------------------|
--5--7--3--2------2--2--2--|--2s--3--3--3--3--3--3--3-----|
---------------------------|------------------------------|


  E  E  E  E   E  E  E  E     E  E  E  E  E  E  E  E     E  E  E  E  E  E   
---------------------------|--------------------------|--------------------|
---------------------------|--------------------------|--------------------|
--7--7--7--7s--9--9--9-----|--5--5--5--5--5--5--5-----|--7--7--7--7--7--7--|
---------------------------|--------------------------|--------------------|
--5--5--5--5s--7--7--7-----|--3--3--3--3--3--3--3-----|--5--5--5--5--5--5--|
---------------------------|--------------------------|--------------------|


  Q    E  E  E  E  E  E     E  E  E  E  Q    E  E  E   
-------------------------|----------------------------|
-------------------------|----------------------------|
--9----9--7--9-----7--5--|--7-----5--4--5----5--5--5--|
-------------------------|----------------------------|
--7----7--5--7-----5--3--|--5-----3--2--3----3--3--3--|
-------------------------|----------------------------|


  E  E  Q    E  E  E  E     E  E  E  Q    E  E  E     E  E  E  E  E  E  E  E   
-------------------------|-------------------------|--------------------------|
-------------------------|-------------------------|--------------------------|
--9--9--9-------9-----7--|--L--7-----7----7--7--0--|--------5--5--5--5--5--5--|
-------------------------|----------------------0--|--3--3--5--5--5--5--5--5--|
--7--7--7-------7-----5--|--L--5-----5----5--5-----|--3--3--------------------|
-------------------------|-------------------------|--3--3--------------------|


  E  E  E  E  E  E  E  E     E  E  E  E  E  E  E  E   
--------------------------|--------------------------|
--------------------------|--------------------------|
--5--5--5--5--5-----------|--------5--5--5--5--5--5--|
--5--5--5--5--5--3--3--3--|-----L--5--5--5--5--5--5--|
-----------------3--3--3--|-----L--------------------|
-----------------3--3--3--|-----L--------------------|


  E  E  E  E  E  E  E  E     E  E  E  E  E  E  E  E   
--------------------------|--------------------------|
--------------------------|--------------------------|
--5--5--5--5--------------|--------5--5--5--5--5--5--|
--5--5--5--5--0--0--2--3--|-----L--5--5--5--5--5--5--|
--------------0--0--2--3--|-----L--------------------|
--------------0--0--2--3--|-----L--------------------|


  E  E  E  E  E  E  E  E     E  E  E  E  E  E  E  E   
--------------------------|--------------------------|
--------------------------|--------------------------|
--5--5--5--5--5-----------|--------5--5--5--5--5--5--|
--5--5--5--5--5--3--3--3--|-----L--5--5--5--5--5--5--|
-----------------3--3--3--|-----L--------------------|
-----------------3--3--3--|-----L--------------------|


  E  E  E  E  E  E  E  E     W                   W                  
--------------------------|-------------------|-------------------||
--------------------------|-------------------|-------------------||
--5--5--5--5--5--5--5--5--|-------------------|--L----------------||
--5--5--5--5--5--5--5--5--|-------------------|--L----------------||
--3--3--3--3--3--3--3--3--|-------------------|--L----------------||
--3--3--3--3--3--3--3--3--|-------------------|--L----------------||



Duration Legend
---------------
W - whole
H - half
Q - quarter
E - 8th
S - 16th
T - 32nd
X - 64th
. - note dotted
|-n-|  - n-tuplets


Tablature Legend
----------------
L - tied note
x - dead note
g - grace note
(n) - ghost note
> - accentuded note
NH - natural harmonic
AH - artificial harmonic
TH - tapped harmonic
SH - semi harmonic
PH - pitch harmonic
h - hammer on
p - pull off
b - bend
br - bendRelease
pb - preBend
pbr - preBendRelease
brb - bendReleaseBend
\n/ - tremolo bar dip
\n - tremolo bar dive
-/n - tremolo bar Release up
/n\ - tremolo bar inverted dip
/n - tremolo bar return
-\n - tremolo bar Release down
S - shift slide
s - legato slide
/ -  slide into from below or out of upwards
\ -  slide into from above or out of downwards
~ - vibrato
W - wide vibrato
tr - trill
TP - tremolo picking
T - tapping
S - slap
P - pop
< - fade in
^ - brush up
v - brush down
comments
We did not receive enough feedback on this tab! Please rate:
print report bad tab
1 2 3 4 5
I want to post or [tab]
guest
You may want to rate the tab now too:
select rating
Please do not post tabs as comments. Select "correction" instead!