Oops, an error
Loading. Please wait.

All I Want For Christmas Is You Tab

ver2
ver2

Whole song

More versions @911Tabs.com
4,321 views 1 this week
no commentswrite comment
1 2 3 4 5
please rate
Autoscroll
+/-
esc
set tempo
stop
Contributor
WARNING: You are trying to view
                                    content from Ultimate-Guitar.com
                                    in an unauthorized application,
                                    which is prohibited.

                                    Please use an official Ultimate
                                    Guitar Tabs application for iPhone,
                                    iPad or Android to access legitimate
                                    chords, guitar, bass, and drum tabs
                                    from Ultimate-Guitar.com database.

                                    Type "ultimate guitar tabs" in Apple
                                    App Store's or Android Market's
                                    search to find the application.
#----------------------------------PLEASE NOTE---------------------------------#
#This file is the author's own work and represents their interpretation of the #
#song. You may only use this file for private study, scholarship, or research. #
#------------------------------------------------------------------------------#

ALL I WANT FOR CHRISTMAS IS YOU
As recorded by My Chemical Romance

Transcribed by karlitomarsh
        



Gtr I (E A D G B E) - 'Piano'
Gtr II (E A D G B E) - 'Frank Iero'
Gtr III (E A D G B E) - 'Ray Toro'

 Intro
  Moderate  Q=67
 4/4
  Gtr I
                  |-3-|
  W          H    Q Q Q   W          W
|-3--------|-2----------|-3--------|-3----|
|-0--------|-3--------3-|-5--------|-4----|
|-0--------|-4------4---|-5--------|-5----|
|-0--------|-5----5-----|-5--------|-5----|
|-2--------|-2----------|-3--------|-3----|
|-3--------|------------|----------|------|


  H.      Q    H.      Q    H    H      H    H
|-3-------2--|-0-------2--|-3----0----|-0----2----|
|-0-------3--|-0-------3--|-0----0----|-1----1----|
|-0-------4--|-0-------4--|-0----1----|-0----2----|
|-0-------5--|-2-------5--|-0----0----|-2----0----|
|-2-------2--|-2-------2--|-2----2----|-0---------|
|-3----------|-0----------|-3----0----|-----------|


                                                Moderately Fast  Q=164
   E  E  E  E  E  E  E  E    E  E  E  E  H      W
|----------14-15-14-------|-------12-15-14----|------||
|----12-15----------15-12-|----13-------------|------||
|-12----------------------|-14----------------|------||
|-------------------------|-------------------|------||
|-------------------------|-------------------|------||
|-------------------------|-------------------|------||


 Verse 1
  Gtr II
  E E E E E E E E   E E E E E E E E   E E E E E E E E   E E E E E E E E
|-----------------|-----------------|-----------------|-----------------|
|-----------------|-----------------|-----------------|-----------------|
|-----------------|-----------------|-----------------|-----------------|
|-5-5-5-5-5-5-5-5-|-5-5-5-5-5-5-5-5-|-5-5-5-5-5-5-5-5-|-5-5-5-5-5-5-5-5-|
|-5-5-5-5-5-5-5-5-|-5-5-5-5-5-5-5-5-|-5-5-5-5-5-5-5-5-|-5-5-5-5-5-5-5-5-|
|-3-3-3-3-3-3-3-3-|-3-3-3-3-3-3-3-3-|-3-3-3-3-3-3-3-3-|-3-3-3-3-3-3-3-3-|
|
| Gtr III
| E E E E E E E E   E E E E E E E E   E E E E E E E E   E E E E E E E E
|-----------------|-----------------|-----------------|-----------------|
|-----------------|-----------------|-----------------|-----------------|
|-----------------|-----------------|-----------------|-----------------|
|-----------------|-5-5-5-5---------|-----------------|-----------------|
|-5-5-5-5-5-5-5-5-|---------5-5-5-5-|-3-3-3-3-3-3-5-5-|-2-2-2-2-2-2-2-2-|
|-----------------|-----------------|-----------------|-----------------|


  E E E E E E E E   E E E E E E E E   E E E E E E E E   E E E E E E E E
|-----------------|-----------------|-----------------|-----------------|
|-----------------|-----------------|-----------------|-----------------|
|-5-5-5-5-5-5-5-5-|-5-5-5-5-5-5-5-5-|-8-8-8-8-8-8-8-8-|-8-8-8-8-8-8-8-8-|
|-5-5-5-5-5-5-5-5-|-5-5-5-5-5-5-5-5-|-8-8-8-8-8-8-8-8-|-8-8-8-8-8-8-8-8-|
|-3-3-3-3-3-3-3-3-|-3-3-3-3-3-3-3-3-|-6-6-6-6-6-6-6-6-|-6-6-6-6-6-6-6-6-|
|-----------------|-----------------|-----------------|-----------------|
|
| E E E E E E E E   E E E E E E E E   E E E E E E E E   E E E E E E E E
|-----------------|-----------------|-----------------|-----------------|
|-----------------|-----------------|-----------------|-----------------|
|-5-5-5-5-7-7-7-7-|-4-4-4-4---------|-------------4-4-|-----------------|
|-----------------|---------5-5-5-5-|-7-7-7-7-7-7-----|-5-5-5-5-5-5-5-5-|
|-----------------|-----------------|-----------------|-----------------|
|-----------------|-----------------|-----------------|-----------------|


  E E E E E E E E   E E E E E E E E   E E E E E E E E   E E E E E E E E
|-----------------|-----------------|-----------------|-----------------|
|-----------------|-----------------|-----------------|-----------------|
|-----------------|-----------------|-----------------|-----------------|
|-5-5-5-5-5-5-5-5-|-5-5-5-5-5-5-5-5-|-5-5-5-5-5-5-5-5-|-5-5-5-5-5-5-5-5-|
|-5-5-5-5-5-5-5-5-|-5-5-5-5-5-5-5-5-|-5-5-5-5-5-5-5-5-|-5-5-5-5-5-5-5-5-|
|-3-3-3-3-3-3-3-3-|-3-3-3-3-3-3-3-3-|-3-3-3-3-3-3-3-3-|-3-3-3-3-3-3-3-3-|
|
| E E E E E E E E   E E E E E E E E   E E E E E E E E   E E E E E E E E
|-----------------|-----------------|-----------------|-----------------|
|-----------------|-----------------|-----------------|-----------------|
|-----------------|-----------------|-----------------|-----------------|
|-5-5-5-5-5-5-5-5-|-----------------|-----------------|-----------------|
|-----------------|-5-5-5-5-5-5-5-5-|-3-3-3-3-3-3-3-3-|-2-2-2-2-2-2-2-2-|
|-----------------|-----------------|-----------------|-----------------|


  E E E E E E E E   E E E E E E E E   W          +W
|-----------------|-----------------|----------|--------||
|-----------------|-----------------|----------|--------||
|-5-5-5-5-5-5-5-5-|-5-5-5-5-5-5-5-5-|-8--------|-(8)----||
|-5-5-5-5-5-5-5-5-|-5-5-5-5-5-5-5-5-|-8--------|-(8)----||
|-3-3-3-3-3-3-3-3-|-3-3-3-3-3-3-3-3-|-6--------|-(6)----||
|-----------------|-----------------|----------|--------||
|
| E E E E E E E E   E E E E E E E E   W          +W
|-----------------|-----------------|----------|--------||
|-----------------|-----------------|----------|--------||
|-5-5-5-5-7-7-7-7-|-4-4-4-4---------|----------|--------||
|-----------------|---------5-5-5-5-|-7--------|-(7)----||
|-----------------|-----------------|----------|--------||
|-----------------|-----------------|----------|--------||


 Chorus
   E    E     E    E     E    E     E    E
|---------------------------------------------|
|---------------------------------------------|
|---------------------------------------------|
|--5----5-----5----5-----5----5-----5----5----|
|--5----5-----5----5-----5----5-----5----5----|
|--3----3-----3----3-----3----3-----3----3----|
|
|  |-------------------3--------------------|
|  E  E    E  E  E    E  E  E    E  E  E    E
|---------------------------------------------|
|---------------------------------------------|
|-12-12---12-12-12---12-12-12---12-12-12---12-|
|---------------------------------------------|
|-10-10---10-10-10---10-10-10---10-10-10---10-|
|---------------------------------------------|


   E    E     E    E     E    E     E    E
|---------------------------------------------|
|---------------------------------------------|
|---------------------------------------------|
|--5----5-----5----5-----4----4-----4----4----|
|--5----5-----5----5-----4----4-----4----4----|
|--3----3-----3----3-----2----2-----2----2----|
|
|  |-------------------3--------------------|
|  E  E    E  E  E    E  E  E    E  E  E    E
|---------------------------------------------|
|---------------------------------------------|
|-12-12---12-12-12---12-16-16---16-16-16---16-|
|---------------------------------------------|
|-10-10---10-10-10---10-14-14---14-14-14---14-|
|---------------------------------------------|


   E    E     E    E     E    E     E    E
|---------------------------------------------|
|---------------------------------------------|
|------------------------8----8-----8----8----|
|--2----2-----2----2-----8----8-----8----8----|
|--2----2-----2----2-----6----6-----6----6----|
|--0----0-----0----0--------------------------|
|
|  |-------------------3--------------------|
|  E  E    E  E  E    E  E  E    E  E  E    E
|---------------------------------------------|
|---------------------------------------------|
|---------------------------------------------|
|-14-14---14-14-14---14-14-14---14-14-14---14-|
|---------------------------------------------|
|-12-12---12-12-12---12-12-12---12-12-12---12-|


   E    E     E    E     E    E     E    E
|---------------------------------------------|
|---------------------------------------------|
|--7----7-----7----7-----7----7-----7----7----|
|--7----7-----7----7-----7----7-----7----7----|
|--5----5-----5----5-----5----5-----5----5----|
|---------------------------------------------|
|
|  |-------------------3--------------------|
|  E  E    E  E  E    E  E  E    E  E  E    E
|---------------------------------------------|
|---------------------------------------------|
|---------------------------------------------|
|-13-13---13-13-13---13-13-13---13-13-13---13-|
|---------------------------------------------|
|-11-11---11-11-11---11-11-11---11-11-11---11-|


   E    E     E    E     E    E     E    E
|---------------------------------------------|
|---------------------------------------------|
|--7----7-----7----7-----7----7-----7----7----|
|--7----7-----7----7-----7----7-----7----7----|
|--5----5-----5----5-----5----5-----5----5----|
|---------------------------------------------|
|
|  |-------------------3--------------------|
|  E  E    E  E  E    E  E  E    E  E  E    E
|---------------------------------------------|
|---------------------------------------------|
|-12-12---12-12-12---12-12-12---12-12-12---12-|
|---------------------------------------------|
|-10-10---10-10-10---10-10-10---10-10-10---10-|
|---------------------------------------------|


   E    E     E    E     E    E     E    E
|---------------------------------------------|
|---------------------------------------------|
|--9----9-----9----9-----9----9-----9----9----|
|--9----9-----9----9-----9----9-----9----9----|
|--7----7-----7----7-----7----7-----7----7----|
|---------------------------------------------|
|
|  |-------------------3--------------------|
|  E  E    E  E  E    E  E  E    E  E  E    E
|---------------------------------------------|
|---------------------------------------------|
|-12-12---12-12-12---12-16-16---16-16-16---16-|
|---------------------------------------------|
|-10-10---10-10-10---10-14-14---14-14-14---14-|
|---------------------------------------------|


   E    E     E    E     E    E     E    E
|---------------------------------------------|
|---------------------------------------------|
|---------------------------------------------|
|--7----7-----7----7-----7----7-----7----7----|
|--7----7-----7----7-----7----7-----7----7----|
|--5----5-----5----5-----5----5-----5----5----|
|
|  |-------------------3--------------------|
|  E  E    E  E  E    E  E  E    E  E  E    E
|---------------------------------------------|
|---------------------------------------------|
|-14-14---14-14-14---14-12-12---12-12-12---12-|
|---------------------------------------------|
|-12-12---12-12-12---12-10-10---10-10-10---10-|
|---------------------------------------------|


   E    E     E    E     E    E     E    E
|---------------------------------------------|
|---------------------------------------------|
|--7----7-----7----7-----7----7-----7----7----|
|--7----7-----7----7-----7----7-----7----7----|
|--5----5-----5----5-----5----5-----5----5----|
|---------------------------------------------|
|
|  |-------------------3--------------------|
|  E  E    E  E  E    E  E  E    E  E  E    E
|---------------------------------------------|
|---------------------------------------------|
|-11-11---11-11-11---11-11-12---12-12-12---12-|
|---------------------------------------------|
|--9--9----9--9--9----9--9-10---10-10-10---10-|
|---------------------------------------------|


   E    E     E    E     E    E     E    E
|---------------------------------------------|
|---------------------------------------------|
|---------------------------------------------|
|--5----5-----5----5-----5----5-----5----5----|
|--5----5-----5----5-----5----5-----5----5----|
|--3----3-----3----3-----3----3-----3----3----|
|
|  |-------------------3--------------------|
|  E  E    E  E  E    E  E  E    E  E  E    E
|---------------------------------------------|
|---------------------------------------------|
|-12-12---12-12-12---12-12-12---12-12-12---12-|
|---------------------------------------------|
|-10-10---10-10-10---10-10-10---10-10-10---10-|
|---------------------------------------------|


   E    E     E    E     E    E     E    E
|---------------------------------------------|
|---------------------------------------------|
|---------------------------------------------|
|--2----2-----2----2-----2----2-----2----2----|
|--2----2-----2----2-----2----2-----2----2----|
|--0----0-----0----0-----0----0-----0----0----|
|
|  |-------------------3--------------------|
|  E  E    E  E  E    E  E  E    E  E  E    E
|---------------------------------------------|
|---------------------------------------------|
|-12-12---12-12-12---12-16-16---16-16-16---16-|
|---------------------------------------------|
|-10-10---10-10-10---10-14-14---14-14-14---14-|
|---------------------------------------------|


                                                 |--3--|
   E    E     E    E     E    E     E    E       q  q  q  H
|---------------------------------------------|----------------||
|---------------------------------------------|----------------||
|---------------------------------------------|--7--7--7--7----||
|--7----7-----7----7-----7----7-----7----7----|--7--7--7--7----||
|--7----7-----7----7-----7----7-----7----7----|--5--5--5--5----||
|--5----5-----5----5-----5----5-----5----5----|----------------||
|
|  |-------------------3--------------------|    |--3--|
|  E  E    E  E  E    E  E  E    E  E  E    E    q  q  q  H
|---------------------------------------------|----------------||
|---------------------------------------------|----------------||
|---------------------------------------------|----------------||
|-14-14---14-14-14---14-14-14---14-14-14---14-|-12-12-12-12----||
|---------------------------------------------|----------------||
|-12-12---12-12-12---12-12-12---12-12-12---12-|-10-10-10-10----||


 Verse 2
  E E E E E E E E   E E E  E E E E E   E E E E E E E E   E E E  E E E E E
|-----------------|------------------|-----------------|------------------|
|-----------------|------------------|-----------------|------------------|
|-----------------|------------------|-----------------|------------------|
|-5---5---5---5---|-5---5----5---5---|-5---5---5---5---|-5---5----5---5---|
|-5---5---5---5---|-5---5----5---5---|-5---5---5---5---|-5---5----5---5---|
|-3---3---3---3---|-3---3----3---3---|-3---3---3---3---|-3---3----3---3---|
|
| Q   Q   Q   Q     Q   H.             Q   Q   Q   Q     Q   H.
|-----------------|------------------|-----------------|------------------|
|-----------------|------------------|-----------------|------------------|
|-----4-----------|------------------|-----4-----------|-4---5------------|
|---------7---5---|-4---5------------|---------7---5---|------------------|
|-----------------|------------------|-----------------|------------------|
|-----------------|------------------|-----------------|------------------|


  E   E   E   E E E     E E   E   E   E   E E E     E E
|---------------------------|---------------------------|
|---------------------------|---------------------------|
|-5-------5-----5-------5---|-5-------5-----5-------5---|
|-5-------5-----5-------5---|-5-------5-----5-------5---|
|-3-------3-----3-------3---|-3-------3-----3-------3---|
|---------------------------|---------------------------|
|
| |--------3---------|        |--------3---------|
| E E   Q   Q   Q   +H        E E   Q   Q   Q   +H
|---------------------------|---------------------------|
|---------------------------|---------------------------|
|---------------------------|---------------------------|
|-7-----7s==9---5---(5)-----|-7-----7s==9---5---(5)-----|
|---------------------------|---------------------------|
|---------------------------|---------------------------|


  E E E E E E E E   E E E E E E E E
|-----------------|------------------|
|-----------------|------------------|
|-8---8---8---8---|-8---8---8---8----|
|-8---8---8---8---|-8---8---8---8----|
|-6---6---6---6---|-6---6---6---6----|
|-----------------|------------------|
|
| H       H         H       H
|-----------------|------------------|
|-----------------|------------------|
|-----------------|---------4--------|
|---------5-------|-7----------------|
|-7---------------|------------------|
|-----------------|------------------|


  E E E E E E E E   E E E E E E E E   E  E E E E E E E   E E E E E E E E
|-----------------|-----------------|------------------|-----------------|
|-----------------|-----------------|------------------|-----------------|
|-----------------|-----------------|------------------|-----------------|
|-5---5---5---5---|-5---5---5---5---|-5----5---5---5---|-5---5---5---5---|
|-5---5---5---5---|-5---5---5---5---|-5----5---5---5---|-5---5---5---5---|
|-3---3---3---3---|-3---3---3---3---|-3----3---3---3---|-3---3---3---3---|
|
| W                 W                 H.           Q     W
|-----------------|-----------------|------------------|-----------------|
|-----------------|-----------------|------------------|-----------------|
|-----------------|-----------------|------------------|-----------------|
|-5---------------|-----------------|------------------|-----------------|
|-----------------|-5---------------|-3------------5---|-2---------------|
|-----------------|-----------------|------------------|-----------------|


  E   E   E   E E E     E E   E   E   E   E E E     E E   W           +W
|---------------------------|---------------------------|-----------|--------||
|---------------------------|---------------------------|-----------|--------||
|-5-------5-----5-------5---|-5-------5-----5-------5---|-8---------|-(8)----||
|-5-------5-----5-------5---|-5-------5-----5-------5---|-8---------|-(8)----||
|-3-------3-----3-------3---|-3-------3-----3-------3---|-6---------|-(6)----||
|---------------------------|---------------------------|-----------|--------||
|
| |--------3---------|        |--------3---------|
| E E   Q   Q   Q   +H        E E   Q   Q   Q   +H        H    H       W
|---------------------------|---------------------------|-----------|--------||
|---------------------------|---------------------------|-----------|--------||
|---------------------------|---------------------------|------4----|--5-----||
|-7-----7s==9---5---(5)-----|-7-----7s==9---5---(5)-----|-7---------|--------||
|---------------------------|---------------------------|-----------|--------||
|---------------------------|---------------------------|-----------|--------||


 Chorus
   E    E     E    E     E    E     E    E
|---------------------------------------------|
|---------------------------------------------|
|---------------------------------------------|
|--5----5-----5----5-----5----5-----5----5----|
|--5----5-----5----5-----5----5-----5----5----|
|--3----3-----3----3-----3----3-----3----3----|
|
|  |-------------------3--------------------|
|  E  E    E  E  E    E  E  E    E  E  E    E
|---------------------------------------------|
|---------------------------------------------|
|-12-12---12-12-12---12-12-12---12-12-12---12-|
|---------------------------------------------|
|-10-10---10-10-10---10-10-10---10-10-10---10-|
|---------------------------------------------|


   E    E     E    E     E    E     E    E
|---------------------------------------------|
|---------------------------------------------|
|---------------------------------------------|
|--5----5-----5----5-----4----4-----4----4----|
|--5----5-----5----5-----4----4-----4----4----|
|--3----3-----3----3-----2----2-----2----2----|
|
|  |-------------------3--------------------|
|  E  E    E  E  E    E  E  E    E  E  E    E
|---------------------------------------------|
|---------------------------------------------|
|-12-12---12-12-12---12-16-16---16-16-16---16-|
|---------------------------------------------|
|-10-10---10-10-10---10-14-14---14-14-14---14-|
|---------------------------------------------|


   E    E     E    E     E    E     E    E
|---------------------------------------------|
|---------------------------------------------|
|------------------------8----8-----8----8----|
|--2----2-----2----2-----8----8-----8----8----|
|--2----2-----2----2-----6----6-----6----6----|
|--0----0-----0----0--------------------------|
|
|  |-------------------3--------------------|
|  E  E    E  E  E    E  E  E    E  E  E    E
|---------------------------------------------|
|---------------------------------------------|
|---------------------------------------------|
|-14-14---14-14-14---14-14-14---14-14-14---14-|
|---------------------------------------------|
|-12-12---12-12-12---12-12-12---12-12-12---12-|


   E    E     E    E     E    E     E    E
|---------------------------------------------|
|---------------------------------------------|
|--7----7-----7----7-----7----7-----7----7----|
|--7----7-----7----7-----7----7-----7----7----|
|--5----5-----5----5-----5----5-----5----5----|
|---------------------------------------------|
|
|  |-------------------3--------------------|
|  E  E    E  E  E    E  E  E    E  E  E    E
|---------------------------------------------|
|---------------------------------------------|
|---------------------------------------------|
|-13-13---13-13-13---13-13-13---13-13-13---13-|
|---------------------------------------------|
|-11-11---11-11-11---11-11-11---11-11-11---11-|


   E    E     E    E     E    E     E    E
|---------------------------------------------|
|---------------------------------------------|
|--7----7-----7----7-----7----7-----7----7----|
|--7----7-----7----7-----7----7-----7----7----|
|--5----5-----5----5-----5----5-----5----5----|
|---------------------------------------------|
|
|  |-------------------3--------------------|
|  E  E    E  E  E    E  E  E    E  E  E    E
|---------------------------------------------|
|---------------------------------------------|
|-12-12---12-12-12---12-12-12---12-12-12---12-|
|---------------------------------------------|
|-10-10---10-10-10---10-10-10---10-10-10---10-|
|---------------------------------------------|


   E    E     E    E     E    E     E    E
|---------------------------------------------|
|---------------------------------------------|
|--9----9-----9----9-----9----9-----9----9----|
|--9----9-----9----9-----9----9-----9----9----|
|--7----7-----7----7-----7----7-----7----7----|
|---------------------------------------------|
|
|  |-------------------3--------------------|
|  E  E    E  E  E    E  E  E    E  E  E    E
|---------------------------------------------|
|---------------------------------------------|
|-12-12---12-12-12---12-16-16---16-16-16---16-|
|---------------------------------------------|
|-10-10---10-10-10---10-14-14---14-14-14---14-|
|---------------------------------------------|


   E    E     E    E     E    E     E    E
|---------------------------------------------|
|---------------------------------------------|
|---------------------------------------------|
|--7----7-----7----7-----7----7-----7----7----|
|--7----7-----7----7-----7----7-----7----7----|
|--5----5-----5----5-----5----5-----5----5----|
|
|  |-------------------3--------------------|
|  E  E    E  E  E    E  E  E    E  E  E    E
|---------------------------------------------|
|---------------------------------------------|
|-14-14---14-14-14---14-12-12---12-12-12---12-|
|---------------------------------------------|
|-12-12---12-12-12---12-10-10---10-10-10---10-|
|---------------------------------------------|


   E    E     E    E     E    E     E    E
|---------------------------------------------|
|---------------------------------------------|
|--7----7-----7----7-----7----7-----7----7----|
|--7----7-----7----7-----7----7-----7----7----|
|--5----5-----5----5-----5----5-----5----5----|
|---------------------------------------------|
|
|  |-------------------3--------------------|
|  E  E    E  E  E    E  E  E    E  E  E    E
|---------------------------------------------|
|---------------------------------------------|
|-11-11---11-11-11---11-11-12---12-12-12---12-|
|---------------------------------------------|
|--9--9----9--9--9----9--9-10---10-10-10---10-|
|---------------------------------------------|


   E    E     E    E     E    E     E    E
|---------------------------------------------|
|---------------------------------------------|
|---------------------------------------------|
|--5----5-----5----5-----5----5-----5----5----|
|--5----5-----5----5-----5----5-----5----5----|
|--3----3-----3----3-----3----3-----3----3----|
|
|  |-------------------3--------------------|
|  E  E    E  E  E    E  E  E    E  E  E    E
|---------------------------------------------|
|---------------------------------------------|
|-12-12---12-12-12---12-12-12---12-12-12---12-|
|---------------------------------------------|
|-10-10---10-10-10---10-10-10---10-10-10---10-|
|---------------------------------------------|


   E    E     E    E     E    E     E    E
|---------------------------------------------|
|---------------------------------------------|
|---------------------------------------------|
|--2----2-----2----2-----2----2-----2----2----|
|--2----2-----2----2-----2----2-----2----2----|
|--0----0-----0----0-----0----0-----0----0----|
|
|  |-------------------3--------------------|
|  E  E    E  E  E    E  E  E    E  E  E    E
|---------------------------------------------|
|---------------------------------------------|
|-12-12---12-12-12---12-16-16---16-16-16---16-|
|---------------------------------------------|
|-10-10---10-10-10---10-14-14---14-14-14---14-|
|---------------------------------------------|


                                                 |--3--|
   E    E     E    E     E    E     E    E       q  q  q  H
|---------------------------------------------|----------------||
|---------------------------------------------|----------------||
|---------------------------------------------|--7--7--7--8----||
|--7----7-----7----7-----7----7-----7----7----|--7--7--7--8----||
|--7----7-----7----7-----7----7-----7----7----|--5--5--5--6----||
|--5----5-----5----5-----5----5-----5----5----|----------------||
|
|  |-------------------3--------------------|    |--3--|
|  E  E    E  E  E    E  E  E    E  E  E    E    q  q  q  H
|---------------------------------------------|----------------||
|---------------------------------------------|----------------||
|---------------------------------------------|----------------||
|-14-14---14-14-14---14-14-14---14-14-14---14-|-12-12-12-13----||
|---------------------------------------------|----------------||
|-12-12---12-12-12---12-12-12---12-12-12---12-|-10-10-10-11----||


 Bridge/Solo
   Q  Q  Q  Q    Q   Q  Q   Q    Q.    E H        Q.    E H
|--------------|---------------|--------------|----------------|
|--------------|---------------|--------------|----------------|
|--------------|---------------|--------------|----------------|
|--------------|-7-------------|--------------|----------------|
|-----6--7--9--|----10--9--10--|-9----10-7----|---9----10-7----|
|--7-----------|---------------|--------------|----------------|
|
|  Q  Q  Q  Q    Q   Q  Q   Q    Q.    E H        Q.    E H
|--------------|---------------|--------------|----------------|
|--------------|---------------|--------------|----------------|
|--------------|---------------|--------------|-/11----12-9----|
|-----9--7--9--|-7---9--7------|--------------|----------------|
|-10-----------|-----------10--|-9----10-7----|----------------|
|--------------|---------------|--------------|----------------|


  Q  Q  Q  Q    Q   Q  Q   Q    Q.    E H      Q.    E H
|-------------|---------------|--------------|--------------|
|-------------|---------------|--------------|--------------|
|-------------|---------------|--------------|--------------|
|-------------|-7-------------|--------------|--------------|
|----6--7--9--|----10--9--10--|-9----10-7----|-9----10-7----|
|-7-----------|---------------|--------------|--------------|
|
| Q  Q  Q  Q    Q   Q  Q   Q    Q.    E H      Q.    E H
|-------------|---------------|--------------|--------------|
|-------------|---------------|--------------|--------------|
|-------------|---------------|--------------|--------------|
|----9--7--9--|-7---9--7------|--------------|--------------|
|-------------|-----------10--|-9----10-7----|-9----10-7----|
|-------------|---------------|--------------|--------------|


  E E E E E  E    E  E   E  E     E  E  E    E E  E
|----------------------|----------------------------|
|----------------------|----------------------------|
|-8---8---8-------8----|-8--------8-----8------8----|
|-8---8---8-------8----|-8--------8-----8------8----|
|-6---6---6-------6----|-6--------6-----6------6----|
|----------------------|----------------------------|
|
| H       E.   E.    E   E.    E.    E  Q.        E
|----------------------|----------------------------|
|----------------------|-8----10----12-12b13r====10-|
|-8-------8----9----11-|----------------------------|
|----------------------|----------------------------|
|----------------------|----------------------------|
|----------------------|----------------------------|


   E    E E E E  E E E   E E E E  E  E    E E
|----------------------|-----------------------|
|----------------------|-----------------------|
|--7------7---7----7---|-9---9----9-------9----|
|--7------7---7----7---|-9---9----9-------9----|
|--5------5---5----5---|-7---7----7-------7----|
|----------------------|-----------------------|
|
|  Q.       E Q.     E   H        E.   E.   E
|----------------------|-----------------------|
|-10b12r====8-8------7-|-8-------10----8----7--|
|----------------------|-----------------------|
|----------------------|-----------------------|
|----------------------|-----------------------|
|----------------------|-----------------------|


  E E E E E E E E   E E E E E E E E
|-----------------|-----------------|
|-----------------|-----------------|
|-----------------|-----------------|
|-7---7---7---7---|-7---7---7---7---|
|-7---7---7---7---|-7---7---7---7---|
|-5---5---5---5---|-5---5---5---5---|
|
| H       H         H       H
|-----------------|-----------------|
|-8---------------|-----------------|
|---------9-------|-7-------5-------|
|-----------------|-----------------|
|-----------------|-----------------|
|-----------------|-----------------|


  |-------------3--------------|
  Q     Q    Q     Q     Q     Q       W
|-----------------------------------|----------------------||
|-----------------------------------|----------------------||
|-7-----7----7-----7-----7-----7----|--8-------------------||
|-7-----7----7-----7-----7-----7----|--8-------------------||
|-5-----5----5-----5-----5-----5----|--6-------------------||
|-----------------------------------|----------------------||
|
| |---------------3---------------|
| E  E  E E  E  E  E  E  E  E  E  E    Q.      E  Q.     E
|--------------------------------10-|----------------------||
|-----------------------10-12-13----|-12b13r==10-10b12r==8-||
|-----------------11-12-------------|----------------------||
|---------9-10-12-------------------|----------------------||
|-9-10-12---------------------------|----------------------||
|-----------------------------------|----------------------||


 Verse 3
  PM---------------------------------------------------
  |----------3----------|    |----------3-----------|
  E E E E E E E E E E E E    E  E E E E E E E E E E E
|-------------------------|---------------------------|
|-------------------------|---------------------------|
|-------------------------|---------------------------|
|-------------------------|---------------------------|
|-5-5-5-5-5-5-5-5-5-5-5-5-|--5--5-5-5-5-5-5-5-5-5-5-5-|
|-3-3-3-3-3-3-3-3-3-3-3-3-|--3--3-3-3-3-3-3-3-3-3-3-3-|
|
| W                         +W
|-------------------------|---------------------------|
|-8-----------------------|-(8)-----------------------|
|-------------------------|---------------------------|
|-------------------------|---------------------------|
|-------------------------|---------------------------|
|-------------------------|---------------------------|


 -----------------------|
  |----------3----------|
  E E E E E E E E E E E E
|--------------------------|
|--------------------------|
|--------------------------|
|--------------------------|
|-5-5-5-5-5-5-5-5-5-5-5-5--|
|-3-3-3-3-3-3-3-3-3-3-3-3--|
|
| W
|--------------------------|
|--------------------------|
|--------------------------|
|--------------------------|
|--------------------------|
|--------------------------|


  PM------------------------------------------------------------------------|
  |----------3----------|   |----------3----------|   |----------3----------|
  E E E E E E E E E E E E   E E E E E E E E E E E E   E E E E E E E E E E E E
|-------------------------|-------------------------|--------------------------|
|-------------------------|-------------------------|--------------------------|
|-------------------------|-------------------------|--------------------------|
|-------------------------|-5-5-5-5-5-5-5-5-5-5-5-5-|-5-5-5-5-5-5-5-5-5-5-5-5--|
|-5-5-5-5-5-5-5-5-5-5-5-5-|-3-3-3-3-3-3-3-3-3-3-3-3-|-3-3-3-3-3-3-3-3-3-3-3-3--|
|-3-3-3-3-3-3-3-3-3-3-3-3-|-------------------------|--------------------------|


  PM----------------|
  |----------3----------|
  E E E E E E E E E E E E   h     H
|-------------------------|-------------|
|-------------------------|-------------|
|-------------------------|------<5>----|
|-8-8-8-8-8-8-8-8-8-8-8-8-|-9-----------|
|-6-6-6-6-6-6-6-6-6-6-6-6-|-6-----------|
|-------------------------|-------------|


  Slower Q=150
   Q        Q        Q        Q          Q        Q        Q        Q
|-------------------------------------|-------------------------------------|
|-------------------------------------|-------------------------------------|
|-------------------------------------|--------------------4--------4-------|
|--5--------5--------5--------5-------|--5--------5--------4--------4-------|
|--5--------5--------5--------5-------|--5--------5--------2--------2-------|
|--3--------3--------3--------3-------|--3--------3-------------------------|
|
| Gtr III
|  |---------------3----------------|    |---------------3----------------|
|  E  E  E  E  E  E  E  E  E  E  E  E    E  E  E  E  E  E  E  E  E  E  E  E
|-------------------------------------|-------------------------------------|
|-------------------------------------|-------------------------------------|
|-12-12-12-12-12-12-12-12-12-12-12-12-|-12-12-12-12-12-12-12-12-12-12-12-12-|
|-------------------------------------|-------------------------------------|
|-10-10-10-10-10-10-10-10-10-10-10-10-|-10-10-10-10-10-10-10-10-10-10-10-10-|
|-------------------------------------|-------------------------------------|


   Q        Q        Q        Q          Q        Q        Q        Q
|-------------------------------------|-------------------------------------|
|-------------------------------------|-------------------------------------|
|-------------------------------------|--------------------8--------8-------|
|--2--------2--------2--------2-------|--2--------2--------8--------8-------|
|--2--------2--------2--------2-------|--2--------2--------6--------6-------|
|--0--------0--------0--------0-------|--0--------0-------------------------|
|
|  |---------------3----------------|    |---------------3----------------|
|  E  E  E  E  E  E  E  E  E  E  E  E    E  E  E  E  E  E  E  E  E  E  E  E
|-------------------------------------|-------------------------------------|
|-------------------------------------|-------------------------------------|
|-------------------------------------|-------------------17-17-17-17-17-17-|
|-14-14-14-14-14-14-14-14-14-14-14-14-|-14-14-14-14-14-14-------------------|
|-------------------------------------|-------------------15-15-15-15-15-15-|
|-12-12-12-12-12-12-12-12-12-12-12-12-|-12-12-12-12-12-12-------------------|


   Q        Q        Q        Q          Q        Q        Q        Q
|-------------------------------------|-------------------------------------|
|-------------------------------------|-------------------------------------|
|--7--------7--------7--------7-------|--9--------9--------9--------9-------|
|--7--------7--------7--------7-------|--9--------9--------9--------9-------|
|--5--------5--------5--------5-------|--7--------7--------7--------7-------|
|-------------------------------------|-------------------------------------|
|
|  |---------------3----------------|    |---------------3----------------|
|  E  E  E  E  E  E  E  E  E  E  E  E    E  E  E  E  E  E  E  E  E  E  E  E
|-------------------------------------|-------------------------------------|
|-------------------------------------|-------------------------------------|
|-16-16-16-16-16-16-16-16-16-16-16-16-|-16-16-16-16-16-16-16-16-16-16-16-16-|
|-------------------------------------|-------------------------------------|
|-14-14-14-14-14-14-14-14-14-14-14-14-|-14-14-14-14-14-14-14-14-14-14-14-14-|
|-------------------------------------|-------------------------------------|


   Q        Q        Q        Q          W           W
|-------------------------------------|-----------|-------||
|-------------------------------------|-----------|-------||
|-------------------------------------|--7--------|--7----||
|--7--------7--------7--------7-------|--7--------|--7----||
|--7--------7--------7--------7-------|--5--------|--5----||
|--5--------5--------5--------5-------|-----------|-------||
|
|  |---------------3----------------|
|  E  E  E  E  E  E  E  E  E  E  E  E    W           W
|-------------------------------------|-----------|-------||
|-------------------------------------|-----------|-------||
|-16-16-16-16-16-16-16-16-16-16-16-16-|-16--------|-16----||
|-------------------------------------|-----------|-------||
|-14-14-14-14-14-14-14-14-14-14-14-14-|-14--------|-14----||
|-------------------------------------|-----------|-------||


 Outro
  E E E E E E E E   E E E E E E E E   E E E E E E E E   E E E E E E E E
|-----------------|-----------------|-----------------|-----------------|
|-----------------|-----------------|-----------------|-----------------|
|-----------------|-----------------|-----------------|-7-7-7-7-7-7-7-7-|
|-5-5-5-5-5-5-5-5-|-2-2-2-2-2-2-2-2-|-7-7-7-7-7-7-7-7-|-7-7-7-7-7-7-7-7-|
|-5-5-5-5-5-5-5-5-|-2-2-2-2-2-2-2-2-|-7-7-7-7-7-7-7-7-|-5-5-5-5-5-5-5-5-|
|-3-3-3-3-3-3-3-3-|-0-0-0-0-0-0-0-0-|-5-5-5-5-5-5-5-5-|-----------------|
|
| Q   Q   Q   Q     Q   Q   H         H       H         H       H
|-----------------|-----------------|-----------------|-----------------|
|-----------------|-----------------|-----------------|-----------------|
|-----------------|-----------------|-----------------|-----------------|
|-------------7---|-5---4---5-------|-7-------5-------|-4---------------|
|-5-------5-------|-----------------|-----------------|---------7-------|
|-----7-----------|-----------------|-----------------|-----------------|


  E E E E E E E E   E E E E E E E E   E E E E E E E E   E E E E E E E E
|-----------------|-----------------|-----------------|-----------------|
|-----------------|-----------------|-----------------|-----------------|
|-----------------|-----------------|-----------------|-7-7-7-7-7-7-7-7-|
|-5-5-5-5-5-5-5-5-|-2-2-2-2-2-2-2-2-|-7-7-7-7-7-7-7-7-|-7-7-7-7-7-7-7-7-|
|-5-5-5-5-5-5-5-5-|-2-2-2-2-2-2-2-2-|-7-7-7-7-7-7-7-7-|-5-5-5-5-5-5-5-5-|
|-3-3-3-3-3-3-3-3-|-0-0-0-0-0-0-0-0-|-5-5-5-5-5-5-5-5-|-----------------|
|
| Q   Q   Q   Q     Q   Q   H         H       H         H       H
|-----------------|-----------------|-----------------|-----------------|
|-----------------|-----------------|-----------------|-----------------|
|-----------------|-----------------|-----------------|-----------------|
|-------------7---|-5---4---5-------|-7-------5-------|-4---------------|
|-5-------5-------|-----------------|-----------------|---------7-------|
|-----7-----------|-----------------|-----------------|-----------------|


  E E E E E E E E   E E E E E E E E   E E E E E E E E   E E E E E E E E
|-----------------|-----------------|-----------------|-----------------|
|-----------------|-----------------|-----------------|-----------------|
|-----------------|-----------------|-----------------|-7-7-7-7-7-7-7-7-|
|-5-5-5-5-5-5-5-5-|-2-2-2-2-2-2-2-2-|-7-7-7-7-7-7-7-7-|-7-7-7-7-7-7-7-7-|
|-5-5-5-5-5-5-5-5-|-2-2-2-2-2-2-2-2-|-7-7-7-7-7-7-7-7-|-5-5-5-5-5-5-5-5-|
|-3-3-3-3-3-3-3-3-|-0-0-0-0-0-0-0-0-|-5-5-5-5-5-5-5-5-|-----------------|
|
| Q   Q   Q   Q     Q   Q   H         H       H         H       H
|-----------------|-----------------|-----------------|-----------------|
|-----------------|-----------------|-----------------|-----------------|
|-----------------|-----------------|-----------------|-----------------|
|-------------7---|-5---4---5-------|-7-------5-------|-4---------------|
|-5-------5-------|-----------------|-----------------|---------7-------|
|-----7-----------|-----------------|-----------------|-----------------|


  E E E E E E E E   E E E E E E E E   E E E E E E E E   E E E E E E E E
|-----------------|-----------------|-----------------|-----------------|
|-----------------|-----------------|-----------------|-----------------|
|-----------------|-----------------|-----------------|-7-7-7-7-7-7-7-7-|
|-5-5-5-5-5-5-5-5-|-2-2-2-2-2-2-2-2-|-7-7-7-7-7-7-7-7-|-7-7-7-7-7-7-7-7-|
|-5-5-5-5-5-5-5-5-|-2-2-2-2-2-2-2-2-|-7-7-7-7-7-7-7-7-|-5-5-5-5-5-5-5-5-|
|-3-3-3-3-3-3-3-3-|-0-0-0-0-0-0-0-0-|-5-5-5-5-5-5-5-5-|-----------------|
|
| Q   Q   Q   Q     Q   Q   H         H       H         H       H
|-----------------|-----------------|-----------------|-----------------|
|-----------------|-----------------|-----------------|-----------------|
|-----------------|-----------------|-----------------|-----------------|
|-------------7---|-5---4---5-------|-7-------5-------|-4---------------|
|-5-------5-------|-----------------|-----------------|---------7-------|
|-----7-----------|-----------------|-----------------|-----------------|


  E E E E E E E E   E E E E E E E E   E E E E E E E E   E E E E E E E E
|-----------------|-----------------|-----------------|-----------------|
|-----------------|-----------------|-----------------|-----------------|
|-----------------|-----------------|-----------------|-7-7-7-7-7-7-7-7-|
|-5-5-5-5-5-5-5-5-|-2-2-2-2-2-2-2-2-|-7-7-7-7-7-7-7-7-|-7-7-7-7-7-7-7-7-|
|-5-5-5-5-5-5-5-5-|-2-2-2-2-2-2-2-2-|-7-7-7-7-7-7-7-7-|-5-5-5-5-5-5-5-5-|
|-3-3-3-3-3-3-3-3-|-0-0-0-0-0-0-0-0-|-5-5-5-5-5-5-5-5-|-----------------|
|
| Q   Q   Q   Q     Q   Q   H         H       H         H       H
|-----------------|-----------------|-----------------|-----------------|
|-----------------|-----------------|-----------------|-----------------|
|-----------------|-----------------|-----------------|-----------------|
|-------------7---|-5---4---5-------|-7-------5-------|-4---------------|
|-5-------5-------|-----------------|-----------------|---------7-------|
|-----7-----------|-----------------|-----------------|-----------------|


  E E E E E E E E   E E E E E E E E   E E E E E E E E   E E E E E E E E
|-----------------|-----------------|-----------------|-----------------|
|-----------------|-----------------|-----------------|-----------------|
|-----------------|-----------------|-----------------|-7-7-7-7-7-7-7-7-|
|-5-5-5-5-5-5-5-5-|-2-2-2-2-2-2-2-2-|-7-7-7-7-7-7-7-7-|-7-7-7-7-7-7-7-7-|
|-5-5-5-5-5-5-5-5-|-2-2-2-2-2-2-2-2-|-7-7-7-7-7-7-7-7-|-5-5-5-5-5-5-5-5-|
|-3-3-3-3-3-3-3-3-|-0-0-0-0-0-0-0-0-|-5-5-5-5-5-5-5-5-|-----------------|
|
| Q   Q   Q   Q     Q   Q   H         H       H         H       H
|-----------------|-----------------|-----------------|-----------------|
|-----------------|-----------------|-----------------|-----------------|
|-----------------|-----------------|-----------------|-----------------|
|-------------7---|-5---4---5-------|-7-------5-------|-4---------------|
|-5-------5-------|-----------------|-----------------|---------7-------|
|-----7-----------|-----------------|-----------------|-----------------|


  E E E E E E E E   E E E E E E E E   E E E E E E E E   E E E E E E E E
|-----------------|-----------------|-----------------|-----------------|
|-----------------|-----------------|-----------------|-----------------|
|-----------------|-----------------|-----------------|-7-7-7-7-7-7-7-7-|
|-5-5-5-5-5-5-5-5-|-2-2-2-2-2-2-2-2-|-7-7-7-7-7-7-7-7-|-7-7-7-7-7-7-7-7-|
|-5-5-5-5-5-5-5-5-|-2-2-2-2-2-2-2-2-|-7-7-7-7-7-7-7-7-|-5-5-5-5-5-5-5-5-|
|-3-3-3-3-3-3-3-3-|-0-0-0-0-0-0-0-0-|-5-5-5-5-5-5-5-5-|-----------------|
|
| Q   Q   Q   Q     Q   Q   H         H       H         H       H
|-----------------|-----------------|-----------------|-----------------|
|-----------------|-----------------|-----------------|-----------------|
|-----------------|-----------------|-----------------|-----------------|
|-------------7---|-5---4---5-------|-7-------5-------|-4---------------|
|-5-------5-------|-----------------|-----------------|---------7-------|
|-----7-----------|-----------------|-----------------|-----------------|


  E E E E E E E E   E E E E E E E E   E E E E E E E E   E E E E E E E E
|-----------------|-----------------|-----------------|-----------------*|
|-----------------|-----------------|-----------------|-----------------*|
|-----------------|-----------------|-----------------|-7-7-7-7-7-7-7-7-*|
|-5-5-5-5-5-5-5-5-|-2-2-2-2-2-2-2-2-|-7-7-7-7-7-7-7-7-|-7-7-7-7-7-7-7-7-*|
|-5-5-5-5-5-5-5-5-|-2-2-2-2-2-2-2-2-|-7-7-7-7-7-7-7-7-|-5-5-5-5-5-5-5-5-*|
|-3-3-3-3-3-3-3-3-|-0-0-0-0-0-0-0-0-|-5-5-5-5-5-5-5-5-|-----------------*|
|
| Q   Q   Q   Q     Q   Q   H         H       H         H       H
|-----------------|-----------------|-----------------|-----------------*|
|-----------------|-----------------|-----------------|-----------------*|
|-----------------|-----------------|-----------------|-----------------*|
|-------------7---|-5---4---5-------|-7-------5-------|-4---------------*|
|-5-------5-------|-----------------|-----------------|---------7-------*|
|-----7-----------|-----------------|-----------------|-----------------*|



Duration Legend
---------------
W - whole; H - half; Q - quarter; E - 8th; S - 16th; T - 32nd; X - 64th; a - acciaccatura
+ - note tied to previous; . - note dotted; .. - note double dotted
Uncapitalized letters represent notes that are staccato (1/2 duration)
Irregular groupings are notated above the duration line
Duration letters will always appear directly above the note/fret number it represents the
duration for.  Duration letters with no fret number below them represent rests.  Multi-
bar rests are notated in the form Wxn, where n is the number of bars to rest for.  Low
melody durations appear below the staff

Tablature Legend
----------------
 h   - hammer-on
 p   - pull-off
 b   - bend
 pb  - pre-bend
 r   - bend release (if no number after the r, then release immediately)
 /\  - slide into or out of (from/to "nowhere")
 s   - legato slide
 S   - shift slide
 - natural harmonic
[n]  - artificial harmonic
n(n) - tapped harmonic
 ~   - vibrato
 tr  - trill
 T   - tap
 TP  - trem. picking
 PM  - palm muting
\n/  - tremolo bar dip; n = amount to dip
 \n  - tremolo bar down
 n/  - tremolo bar up
/n\  - tremolo bar inverted dip
 =   - hold bend; also acts as connecting device for hammers/pulls
 <> - volume swell (louder/softer)
 x   - on rhythm slash represents muted slash
 o   - on rhythm slash represents single note slash

Misc Legend
-----------
 |  - bar
||  - double bar
||o - repeat start
o|| - repeat end
*|  - double bar (ending)
 :  - bar (freetime)
 $  - Segno
 &  - Coda
Tempo markers -  = BPM(8/16=s8/s16), where s8 = swing 8ths, s16 = swing 16ths

comments
We did not receive enough feedback on this tab! Please rate:
print report bad tab
1 2 3 4 5
I want to post or [tab]
guest
You may want to rate the tab now too:
select rating
Please do not post tabs as comments. Select "correction" instead!