Oops, an error
Loading. Please wait.

Ambulance Tab

676 views 6 this week
1 commentread comment
1 2 3 4 5
not so good
x 1
Autoscroll
+/-
esc
set tempo
stop
Contributor
Difficulty
Tuning
novice
D# G# C# F# A# D#
Hey! There's an official Ultimate Guitar app which is ideal
for learning songs when you're away from computer. Get the app
WARNING: You are trying to view
                                    content from Ultimate-Guitar.com
                                    in an unauthorized application,
                                    which is prohibited.

                                    Please use an official Ultimate
                                    Guitar Tabs application for iPhone,
                                    iPad or Android to access legitimate
                                    chords, guitar, bass, and drum tabs
                                    from Ultimate-Guitar.com database.

                                    Type "ultimate guitar tabs" in Apple
                                    App Store's or Android Market's
                                    search to find the application.
-----------------------------------------------------------------------------
                             Ambulance – My Chemical Romance
-----------------------------------------------------------------------------

Tuning: Half Step Down

Intro
Guitar 1
eb|-------------------------------------------------------------------------|
Bb|--------------------------------171717171717171717171717-----------------|
Gb|1414141414141414141414141414141414141414141414141414141413131313---------|
Db|-------------------------------------------------------------------------|
Ab|1212121212121212121212121212121212121212121212121212121211111111---------|
Eb|-------------------------------------------------------------------------|

eb|-------------------------------------------------------------------------|
Bb|-------------------------------------------------------------------------|
Gb|1414141414141414141414141414131313/1818181818181818181818181818161616----|
Db|-------------------------------------------------------------------------|
Ab|1212121212121212121212121212111111/1616161616161616161616161616141414----|
Eb|-------------------------------------------------------------------------|

eb|-------------------------------------------------------------------------|
Bb|-------------------------------------------------------------------------|
Gb|1616161818182121211818181818181821212121212121212121212121191919---------|
Db|-------------------------------------------------------------------------|
Ab|1414141616161919191616161616161619191919191919191919191919171717---------|
Eb|-------------------------------------------------------------------------|

Verse
Guitar 2
eb|-------------------------------------------------------------------------|
Bb|-------------------------------------------------------------------------|
Gb|-------------------------------7777777766666666444444444447766-----------|
Db|77777777666666664444444444442227777777777777777444444444447766-----------|
Ab|77777777777777774444444444442225555555544444444222222222225544-----------|
Eb|5555555544444444222222222222000------------------------------------------|
PM.............................................................

Guitar 1
eb|-------------------------------------------------------------------------|
Bb|-------------------------------------------------------------------------|
Gb|-----------------------------------6669996666666---6661111119999999------|
Db|--------------------------------999-------------999----------------------|
Ab|-------------------------------------------------------------------------|
Eb|-------------------------------------------------------------------------|
PM                                ...................................

Guitar 2
eb|-------------------------------------------------------------------------|
Bb|-------------------------------------------------------------------------|
Gb|-------------------------------7777777766666666444444444444477-----------|
Db|77777777666666664444444444442227777777777777777444444444444477-----------|
Ab|77777777777777774444444444442225555555544444444222222222222255-----------|
Eb|5555555544444444222222222222000------------------------------------------|
PM.............................................................

Guitar 1
eb|-------------------------------------------------------------------------|
Bb|-------------------------------------------------------------------------|
Gb|-----------------------------------6669996666666---6661111119999999------|
Db|--------------------------------999-------------999----------------------|
Ab|-------------------------------------------------------------------------|
Eb|-------------------------------------------------------------------------|
PM                                ...................................

Pre Chorus
Guitar 2
eb|-------------------------------------------------------------------------|
Bb|-------------------------------------------------------------------------|
Gb|------------------9999999999999977---------------------------------------|
Db|------------------9999999999999977---------------------------------------|
Ab|5~-------4~-------7777777777777755---------------------------------------|
Eb|-------------------------------------------------------------------------|

Guitar 1
eb|-------------------------------------------------------------------------|
Bb|-------------------------------------------------------------------------|
Gb|7~-------6~-------4444444444444422---------------------------------------|
Db|-------------------------------------------------------------------------|
Ab|-------------------------------------------------------------------------|
Eb|-------------------------------------------------------------------------|

Chorus
Guitar 2
eb|-------------------------------------------------------------------------|
Bb|-------------------------------------------------------------------------|
Gb|--------------------------------777777776666666644444444-----------------|
Db|77777777666666664444444422222222777777777777777744444444-----------------|
Ab|777777777777777744444444222222225555555544444444222222225~-4~------------|
Eb|55555555444444442222222200000000------------------------------5~---------|

Guitar 2
eb|-------------------------------------------------------------------------|
Bb|-------------------------------------------------------------------------|
Gb|14141414141414141313131313131313111111111111111199999999-----------------|
Db|-------------------------------------------------------------------------|
Ab|121212121212121211111111111111119-9-9-9-9-9-9-9-77777777-----------------|
Eb|-------------------------------------------------------------------------|

eb|-------------------------------------------------------------------------|
Bb|-------------------------------------------------------------------------|
Gb|14141414141414141313131313131313999999991313131313131313-----------------|
Db|-------------------------------------------------------------------------|
Ab|12121212121212121111111111111111777777771111111111111111-----------------|
Eb|-------------------------------------------------------------------------|

Guitar 1
eb|-------------------------------------------------------------------------|
Bb|-------------------------------------------------------------------------|
Gb|---------------------------------777777776666666644444444----------------|
Db|7777777722222222444444444--------77777777777777774444444422222222--------|
Ab|7777777722222222444444444--------55555555444444442222222222222222--------|
Eb|5555555500000000222222222~-4~-5~-------------------------00000000--------|
Guitar 2
eb|-------------------------------------------------------------------------|
Bb|-------------------------------------------------------------------------|
Gb|1414141414141414161616161616161618181818181818181616161616161616---------|
Db|-------------------------------------------------------------------------|
Ab|1212121212121212141414141414141416161616161616161414141414141414---------|
Eb|-------------------------------------------------------------------------|

eb|-------------------------------------------------------------------------|
Bb|-------------------------------------------------------------------------|
Gb|14141414141414141313131313131313999999991414141414141414-----------------|
Db|-------------------------------------------------------------------------|
Ab|12121212121212121111111111111111777777771212121212121212-----------------|
Eb|-------------------------------------------------------------------------|

Post Chorus
Guitar 2
eb|-------------------------------------------------------------------------|
Bb|-------------------------------------------------------------------------|
Gb|-------------------------------------------------------------------------|
Db|77777777777777777777777777777777-----------------------------------------|
Ab|77777777777777777777777777777777-----------------------------------------|
Eb|55555555555555555555555555555555-----------------------------------------|

Guitar 1
eb|-------------------------------------------------------------------------|
Bb|-------------------------------------------------------------------------|
Gb|1414141414141414141414141413131314141414141414141414141414141414---------|
Db|-------------------------------------------------------------------------|
Ab|1212121212121212121212121211111112121212121212121212121212121212---------|
Eb|-------------------------------------------------------------------------|

Verse 2
Guitar 2
eb|-------------------------------------------------------------------------|
Bb|-------------------------------------------------------------------------|
Gb|-------------------------------7777777766666666444444444447766-----------|
Db|77777777666666664444444444442227777777777777777444444444447766-----------|
Ab|77777777777777774444444444442225555555544444444222222222225544-----------|
Eb|5555555544444444222222222222000------------------------------------------|
PM...........................................................

Guitar 1
eb|-------------------------------------------------------------------------|
Bb|-------------------------------------------------------------------------|
Gb|-----------------------------------6669996666666---6661111119999999------|
Db|--------------------------------999-------------999----------------------|
Ab|-------------------------------------------------------------------------|
Eb|-------------------------------------------------------------------------|
PM                                ...................................

Guitar 2
eb|-------------------------------------------------------------------------|
Bb|-------------------------------------------------------------------------|
Gb|-------------------------------7777777766666666444444444444477-----------|
Db|77777777666666664444444444442227777777777777777444444444444477-----------|
Ab|77777777777777774444444444442225555555544444444222222222222255-----------|
Eb|5555555544444444222222222222000------------------------------------------|
PM.............................................................

Guitar 1
eb|-------------------------------------------------------------------------|
Bb|-------------------------------------------------------------------------|
Gb|-----------------------------------6669996666666---6661111119999999------|
Db|--------------------------------999-------------999----------------------|
Ab|-------------------------------------------------------------------------|
Eb|-------------------------------------------------------------------------|
PM                                ...................................

Pre Chorus
Guitar 2
eb|-------------------------------------------------------------------------|
Bb|-------------------------------------------------------------------------|
Gb|------------------9999999999999977---------------------------------------|
Db|------------------9999999999999977---------------------------------------|
Ab|5~-------4~-------7777777777777755---------------------------------------|
Eb|-------------------------------------------------------------------------|

Guitar 1
eb|-------------------------------------------------------------------------|
Bb|-------------------------------------------------------------------------|
Gb|7~-------6~-------4444444444444422---------------------------------------|
Db|-------------------------------------------------------------------------|
Ab|-------------------------------------------------------------------------|
Eb|-------------------------------------------------------------------------|

Chorus
Guitar 2
eb|-------------------------------------------------------------------------|
Bb|-------------------------------------------------------------------------|
Gb|--------------------------------777777776666666644444444-----------------|
Db|77777777666666664444444422222222777777777777777744444444-----------------|
Ab|777777777777777744444444222222225555555544444444222222225~-4~------------|
Eb|55555555444444442222222200000000------------------------------5~---------|

Guitar 2
eb|-------------------------------------------------------------------------|
Bb|-------------------------------------------------------------------------|
Gb|14141414141414141313131313131313111111111111111199999999-----------------|
Db|-------------------------------------------------------------------------|
Ab|121212121212121211111111111111119-9-9-9-9-9-9-9-77777777-----------------|
Eb|-------------------------------------------------------------------------|

eb|-------------------------------------------------------------------------|
Bb|-------------------------------------------------------------------------|
Gb|14141414141414141313131313131313999999991313131313131313-----------------|
Db|-------------------------------------------------------------------------|
Ab|12121212121212121111111111111111777777771111111111111111-----------------|
Eb|-------------------------------------------------------------------------|

Guitar 1
eb|-------------------------------------------------------------------------|
Bb|-------------------------------------------------------------------------|
Gb|---------------------------------777777776666666644444444----------------|
Db|7777777722222222444444444--------77777777777777774444444422222222--------|
Ab|7777777722222222444444444--------55555555444444442222222222222222--------|
Eb|5555555500000000222222222~-4~-5~-------------------------00000000--------|

Guitar 2
eb|-------------------------------------------------------------------------|
Bb|-------------------------------------------------------------------------|
Gb|1414141414141414161616161616161618181818181818181616161616161616---------|
Db|-------------------------------------------------------------------------|
Ab|1212121212121212141414141414141416161616161616161414141414141414---------|
Eb|-------------------------------------------------------------------------|

eb|-------------------------------------------------------------------------|
Bb|-------------------------------------------------------------------------|
Gb|141414141414141413131313131313139999999999999999-------------------------|
Db|-------------------------------------------------------------------------|
Ab|121212121212121211111111111111117777777777777777-------------------------|
Eb|-------------------------------------------------------------------------|

Bridge
Both Guitars

eb|-------------------------------------------------------------------------|
Bb|-------------------------------------------------------------------------|
Gb|999999991010101010101010111111111111111111111111111111119999999999999999-|
Db|999999991111111111111111111111111111111111111111111111119999999999999999-|
Ab|777777778-8-8-8-8-8-8-8-9-9-9-9-9-9-9-9-9-9-9-9-9-9-9-9-7777777777777777-|
Eb|-------------------------------------------------------------------------|

eb|-------------------------------------------------------------------------|
Bb|-------------------------------------------------------------------------|
Gb|7777777777777777666666666666666611111111111111111111111111111111---------|
Db|7777777777777777777777777777777711111111111111111111111111111111---------|
Ab|555555555555555544444444444444449-9-9-9-9-9-9-9-9-9-9-9-9-9-9-9----------|
Eb|-------------------------------------------------------------------------|

eb|-------------------------------------------------------------------------|
Bb|-------------------------------------------------------------------------|
Gb|9999999999999999777777776666666644444444---------------------------------|
Db|9999999999999999777777777777777744444444222222227------------------------|
Ab|7777777777777777555555554444444422222222222222227------------------------|
Eb|----------------------------------------000000005------------------------|

Verse 3
Guitar 1
eb|-------------------------------------------------------------------------|
Bb|-------------------------------------------------------------------------|
Gb|666666999666-----------------------------------6667779997776666----------|
Db|77777777777777779/11111111111111111111111111\99--------------------------|
Ab|------------77777/9-9-9-9-9-9-9-9-9-9-9-9-9-\775555555555555555----------|
Eb|-------------------------------------------------------------------------|
PM  .. .. .. .. . .    . .   . .   . .   . .       .. .. .. .. . .


eb|-------------------------------------------------------------------------|
Bb|-------------------------------------------------------------------------|
Gb|-------------------------------------------------------------------------|
Db|9991111117777677---------------------------------------------------------|
Ab|7777-7-7-7777777---------------------------------------------------------|
Eb|-------------------------------------------------------------------------|
PM  ..  . .  ..

eb|-------------------------------------------------------------------------|
Bb|-------------------------------------------------------------------------|
Gb|666666999666--------------------------------------666999666666---666-----|
Db|77777777777777779/11111111111111111111111111\99999------------999--------|
Ab|------------77777/9-9-9-9-9-9-9-9-9-9-9-9-9-\77--------------------------|
Eb|-------------------------------------------------------------------------|
PM  .. .. .. .. . .    . .   . .   . .   . .

eb|-------------------------------------------------------------------------|
Bb|-------------------------------------------------------------------------|
Gb|1111119999999------------------------------------------------------------|
Db|-------------------------------------------------------------------------|
Ab|-------------------------------------------------------------------------|
Eb|-------------------------------------------------------------------------|

Guitar 2 (comes in on second time)

eb|---------------------------------------------------------------------------|
Bb|---------------------------------------------------------------------------|
Gb|--------------------------------77777777666666664444444444444444-----------|
Db|7777777777722222444444446666777777777777777777774444444444444444-----------|
Ab|7777777777722222444444446666777755555555444444442222222222222222-----------|
Eb|55555555555000002222222244445555-------------------------------------------|
PM ................................

Chorus
Guitar 2
eb|-------------------------------------------------------------------------|
Bb|-------------------------------------------------------------------------|
Gb|--------------------------------777777776666666644444444-----------------|
Db|77777777666666664444444422222222777777777777777744444444-----------------|
Ab|777777777777777744444444222222225555555544444444222222225~-4~------------|
Eb|55555555444444442222222200000000------------------------------5~---------|

Guitar 1
eb|-------------------------------------------------------------------------|
Bb|-------------------------------------------------------------------------|
Gb|14141414141414141313131313131313111111111111111199999999-----------------|
Db|-------------------------------------------------------------------------|
Ab|121212121212121211111111111111119-9-9-9-9-9-9-9-77777777-----------------|
Eb|-------------------------------------------------------------------------|

eb|-------------------------------------------------------------------------|
Bb|-------------------------------------------------------------------------|
Gb|14141414141414141313131313131313999999991313131313131313-----------------|
Db|-------------------------------------------------------------------------|
Ab|12121212121212121111111111111111777777771111111111111111-----------------|
Eb|-------------------------------------------------------------------------|

Guitar 1
eb|-------------------------------------------------------------------------|
Bb|-------------------------------------------------------------------------|
Gb|---------------------------------777777776666666644444444----------------|
Db|777777772222222244444444---------77777777777777774444444422222222--------|
Ab|777777772222222244444444---------55555555444444442222222222222222--------|
Eb|5555555500000000222222222~-4~-5~-------------------------00000000--------|
Guitar 1
eb|-------------------------------------------------------------------------|
Bb|-------------------------------------------------------------------------|
Gb|1414141414141414161616161616161618181818181818181616161616161616---------|
Db|-------------------------------------------------------------------------|
Ab|1212121212121212141414141414141416161616161616161414141414141414---------|
Eb|-------------------------------------------------------------------------|

eb|-------------------------------------------------------------------------|
Bb|-------------------------------------------------------------------------|
Gb|14141414141414141313131313131313999999991414141414141414-----------------|
Db|-------------------------------------------------------------------------|
Ab|12121212121212121111111111111111777777771212121212121212-----------------|
Eb|-------------------------------------------------------------------------|

Guitar 2
eb|-------------------------------------------------------------------------|
Bb|-------------------------------------------------------------------------|
Gb|-------------------------------------------------------------------------|
Db|2222222222222222---------------------------------------------------------|
Ab|2222222222222222---------------------------------------------------------|
Eb|0000000000000000---------------------------------------------------------|

Guitar 1
eb|-------------------------------------------------------------------------|
Bb|-------------------------------------------------------------------------|
Gb|--------666677779--------------------------------------------------------|
Db|99999999-----------------------------------------------------------------|
Ab|-------------------------------------------------------------------------|
Eb|-------------------------------------------------------------------------|

Guitar 2
eb|-------------------------------------------------------------------------|
Bb|-------------------------------------------------------------------------|
Gb|--------------------------------7777777777776666444444444444-------------|
Db|7777777777772222444444444444222277777777777777774444444444442222---------|
Ab|7777777777772222444444444444222255555555555544442222222222222222---------|
Eb|55555555555500002222222222220000----------------------------0000---------|

Guitar 1
eb|-------------------------------------------------------------------------|
Bb|-------------------------------------------------------------------------|
Gb|999999999999777766666666-----------66699966666669999999999999999---------|
Db|------------------------99999999999--------------------------------------|
Ab|-------------------------------------------------------------------------|
Eb|-------------------------------------------------------------------------|
Guitar 2
eb|-------------------------------------------------------------------------|
Bb|-------------------------------------------------------------------------|
Gb|--------------------------------777777776666666644444444-----------------|
Db|7777777722222222444444442222222277777777777777774444444422222222---------|
Ab|7777777722222222444444442222222255555555444444442222222222222222---------|
Eb|55555555000000002222222200000000------------------------00000000---------|
Guitar 1
eb|-------------------------------------------------------------------------|
Bb|-------------------------------------------------------------------------|
Gb|1414141414141414141414141416161614141414141414141414141414131313---------|
Db|-------------------------------------------------------------------------|
Ab|1212121212121212121212121214141412121212121212121212121212111111---------|
Eb|-------------------------------------------------------------------------|

eb|-------------------------------------------------------------------------|
Bb|-------------------------------------------------------------------------|
Gb|14141414141414141414141414161616141414141414141499999999-----------------|
Db|-------------------------------------------------------------------------|
Ab|12121212121212121212121212141414121212121212121277777777-----------------|
Eb|-------------------------------------------------------------------------|

End on

eb|-------------------------------------------------------------------------|
Bb|-------------------------------------------------------------------------|
Gb|-------------------------------------------------------------------------|
Db|7------------------------------------------------------------------------|
Ab|7------------------------------------------------------------------------|
Eb|5------------------------------------------------------------------------|

eb|---------------------------------------------------------------------------|
Bb|---------------------------------------------------------------------------|
Gb|14-------------------------------------------------------------------------|
Db|---------------------------------------------------------------------------|
Ab|12-------------------------------------------------------------------------|
Eb|---------------------------------------------------------------------------|

************************************

| /   slide up
| \   slide down
| h   hammer-on
| p   pull-off
| ~   vibrato
| +   harmonic
| x   Mute note
| b   Bend
| pb  Pre-bend
| br  Bend release
| pbr Pre-bend release
| brb Bend release bend

************************************
comments
We did not receive enough feedback on this tab! Please rate:
print report bad tab
1 2 3 4 5
1 comment total.
0 reply
bmo12334 wrote on July 30 2014, 09:40 am

Lack of accuracy.

I want to post or [tab]
guest
You may want to rate the tab now too:
select rating
Please do not post tabs as comments. Select "correction" instead!