Oops, an error
Loading. Please wait.

Astro Zombies Tab

ver2
ver2

Intro

Whole song

More versions @911Tabs.com
4,085 views 9 this week
8 commentsread comments
1 2 3 4 5
excellent!
x 4
Autoscroll
+/-
esc
set tempo
stop
Contributor
Difficulty
WARNING: You are trying to view
                                    content from Ultimate-Guitar.com
                                    in an unauthorized application,
                                    which is prohibited.

                                    Please use an official Ultimate
                                    Guitar Tabs application for iPhone,
                                    iPad or Android to access legitimate
                                    chords, guitar, bass, and drum tabs
                                    from Ultimate-Guitar.com database.

                                    Type "ultimate guitar tabs" in Apple
                                    App Store's or Android Market's
                                    search to find the application.
Tabbed By Chemical_High32

Artist:	My Chemical Romance
Song:	Astro Zombies
Album:	Tony Hawk's American Wasteland
Label:	?
Year:	2005

(Originally performed by The Misfits)

Key:
|:| h  - hammer on
|:| p  - pull off
|:| b  - bend
|:| /  - slide
|:| <> - natural harmonic
|:| [] - artificial harmonic
|:| ~  - let ring
|:| x  - mute string (ex. [5 x 7 x x x])
|:| .  - palm mute
|:| () - ghost note  (ex. 5~ (5) - play '5' once & let ring)

Tuning - Standard(EADGBe)

Tone:
[1] - Distortion
[2] - Distortion

------------------------------|-----------|------------------------------
------------------------------|---Intro---|------------------------------
------------------------------|-----------|------------------------------

[1]
e|:|------------------|
B|:|------------------|
G|:|------------------|
D|:|-<7>--------------|
A|:|-<5>--------------|
E|:|------------------|
 |    ^volume swells
[2]         V
e|:|--------17~-------|
B|:|------------------|
G|:|--------14~-------|
D|:|------------------|
A|:|------------------|
E|:|------------------|


[1]
e|:|-------------------------------------------------|
B|:|-------------------------------------------------|
G|:|-5-4--(4)----------------------------------------|
D|:|-5-5--(5)-7-5--(5)--3--3--3-3-3-3--5--5--5-5-5-5-|
A|:|-3-2--(2)-7-5--(5)--3--3--3-3-3-3--5--5--5-5-5-5-|
E|:|----------5-3--(3)--1--1--1-1-1-1--3--3--3-3-3-3-|
 |
[1]
e|:|-------------------------------------------------|
B|:|-------------------------------------------------|
G|:|-5-4--(4)----------------------------------------|
D|:|-5-5--(5)-7-5--(5)--3--3--3-3-3-3--5--5--5-5-5-5-|
A|:|-3-2--(2)-7-5--(5)--3--3--3-3-3-3--5--5--5-5-5-5-|
E|:|----------5-3--(3)--1--1--1-1-1-1--3--3--3-3-3-3-|


------------------------------|--------------|------------------------------
------------------------------|---PreVerse---|------------------------------
------------------------------|--------------|------------------------------

[1]
e|:|------------------------------------------------------------|
B|:|------------------------------------------------------------|
G|:|-5--5--5--5--1212121212121212-------------------------------|
D|:|-5--5--5--5--x-x-x-x-x-x-x-x--3--3--3-3-3-3--5--5--5-5-5-5--|
A|:|-3--3--3--3--1010101010101010-3--3--3-3-3-3--5--5--5-5-5-5--|
E|:|------------------------------1--1--1-1-1-1--3--3--3-3-3-3--|
 |
[2]
e|:|------------------------------------------------------------|
B|:|------------------------------------------------------------|
G|:|-5--5--5--5-------------------------------------------------|
D|:|-5--5--5--5-------------------3--3--3-3-3-3--5--5--5-5-5-5--|
A|:|-3--3--3--3-5-5-5-5-5-5-5-5---3--3--3-3-3-3--5--5--5-5-5-5--|
E|:|------------3-3-3-3-3-3-3-3---1--1--1-1-1-1--3--3--3-3-3-3--|
 pm             . . . . . . . .

[1]
e|:|------------------------------------------------------------|
B|:|------------------------------------------------------------|
G|:|-5--5--5--5--10-1010-10-1010--------------------------------|
D|:|-5--5--5--5--x--x-x--x--x-x---3--3--3-3-3-3--5--5--5-5-5-5--|
A|:|-3--3--3--3--8--8-8--8--8-8---3--3--3-3-3-3--5--5--5-5-5-5--|
E|:|------------------------------1--1--1-1-1-1--3--3--3-3-3-3--|
 |
[2]
e|:|------------------------------------------------------------|
B|:|------------------------------------------------------------|
G|:|-5--5--5--5-------------------------------------------------|
D|:|-5--5--5--5-------------------3--3--3-3-3-3--5--5--5-5-5-5--|
A|:|-3--3--3--3--3--3-3--3--3-3---3--3--3-3-3-3--5--5--5-5-5-5--|
E|:|-------------1--1-1--1--1-1-0-1--1--1-1-1-1--3--3--3-3-3-3--|
 pm              .  . .  .  . .



------------------------------|-----------|------------------------------
------------------------------|---Verse---|------------------------------
------------------------------|-----------|------------------------------

[1]
e|:|---------0---------|
B|:|---------x---------|
G|:|-5-------9--10-12--|
D|:|-5---7---x--x--x---|
A|:|-3---7---7--8--10--|
E|:|-----5---0---------|
 |
[2]
e|:|-------------------|
B|:|-------------------|
G|:|-9~-(9)--9--10-12--|
D|:|---------x--x--x---|
A|:|-7~-(7)--7--8--10--|
E|:|-------------------|

[1]
e|:|-----------------0-----------|
B|:|-----------------x-----------|
G|:|-5---------------9--10-12----|
D|:|-5------7--------x--x--x-----|
A|:|-3------7--------7--8--10----|
E|:|--------5--------0-----------|
 |
[2]
e|:|-----------------------------|
B|:|-----------------------------|
G|:|-9-10p9-9--------9--10-12----|
D|:|-----------10p7--x--x--x-----|
A|:|-7------7--------7--8--10----|
E|:|-----------------------------|


------------------------------|---------------|------------------------------
------------------------------|---PreChorus---|------------------------------
------------------------------|---------------|------------------------------

[Play x2]

[1]
e|:|-------------------------------------|
B|:|-------------------------------------|
G|:|-5-5-5-5-5-5-5-5---------------------|
D|:|-5-5-5-5-5-5-5-5--7-7-7-7-7-7-7-7----|
A|:|-3-3-3-3-3-3-3-3--7-7-7-7-7-7-7-7----|
E|:|------------------5-5-5-5-5-5-5-5----|
 |
[2]
e|:|-------------------------------------|
B|:|-------------------------------------|
G|:|-5-5-5-5-5-5-5-5---------------------|
D|:|-5-5-5-5-5-5-5-5--7-7-7-7-7-7-7-7----|
A|:|-3-3-3-3-3-3-3-3--7-7-7-7-7-7-7-7----|
E|:|------------------5-5-5-5-5-5-5-5----|


[1]					 |
e|:|-------------------------------------|-------------------|
B|:|-------------------------------------|-------------------|
G|:|-7-7-7-7-7-7-7-7---------------------|-------------------| 
D|:|-7-7-7-7-7-7-7-7--5-5-5-5-5-5-5-5----|-\\\\\\\\\\\\\\----|
A|:|-5-5-5-5-5-5-5-5--5-5-5-5-5-5-5-5----|-\\Pickscrape\\----|
E|:|------------------3-3-3-3-3-3-3-3----|-\\\\\\\\\\\\\\----|
 |
[2]					 |play 2nd time
e|:|-------------------------------------|------------|
B|:|-------------------------------------|-<4>--<4>---|
G|:|-7-7-7-7-7-7-7-7---------------------|------------|
D|:|-7-7-7-7-7-7-7-7--5-5-5-5-5-5-5-5----|------------|
A|:|-5-5-5-5-5-5-5-5--5-5-5-5-5-5-5-5----|------------|
E|:|------------------3-3-3-3-3-3-3-3----|------------|



------------------------------|------------|------------------------------
------------------------------|---Chorus---|------------------------------
------------------------------|------------|------------------------------

[1]
e|:|------------------------------------------------------------|
B|:|------------------------------------------------------------|
G|:|-5--5--5--5--1212121212121212-------------------------------|
D|:|-5--5--5--5--x-x-x-x-x-x-x-x--3--3--3-3-3-3--5--5--5-5-5-5--|
A|:|-3--3--3--3--1010101010101010-3--3--3-3-3-3--5--5--5-5-5-5--|
E|:|------------------------------1--1--1-1-1-1--3--3--3-3-3-3--|
 |
[2]
e|:|------------------------------------------------------------|
B|:|------------------------------------------------------------|
G|:|-5--5--5--5-------------------------------------------------|
D|:|-5--5--5--5-------------------3--3--3-3-3-3--5--5--5-5-5-5--|
A|:|-3--3--3--3-5-5-5-5-5-5-5-5---3--3--3-3-3-3--5--5--5-5-5-5--|
E|:|------------3-3-3-3-3-3-3-3---1--1--1-1-1-1--3--3--3-3-3-3--|
 pm             . . . . . . . .

[1]
e|:|------------------------------------------------------------|
B|:|------------------------------------------------------------|
G|:|-5--5--5--5--10-1010-10-1010--------------------------------|
D|:|-5--5--5--5--x--x-x--x--x-x---3--3--3-3-3-3--5--5--5-5-5-5--|
A|:|-3--3--3--3--8--8-8--8--8-8---3--3--3-3-3-3--5--5--5-5-5-5--|
E|:|------------------------------1--1--1-1-1-1--3--3--3-3-3-3--|
 |
[2]
e|:|------------------------------------------------------------|
B|:|------------------------------------------------------------|
G|:|-5--5--5--5-------------------------------------------------|
D|:|-5--5--5--5-------------------3--3--3-3-3-3--5--5--5-5-5-5--|
A|:|-3--3--3--3--3--3-3--3--3-3---3--3--3-3-3-3--5--5--5-5-5-5--|
E|:|-------------1--1-1--1--1-1-0-1--1--1-1-1-1--3--3--3-3-3-3--|
 pm              .  . .  .  . .



------------------------------|-----------|------------------------------
------------------------------|---Verse---|------------------------------
------------------------------|-----------|------------------------------

[1]
e|:|-------------------------------------------------------------------|
B|:|-------------------------------------------------------------------|
G|:|-------------------------------------------------------------------|
D|:|-5-5-5-5-5-5-5-5-5-5-5-5-5-5-5-5-----------------------------------|
A|:|-3-3-3-3-3-3-3-3-3-3-3-3-3-3-3-3-7-7-7-7-7-7-7-7-7-7-7-7-7-7-7-7---|
E|:|---------------------------------5-5-5-5-5-5-5-5-5-5-5-5-5-5-5-5---|
 |pm . . . . . . . . . . . . . . . . . . . . . . . . . . . . . . . .
[2]
e|:|-------------------------------------------------------------------|
B|:|-------------------------------------------------------------------|
G|:|-------------------------------------------------------------------|
D|:|-5-5-5-5-5-5-5-5-5-5-5-5-5-5-5-5-----------------------------------|
A|:|-3-3-3-3-3-3-3-3-3-3-3-3-3-3-3-3-7-7-7-7-7-7-7-7-7-7-7-7-7-7-7-7---|
E|:|---------------------------------5-5-5-5-5-5-5-5-5-5-5-5-5-5-5-5---|
  pm . . . . . . . . . . . . . . . . . . . . . . . . . . . . . . . .


[1]
e|:|--------------------------------------------------------------------|
B|:|--------------------------------------------------------------------|
G|:|--------------------------------------------------------------------|
D|:|--------------------------------------------------------------------|
A|:|-2-2-2-2-2-2-2-2-2-2-2-2-2-2-2-2-3-3-3-3-3-3-3-3-5-5-5-5-5-5-5-5----|
E|:|-0-0-0-0-0-0-0-0-0-0-0-0-0-0-0-0-1-1-1-1-1-1-1-1-3-3-3-3-3-3-3-3----|
 |pm . . . . . . . . . . . . . . . . . . . . . . . . . . . . . . . .
[2]
e|:|--------------------------------------------------------------------|
B|:|--------------------------------------------------------------------|
G|:|------------------------------------10---10-----12------12----------|
D|:|------------------------------------x----x------x-------x-----------|
A|:|-2-2-2-2-2-2-2-2-2-2-2-2-2-2-2-2-88-8-88-8-1010-10-1010-10----------|
E|:|-0-0-0-0-0-0-0-0-0-0-0-0-0-0-0-0------------------------------------|
pm   . . . . . . . . . . . . . . . . ..   ..   . .     . .




[1]
e|:|--------------------------------------------------------------------|
B|:|--------------------------------------------------------------------|
G|:|--------------------------------------------------------------------|
D|:|-5-5-5-5-5-5-5-5-5-5-5-5-5-5-5-5------------------------------------|
A|:|-3-3-3-3-3-3-3-3-3-3-3-3-3-3-3-3--7-7-7-7-7-7-7-7-7-7-7-7-7-7-7-7---|
E|:|----------------------------------5-5-5-5-5-5-5-5-5-5-5-5-5-5-5-5---|
 |pm . . . . . . . . . . . . . . . .  . . . . . . . . . . . . . . . . 
[2](Compressor On)
e|:|--------------------------------------------------------------------|
B|:|----------------------------------------<4>-------------------------|
G|:|--------------------------------------------------------------------|
D|:|--------------------------------------------------------------------|
A|:|--3~------------------------------5~------------8~-------10~--------|
E|:|--------------------------------------------------------------------|



[1]
e|:|-----------------------------------------------------------------------------|
B|:|-----------------------------------------------------------------------------|
G|:|-----------------------------------------------------------------------------|
D|:|-----------------------------------------------------------------5-5\--------|
A|:|-2-2-2-2-2-2-2-2-2-2-2-2-2-2-2-2-3-3-3-3-3-3-3-3-5-5-5-5-5-5-5-5-5-5\--------|
E|:|-0-0-0-0-0-0-0-0-0-0-0-0-0-0-0-2-1-1-1-1-1-1-1-1-3-3-3-3-3-3-3-3-3-3\--------|
 |pm . . . . . . . . . . . . . . . . . . . . . . . . . . . . . . . .
[2]
e|:|-----------------------------------------------------------------------------|
B|:|-----------------------------------------------------------------------------|
G|:|-----------------------------------------------------------------12-12\------|
D|:|-----------------------------------------------------------------x--x--------|
A|:|-(10~)--------(Compressor Off)--------------(10)-----------------10-10\------|
E|:|-----------------------------------------------------------------------------|



------------------------------|---------------|------------------------------
------------------------------|---PreChorus---|------------------------------
------------------------------|---------------|------------------------------

[Play x2]

[1]
e|:|-------------------------------------|
B|:|-------------------------------------|
G|:|-5-5-5-5-5-5-5-5---------------------|
D|:|-5-5-5-5-5-5-5-5--7-7-7-7-7-7-7-7----|
A|:|-3-3-3-3-3-3-3-3--7-7-7-7-7-7-7-7----|
E|:|------------------5-5-5-5-5-5-5-5----|
 |
[2]
e|:|-------------------------------------|
B|:|-------------------------------------|
G|:|-5-5-5-5-5-5-5-5---------------------|
D|:|-5-5-5-5-5-5-5-5--7-7-7-7-7-7-7-7----|
A|:|-3-3-3-3-3-3-3-3--7-7-7-7-7-7-7-7----|
E|:|------------------5-5-5-5-5-5-5-5----|


[1]
e|:|-------------------------------------|
B|:|-------------------------------------|
G|:|-7-7-7-7-7-7-7-7---------------------| 
D|:|-7-7-7-7-7-7-7-7--5-5-5-5-5-5-5-5----|
A|:|-5-5-5-5-5-5-5-5--5-5-5-5-5-5-5-5----|
E|:|------------------3-3-3-3-3-3-3-3----|
 |
[2]					              |Play 2nd time
e|:|-------------------------------------|------------|------------------|
B|:|-------------------------------------|-x-x-x-x----|------------------|
G|:|-7-7-7-7-7-7-7-7---------------------|-x-x-x-x----|------------------|
D|:|-7-7-7-7-7-7-7-7--5-5-5-5-5-5-5-5----|-x-x-x-x----|-//////////////---|
A|:|-5-5-5-5-5-5-5-5--5-5-5-5-5-5-5-5----|-x-x-x-x----|-//Pickscrape//---|
E|:|------------------3-3-3-3-3-3-3-3----|------------|-//////////////---|


------------------------------|------------|------------------------------
------------------------------|---Chorus---|------------------------------
------------------------------|------------|------------------------------

[Play x2]

[1]
e|:|------------------------------------------------------------------------|
B|:|------------------------------------------------------------------------|
G|:|-5-5-5-5-5-5-5-5-1212121212121212---------------------------------------|
D|:|-5-5-5-5-5-5-5-5-x-x-x-x-x-x-x-x---3--3--3-3-3-3--5--5--5-5-5-5---------|
A|:|-3-3-3-3-3-3-3-3-1010101010101010--3--3--3-3-3-3--5--5--5-5-5-5---------|
E|:|-----------------------------------1--1--1-1-1-1--3--3--3-3-3-3---------|
 |
[2]
e|:|------------------------------------------------------------------------|
B|:|-13131313131313131313131313131313--1818181818181818-1515151515151515----|
G|:|-x-x-x-x-x-x-x-x-x-x-x-x-x-x-x-x---x-x-x-x-x-x-x-x--x-x-x-x-x-x-x-x-----|
D|:|-11111111111111111111111111111111--1616161616161616-1313131313131313----|
A|:|------------------------------------------------------------------------|
E|:|------------------------------------------------------------------------|


[1]			                              |1.               |2.
e|:|---------------------------------------------------------------------|-------------|
B|:|---------------------------------------------------------------------|-------------|
G|:|-5-5-5-5-5-5-5-5-10-1010-10-1010-------------------------------------|-------------|
D|:|-5-5-5-5-5-5-5-5-x--x-x--x--x-x--3--3--3-3-3-3--5--5--5-5-5-5--------|-5~----------|
A|:|-3-3-3-3-3-3-3-3-8--8-8--8--8-8--3--3--3-3-3-3--5--5--5-5-5-5--------|-5~----------|
E|:|---------------------------------1--1--1-1-1-1--3--3--3-3-3-3--------|-3~----------|
 |
[2]			                               |1.               |2.
e|:|---------------------------------------------------------------------|-------------|
B|:|-13131313131313131313131313131313------------------------------------|-------------|
G|:|-x-x-x-x-x-x-x-x-x-x-x-x-x-x-x-x--1010101010101010-1212121212121212--|-12~---------|
D|:|-11111111111111111111111111111111-x-x-x-x-x-x-x-x--x-x-x-x-x-x-x-x---|-x-----------|
A|:|----------------------------------8-8-8-8-8-8-8-8--1010101010101010--|-10~---------|
E|:|---------------------------------------------------------------------|-------------|



------------------------------|-----------|------------------------------
------------------------------|---Outro---|------------------------------
------------------------------|-----------|------------------------------

[1]
e|:|----------------------------------------|-----------------------------------|
B|:|----------------------------------------|-----------------------------------|
G|:|-5-4-(4)--------------------------------|-----------------------------------|
D|:|-5-5-(5)-7-5-(5)------------------------|--3--3--3-3-3-3--5--5-5--5-5-------|
A|:|-3-2-(2)-7-5-(5)------------------------|--3--3--3-3-3-3--5--5-5--5-5-------|
E|:|---------5-3-(3)------------------------|--1--1--1-1-1-1--3--3-3--3-3-------|
 |
[2]
e|:|----------------------------------------------------------------------------|
B|:|----------------------------------------------------------------------------|
G|:|-15b(17)-17-17-17-17-15b(17)-17-17-17-17---12-12-12121212-12--1212-1212-----|
D|:|----------------------------------------------------------------------------|
A|:|----------------------------------------------------------------------------|
E|:|----------------------------------------------------------------------------|


[1]      
e|:|----------------------------|------------------------------------------------------------|
B|:|----------------------------|------------------------------------------------------------|
G|:|-5-4-(4)--------------------|-------------------------------------5~---------------------|
D|:|-5-5-(5)-7-5-(5)------------|--3--3--3--3--3--3--5--5--5--5--5--5-5~---------------------|
A|:|-3-2-(2)-7-5-(5)------------|--3--3--3--3--3--3--5--5--5--5--5--5-3~---------------------|
E|:|---------5-3-(3)------------|--1--1--1--1--1--1--3--3--3--3--3--3------------------------|
 |
[2]
e|:|-----------------------------------------------------------------------------------------|
B|:|-----------------------------------------------------------------------------------------|
G|:|-15b(17)-17-17-17-17-15b(17)-17-17-17-17--10-10-10-10-10-10-12-12-12-12-12-12-15b(17)~---|
D|:|-----------------------------------------------------------------------------------------|
A|:|-----------------------------------------------------------------------------------------|
E|:|-----------------------------------------------------------------------------------------|



------------------------------|---------|------------------------------
------------------------------|---End---|------------------------------
------------------------------|---------|------------------------------

[1]
e|:|-------------------|
B|:|-------------------|
G|:|-------------------|
D|:|-\\\\\\\\\\\\\\----|
A|:|-\\Pickscrape\\----|
E|:|-\\\\\\\\\\\\\\----|
 |
[2]
e|:|-------------------|
B|:|-<4>---------------|
G|:|-----x\------------|
D|:|-----x\------------|
A|:|-----x\------------|
E|:|-------------------|
comments
print report bad tab
8 comments total. Showing first comments.
0 reply
cospet wrote on February 19 2007, 07:23 am

i think its perfect. 5 stars good job

0 reply
mister bass guy wrote on May 1 2007, 08:11 pm

where do u get this song?

0 reply
LoveMCR wrote on May 6 2007, 09:23 pm

It's good, but it's definetly not novice.
5 stars.

I want to post or [tab]
guest
You may want to rate the tab now too:
select rating
Please do not post tabs as comments. Select "correction" instead!