Oops, an error
Loading. Please wait.

Boy Division Tab

ver2
ver2

Whole song

Interactive

More versions @911Tabs.com
1,665 views 3 this week
2 commentsread comments
1 2 3 4 5
excellent!
x 5
Autoscroll
+/-
esc
set tempo
stop
Tuning
D# G# C# F# A# D#
Hey! There's an official Ultimate Guitar app which is ideal
for learning songs when you're away from computer. Get the app
WARNING: You are trying to view
                                    content from Ultimate-Guitar.com
                                    in an unauthorized application,
                                    which is prohibited.

                                    Please use an official Ultimate
                                    Guitar Tabs application for iPhone,
                                    iPad or Android to access legitimate
                                    chords, guitar, bass, and drum tabs
                                    from Ultimate-Guitar.com database.

                                    Type "ultimate guitar tabs" in Apple
                                    App Store's or Android Market's
                                    search to find the application.
This song is played in Eb standard tuning (Eb Ab Db Gb Bb Eb), NOT standard E like 
other tabs that I've seen for this song.
You could adjust this to standard tuning, but some low E's would be missing on low 
E5 chords (won't sound as good)

Two guitars are shown for most of the song, and the timing of each note.

PLEASE RATE AND LEAVE COMMENTS!

ENJOY!

--------
Verse 1
--------

  Two guitars:

    W         E E E E E E E E   E E E E E E E E   E E E E E E E E   E E E E E E E E
  [---------|-----------------|-----------------|-----------------|-----------------]
  [---------|-----------------|-----------------|-----------------|-----------------]
  [---------|-9-9-9-9-9-9-9-9-|-5-5-5-5-5-5-5-5-|-----------------|-4-4-4-4-4-4-4-4-]
  [---------|-9-9-9-9-9-9-9-9-|-5-5-5-5-5-5-5-5-|-5-5-5-5-5-5-5-5-|-4-4-4-4-4-4-4-4-]
  [---------|-7-7-7-7-7-7-7-7-|-3-3-3-3-3-3-3-3-|-5-5-5-5-5-5-5-5-|-2-2-2-2-2-2-2-2-]
  [---------|-----------------|-----------------|-3-3-3-3-3-3-3-3-|-----------------]



    E E E E E E E E   E E E E E E E E   E E E E E E E E   E E E E E E E E
  [-----------------|-----------------|-----------------|-----------------]
  [-----------------|-----------------|-----------------|-----------------]
1 [-9-9-9-9-9-9-9-9-|-5-5-5-5-5-5-5-5-|-----------------|-4-4-4-4-4-4-4-4-]
  [-9-9-9-9-9-9-9-9-|-5-5-5-5-5-5-5-5-|-5-5-5-5-5-5-5-5-|-4-4-4-4-4-4-4-4-]
  [-7-7-7-7-7-7-7-7-|-3-3-3-3-3-3-3-3-|-5-5-5-5-5-5-5-5-|-2-2-2-2-2-2-2-2-]
  [-----------------|-----------------|-3-3-3-3-3-3-3-3-|-----------------]
  |
  | E E E E E E E E   E E E E E E E E   E E E E E E E E   E E E E Q   Q
  [-----------------|-----------------|-----------------|-----------------]
  [-----------------|-----------------|-----------------|-----------------]
2 [-9-9-9-9-9-9-9-9-|-5-5-5-5-5-5-5-5-|-----------------|-----------------]
  [-9-9-9-9-9-9-9-9-|-5-5-5-5-5-5-5-5-|-5-5-5-5-5-5-5-5-|-9-b-r-b-r-------]
  [-7-7-7-7-7-7-7-7-|-3-3-3-3-3-3-3-3-|-5-5-5-5-5-5-5-5-|-------------0---]
  [-----------------|-----------------|-3-3-3-3-3-3-3-3-|-----------------]



    Rhythm figure 1  - - - -
     Q     E  E  E  E  E  E    Q     E  E  E  E  E  E    Q     E  E  E  E  E  E    Q     E  E  H
  [--------------------------|-------------------------|-------------------------|---------------------]
  [o-9-----9--9--9--9--9--9--|-5-----5--5--5--5--5--5--|-5-----5--5--5--5--5--5--|-4-----4--4--4------o]
1 [--9-----9--9--9--9--9--9--|-5-----5--5--5--5--5--5--|-4-----4--4--4--4--4--4--|-4-----4--4--4-------]
  [--9-----9--9--9--9--9--9--|-5-----5--5--5--5--5--5--|-4-----4--4--4--4--4--4--|-4-----4--4--4-------]
  [o-7-----7--7--7--7--7--7--|-3-----3--3--3--3--3--3--|-2-----2--2--2--2--2--2--|-2-----2--2--2------o]
  [--------------------------|-------------------------|-------------------------|---------------------]
  |
  | Rhythm figure 1A - - - -
  |  E  E  E  E  E  E  E  E    E  E  E  E  E  E  E  E    E  E  E  E  E  E  E  E    E  E  E  E  H
  [--------------------------|-------------------------|-------------------------|---------------------]
  [o-12-0--12-11-10-0--10-11-|-12-0--12-11-10-0--10-11-|-12-0--12-11-10-0--10-11-|-12-0--12-11-10-----o]
2 [--------------------------|-------------------------|-------------------------|---------------------]
  [--------------------------|-------------------------|-------------------------|---------------------]
  [o-------------------------|-------------------------|-------------------------|--------------------o]
  [--------------------------|-------------------------|-------------------------|---------------------]
                                                                                          ~~~~~~~~~~~


    E E E E E E E E   E E E E E E E E   Q   Q   Q   Q     Q   Q   Q   Q
  [-----------------|-----------------|-----------------|-----------------]
  [-----------------|-----------------|-----------------|-----------------]
1 [-----------------|-----------------|-4---4---4---4---|-4---4---4---4---]
  [-5-5-5-5-5-5-5-5-|-5-5-5-5-5-5-5-5-|-5---5---5---5---|-5---5---5---5---]
  [-3-3-3-3-3-3-3-3-|-3-3-3-3-3-3-3-3-|-5---5---5---5---|-5---5---5---5---]
  [-----------------|-----------------|-3---3---3---3---|-3---3---3---3---]
  | PM - - - - - - - - - - - - - - - |
  |
  | Q   H      +E E   Q.    E+H         Q   Q   Q   Q     Q   Q   Q   Q
  [-----------------|-----------------|-----------------|-----------------]
  [-----------------|-----------------|-----------------|-----------------]
2 [-----0-----------|-------0---------|-4---4---4---4---|-4---4---4---4---]
  [---------------0-|h2---------------|-5---5---5---5---|-5---5---5---5---]
  [-3---------------|-----------------|-5---5---5---5---|-5---5---5---5---]
  [-----------------|-----------------|-3---3---3---3---|-3---3---3---3---]



                               end Rhythm figure 1  - - -|
    E E H.             E E E E E E E E   E E E E E E E E   E E E E E E E E
  [-----------------|------------------|-----------------|-----------------]
  [-----1-----------|----1-1-1-1-1-1-1-|-3-3-3-3-3-3-3-3-|-4-4-4-4-4-4-4-4-]
1 [-----------------|----0-0-0-0-0-0-0-|-2-2-2-2-2-2-2-2-|-2-2-2-2-2-2-2-2-]
  [---2-------------|--2---------------|-0-0-0-0-0-0-0-0-|-1-1-1-1-1-1-1-1-]
  [-3---------------|------------------|-----------------|-----------------]
  [-----------------|------------------|-----------------|-----------------]
  |
  |                            end Rhythm figure 1A - - -|
  | Q   H.           a W                 E E E E E E E E   E E E E E E E E
  [-----------------|------------------|-----------------|-----------------]
  [-----------------|------------------|-----------------|-----------------]
2 [-----0-----------|------------------|-----------------|-----------------]
  [-----------------|0h2---------------|-7-7-7-7-7-7-7-7-|-7-7-7-7-7-7-7-7-]
  [-3---------------|------------------|-5-5-5-5-5-5-5-5-|-6-6-6-6-6-6-6-6-]
  [-----------------|------------------|-----------------|-----------------]


--------
Chorus
--------

    Q   Q   E E Q     E E Q   E E Q     Q   E E H         H       E E Q
  [-----------------|-----------------|-----------------|-----------------]
  [-----------------|-----------------|-----------------|-----------------]
1 [-4---4---4-4-4---|-4-4-4---4-4-4---|-4---------------|-----------------]
+ [-5---5---5-5-5---|-5-5-5---5-5-5---|-4---4-4-4-------|(4)--------------]
2 [-5---5---5-5-5---|-5-5-5---5-5-5---|-2---4-4-4-------|(4)--------------]
  [-3---3---3-3-3---|-3-3-3---3-3-3---|-----2-2-2-------|-2-------2-3-2---]



    Q   E E E E E E   E E E E E E E E   Q   E E E E E E   E E E E E E E E
  [-----------------|-----------------|-----------------|-----------------]
  [-----------------|-----------------|-----------------|-----------------]
1 [-9---9-9-9-9-9-9-|-9-9-9-9-9-9-9-9-|-5---5-5-5-5-5-5-|-5-5-5-5-5-5-5-5-]
+ [-9---9-9-9-9-9-9-|-9-9-9-9-9-9-9-9-|-5---5-5-5-5-5-5-|-5-5-5-5-5-5-5-5-]
2 [-7---7-7-7-7-7-7-|-7-7-7-7-7-7-7-7-|-3---3-3-3-3-3-3-|-3-3-3-3-3-3-3-3-]
  [-----------------|-----------------|-----------------|-----------------]



    Rhythm figure 2  - - - -
    E  E  E  E  E  E  E  E    E  E  E  E  E  E  Q       E  E  E  E  E  E  E  E    E  E  E  E  E  E  Q
  [----10-------12-------10-|-------12-------10-12----|----10-------12-------10-|----14-15-------10-12----]
  [-------------------------|-------------------------|-------------------------|-------------------------]
1 [-9-----9--9-----9--9-----|-9--9-----9--9-----------|-11----11-11----11-11----|-11-------11-11----------]
  [-------------------------|-------------------------|-------------------------|-------------------------]
  [-------------------------|-------------------------|-------------------------|-------------------------]
  [-------------------------|-------------------------|-------------------------|-------------------------]
  | PM    PM -|    PM -|      PM -|    PM -|    ~~~~~   PM    PM -|    PM -|      PM       PM -|    ~~~~~
  |
  | E  E  E  E  E  E  E  E    E  E  E  E  E  E  Q       E  E  E  E  E  E  E  E    E  E  E  E  E  E  Q
  [-------------------------|-------------------------|-------------------------|-------------------------]
  [-------------------------|-------------------------|-------------------------|-------------------------]
2 [-------------------------|-------------------------|-------------------------|-------------------------]
  [-2--2--2--2--2--2--2--2--|-2--2--2--2--2--2--2-----|-4--4--4--4--4--4--4--4--|-4--4--4--4--4--4--4-----]
  [-2--2--2--2--2--2--2--2--|-2--2--2--2--2--2--2-----|-5--5--5--5--5--5--5--5--|-5--5--5--5--5--5--5-----]
  [-0--0--0--0--0--0--0--0--|-0--0--0--0--0--0--0-----|-2--2--2--2--2--2--2--2--|-2--2--2--2--2--2--2-----]


                                                                                end Rhythm figure 2  - - -|
    E  E  E  E  E  E  E  E    E  E  E  E  E  E  Q       E  E  E  E  E  E  E  E    E  E  E  E  E  E  Q
  [----10-------12-------10-|-------12-------10-12----|----10-------12----------|----14-15----------12----]
  [-------------------------|-------------------------|-10----10-10----10-10-12-|-12-------12-12-15-------]
1 [-12----12-12----12-12----|-12-12----12-12----------|-------------------------|-------------------------]
  [-------------------------|-------------------------|-------------------------|-------------------------]
  [-------------------------|-------------------------|-------------------------|-------------------------]
  [-------------------------|-------------------------|-------------------------|-------------------------]
  | PM    PM -|    PM -|      PM -|    PM -|    ~~~~~   PM    PM -|    PM - - - - -|       PM -|    ~~~~~
  |
  | E  E  E  E  E  E  E  E    E  E  E  E  E  E  Q       E  E  E  E  E  E  Q       E  E  E  E  E  E  Q
  [-------------------------|-------------------------|-------------------------|-------------------------]
  [-------------------------|-------------------------|-------------------------|-------------------------]
2 [-5--5--5--5--5--5--5--5--|-5--5--5--5--5--5--5-----|-7--7--7--7--7--7--7-----|-8--8--8--8--8--8--8-----]
  [-5--5--5--5--5--5--5--5--|-5--5--5--5--5--5--5-----|-7--7--7--7--7--7--7-----|-7--7--7--7--7--7--7-----]
  [-3--3--3--3--3--3--3--3--|-3--3--3--3--3--3--3-----|-5--5--5--5--5--5--5-----|-6--6--6--6--6--6--6-----]
  [-------------------------|-------------------------|-------------------------|-------------------------]


------------
Post-Chorus
------------

    E E E E E E E E   E E E E E E E E   E E E E E E E E   E E E E E Q.
  [-----------------|-----------------|-----------------|-----------------]
  [-----------------|-----------------|-----------------|-----------------]
1 [-9-9---9-9-9-9-9-|-9-9-9-9-9b9b9b9-|-9-9-9-9-9-9-9-9-|-9-9-9-9-9-------]
  [-x-x---x-x-x-x-x-|-x-x-x-x-x-x-x-x-|-x-x-x-x-x-x-x-x-|-x-x-x-x-x-------]
  [-7-7---7-7-7-7-7-|-7-7-7-7-7b7b7b7-|-7-7-7-7-7-7-7-7-|-7-7-7-7-7-------]
  [-----------------|-----------------|-----------------|-----------------]
  |                           grad. -|
  |                           bend
  | E E E E E E E E   E E E E E E E E   E E E E E E E E   E E E E E Q.
  [-----------------|-----------------|-----------------|-----------------]
  [-----------------|-----------------|-----------------|-----------------]
2 [-----------------|-----------------|-----------------|-----------------]
  [-2-2-2-2-2-2-2-2-|-2-2-2-2-2-2-2-2-|-2-2-2-2-2-2-2-2-|-2-2-2-2-2-------]
  [-2-2-2-2-2-2-2-2-|-2-2-2-2-2-2-2-2-|-2-2-2-2-2-2-2-2-|-2-2-2-2-2-------]
  [-0-0-0-0-0-0-0-0-|-0-0-0-0-0-0-0-0-|-0-0-0-0-0-0-0-0-|-0-0-0-0-0-------]


--------
Verse 2
--------

    Q   E Q   E E E   Q   E Q   E E E   Q   E Q   E E E   Q   E Q   E E E
  [-----------------|-----------------|-----------------|-----------------]
  [-----------------|-----------------|-----------------|-----------------]
1 [-9---x-9---9-9-9-|-5---x-5---5-5---|-----------------|-4---x-4---4-4-7-]
  [-9---x-9---9-9-9-|-5---x-5---5-5---|-5---x-5---5-5---|-4---x-4---4-4-7-]
  [-7---x-7---7-7-7-|-3---x-3---3-3-0-|-5---x-5---5-5-0-|-2---x-2---2-2-5-]
  [-----------------|-----------------|-3---x-3---3-3---|-----------------]
  |
  | Q   E Q   E E E   Q   E Q   E E E   Q   E Q   E E E   Q   E Q   E E E
  [-----------------|-----------------|-----------------|-----------------]
  [-----------------|-----------------|-----------------|-----------------]
2 [-----------------|-----------------|-----------------|-----------------]
  [-9---x-9---9-9-9-|-5---x-5---5-5---|-----------------|-4---x-4---4-4-7-]
  [-7---x-7---7-7-7-|-3---x-3---3-3-0-|-5---x-5---5-5-0-|-2---x-2---2-2-5-]
  [-----------------|-----------------|-3---x-3---3-3---|-----------------]



    Q   E Q   E E E   Q   E Q   E E E   Q   E Q   E E E   Q   E Q   E E E
  [-----------------|-----------------|-----------------|-----------------]
  [-----------------|-----------------|-----------------|-----------------]
1 [-9---x-9---9-9-9-|-5---x-5---5-5---|-----------------|-4---x-4---4-4-7-]
  [-9---x-9---9-9-9-|-5---x-5---5-5---|-5---x-5---5-5---|-4---x-4---4-4-7-]
  [-7---x-7---7-7-7-|-3---x-3---3-3-0-|-5---x-5---5-5-0-|-2---x-2---2-2-5-]
  [-----------------|-----------------|-3---x-3---3-3---|-----------------]
  |
  | Q   E Q   E E E   Q   E Q   E E E   Q   E Q   E E E   E E E E Q   Q
  [-----------------|-----------------|-----------------|-----------------]
  [-----------------|-----------------|-----------------|-----------------]
2 [-----------------|-----------------|-----------------|-----------------]
  [-9---x-9---9-9-9-|-5---x-5---5-5---|-----------------|-9-b-r-b-r-------]
  [-7---x-7---7-7-7-|-3---x-3---3-3-0-|-5---x-5---5-5-0-|-------------0---]
  [-----------------|-----------------|-3---x-3---3-3---|-----------------]



Repeat Rhythm figures 1 & 1A, then end with:

    E E E E H
  [-----------------]
  [-4-4-4-4---------]
1 [-2-2-2-2---------]
  [-1-1-1-1---------]
  [-----------------]
  [-----------------]
  |
  | E E E E H
  [-----------------]
  [-----------------]
2 [-----------------]
  [-7-7-7-7---------]
  [-6-6-6-6---------]
  [-----------------]


Repeat Chorus


--------
Breakdown
--------

                                      x3
     E E E E E E E E   E E E E E E E E    E Q   E E E E E   E E E E Q   Q
  [------------------|------------------|-----------------|-----------------]
  [o-----------------|-----------------o|-----------------|-----------------]
1 [--9-9---9-9---9-9-|-9-9-9b9b9b9b9b9--|-9-9---9-9-9-9-9-|-9-9-9-9-9\------]
  [--x-x---x-x---x-x-|-x-x-x-x-x-x-x-x--|-x-x---x-x-x-x-x-|-x-x-x-x-x-------]
  [o-7-7---7-7---7-7-|-7-7-7b7b7b7b7b7-o|-7-7---7-7-7-7-7-|-7-7-7-7-7\------]
  [------------------|------------------|-----------------|-----------------]
  |                        grad. - - -|
  |                        bend
  |                                   x3
  |  W                 W                  H       E E E E   E E E E Q   Q
  [------------------|------------------|-----------------|-----------------]
  [o-----------------|-----------------o|-----------------|-----------------]
2 [--9---------------|-9----------------|-9-------9-9-9-9-|-9-9-9-9-9\------]
  [--9---------------|-7----------------|-9-------9-9-9-9-|-9-9-9-9-9\------]
  [o-7---------------|-7---------------o|-7-------7-7-7-7-|-7-7-7-7-7\------]
  [--0---------------|-0----------------|-0------(0)------|-----------------]


                                                          |--3--|
    E E E E Q   Q     E E E E Q   Q     E E E E Q   Q     Q  Q  Q  H
  [-----------------|-----------------|-----------------|-------------------]
  [-----------------|-----------------|-----------------|-------------------]
1 [-------------10--|-------------10--|-------------10--|-------------------]
+ [-2-2---2-2---10--|-2-2---2-2---10--|-2-2---2-2---10--|-6--5--4--3--------]
2 [-2-2---2-2---8---|-2-2---2-2---8---|-2-2---2-2---8---|-6--5--4--3--------]
  [-0-0---0-0-------|-0-0---0-0-------|-0-0---0-0-------|-4--3--2--1--------]



    E E E E Q   Q     E E E E Q   Q     E E E E E E E E   E E E E E E E E
  [-----------------|-----------------|-----------------|-----------------]
  [-----------------|-----------------|-----------------|-----------------]
1 [-------------10--|-------------10--|-7-7-7-7-7-7-7-7-|-7-7-7-7-7/9-9-9-]
+ [-2-2---2-2---10--|-2-2---2-2---10--|-7-7-7-7-7-7-7-7-|-7-7-7-7-x-x-x-x-]
2 [-2-2---2-2---8---|-2-2---2-2---8---|-5-5-5-5-5-5-5-5-|-5-5-5-5-5/7-7-7-]
  [-0-0---0-0-------|-0-0---0-0-------|-----------------|-----------------]


--------
Bridge
--------

    E E E E E E E E   E E E E E E E E   E  E  E  E  E  E  E  E    E  E  E  E  E  E  E  E
  [-----------------|-----------------|-------------------------|-------------------------]
  [-----------------|-----------------|-------------------------|-------------------------]
1 [-9-9-9-9-9---9-9-|-9-9-9---9-9-9---|-9--9--9--9--9-----9--9--|-9--9--9-----9--9--9-----]
  [-x-x-x-x-x---x-x-|-x-x-x---x-x-x---|-x--x--x--x--x-----x--x--|-x--x--x-----x--x--x-----]
  [-7-7-7-7-7---7-7-|-7-7-7---7-7-7---|-7--7--7--7--7-----7--7--|-7--7--7-----7--7--7-----]
  [-----------------|-----------------|-------------------------|-------------------------]
  |
  | E E E E E E E E   E E E E E E E E   E  E  E  E  E  E  E  E    E  E  E  E  E  E  Q
  [-----------------|-----------------|-------------------------|-------------------------]
  [-----------------|-----------------|-------------------------|-------------------------]
2 [-9-9-9-9-9---9-9-|-9-9-9---9-9-9---|-12-12-12-12-12----12-12-|-12-12-12----10/12-12\---]
  [-x-x-x-x-x---x-x-|-x-x-x---x-x-x---|-x--x--x--x--x-----x--x--|-x--x--x-----x--x--x-----]
  [-7-7-7-7-7---7-7-|-7-7-7---7-7-7---|-10-10-10-10-10----10-10-|-10-10-10----9-/10-10\---]
  [-----------------|-----------------|-------------------------|-------------------------]



    E  E  E  E  E  E  E  E    E  E  E  E  E  E  Q      E  E  E  E  Q     E  E    E  E  Q  H
  [-------------------------|------------------------|-------------------------|----------------------]
  [-------------------------|------------------------|-------------------------|----------------------]
1 [-9--9--9--9--9-----9--9--|-9--9--9-----9--9--9\---|/9--9--9--9--9\---/9--9--|-9--9--9\-------------]
  [-x--x--x--x--x-----x--x--|-x--x--x-----x--x--x----|-x--x--x--x--x-----x--x--|-x--x--x--------------]
  [-7--7--7--7--7-----7--7--|-7--7--7-----7--7--7\---|/7--7--7--7--7\---/7--7--|-7--7--7\-------------]
  [-------------------------|------------------------|-------------------------|----------------------]
  |
  | E  E  E  E  E  E  E  E    E  E  E  E  E  E  Q      E  E  E  E  Q     E  E    E  E  Q  H
  [-------------------------|------------------------|-------------------------|----------------------]
  [-------------------------|------------------------|-------------------------|----------------------]
2 [-12/14-14-14-14----12/14-|-14-14-14----12/14-14\--|/16-16-16-16-16\--/16-16-|-16-16-16\------------]
  [-x--x--x--x--x-----x--x--|-x--x--x-----x--x--x----|-x--x--x--x--x-----x--x--|-x--x--x--------------]
  [-10/12-12-12-12----10/12-|-12-12-12----10/12-12\--|/14-14-14-14-14\--/14-14-|-14-14-14\------------]
  [-------------------------|------------------------|-------------------------|----------------------]


--------
Chorus
--------

    Q   Q   E E Q     E E Q   E E Q     E E Q   E E Q     E E Q   E E Q
  [-----------------|-----------------|-----------------|-----------------]
  [-----------------|-----------------|-----------------|-----------------]
1 [-----------------|-----------------|-----------------|-----------------]
+ [-2---2---2-2-2---|-2-2-2---2-2-2---|-4-4-4---4-4-4---|-4-4-4---4-4-4---]
2 [-2---2---2-2-2---|-2-2-2---2-2-2---|-5-5-5---5-5-5---|-5-5-5---5-5-5---]
  [-0---0---0-0-0---|-0-0-0---0-0-0---|-2-2-2---2-2-2---|-2-2-2---2-2-2---]



    E E Q   E E Q     E E Q   E E Q     E E Q   E E Q     E E Q   E E Q
  [-----------------|-----------------|-----------------|-----------------]
  [-----------------|-----------------|-----------------|-----------------]
1 [-5-5-5---5-5-5---|-5-5-5---5-5-5---|-7-7-7---7-7-7---|-8-8-8---8-8-8---]
+ [-5-5-5---5-5-5---|-5-5-5---5-5-5---|-7-7-7---7-7-7---|-7-7-7---7-7-7---]
2 [-3-3-3---3-3-3---|-3-3-3---3-3-3---|-5-5-5---5-5-5---|-6-6-6---6-6-6---]
  [-----------------|-----------------|-----------------|-----------------]




 Guitar 1 plays Rhythm figure 2 (like first 2 choruses), while guitar 2 plays these 8 measures:

    E E E E E E E E   E E E E E E Q     E E E E E E E E   E E E E E E Q
  [-----------------|-----------------|-----------------|-----------------]
  [-----------------|-----------------|-----------------|-----------------]
2 [-----------------|-----------------|-4-4-4-4-4-4-4-4-|-4-4-4-4-4-4-4---]
  [-5-5-5-5-5-5-5-5-|-5-5-5-5-5-5-5---|-4-4-4-4-4-4-4-4-|-4-4-4-4-4-4-4---]
  [-5-5-5-5-5-5-5-5-|-5-5-5-5-5-5-5---|-2-2-2-2-2-2-2-2-|-2-2-2-2-2-2-2---]
  [-3-3-3-3-3-3-3-3-|-3-3-3-3-3-3-3---|-----------------|-----------------]


    E E E E E E E E   E E E E E E Q     E E E E E E Q     E E E E E E Q
  [-----------------|-----------------|-----------------|-----------------]
  [-----------------|-----------------|-----------------|-----------------]
2 [-5-5-5-5-5-5-5-5-|-5-5-5-5-5-5-5---|-7-7-7-7-7-7-7---|-8-8-8-8-8-8-8---]
  [-5-5-5-5-5-5-5-5-|-5-5-5-5-5-5-5---|-7-7-7-7-7-7-7---|-7-7-7-7-7-7-7---]
  [-3-3-3-3-3-3-3-3-|-3-3-3-3-3-3-3---|-5-5-5-5-5-5-5---|-6-6-6-6-6-6-6---]
  [-----------------|-----------------|-----------------|-----------------]


--------
Outro
--------

    E E E E E E E E   E E E E H         E E E E E E E E   E E E E H
  [-----------------|-----------------|-----------------|-----------------]
  [-----------------|-----------------|-----------------|-----------------]
1 [-9-9-9-9-9---9-9-|-9-9-9-----------|-9-9-9-9-9---9-9-|-9-9-9-----------]
  [-x-x-x-x-x---x-x-|-x-x-x-----------|-x-x-x-x-x---x-x-|-x-x-x-----------]
  [-7-7-7-7-7---7-7-|-7-7-7-----------|-7-7-7-7-7---7-7-|-7-7-7-----------]
  [-----------------|-----------------|-----------------|-----------------]
  |
  | W                +W                 W                +W
  [-----------------|-----------------|-----------------|-----------------]
  [-----------------|-----------------|-----------------|-----------------]
2 [-----------------|-----------------|-----------------|-----------------]
  [-2---------------|(2)--------------|-2---------------|(2)--------------]
  [-2---------------|(2)--------------|-2---------------|(2)--------------]
  [-0---------------|(0)--------------|-0---------------|(0)--------------]



    E  E  E  E  E  E  E  E    E  E  E  E  E  E  Q       E  E  E  E  Q     E  E    E  E  Q     E  E  E  E
  [-------------------------|-------------------------|-------------------------|-------------------------]
  [-------------------------|-------------------------|-------------------------|-------------------------]
1 [-9--9--9--9--9--9--9--9--|-9--9--9--9--9--9--9\----|/9--9--9--9--9\---/9--9--|-9--9--9\---/9--9--9--9--]
  [-x--x--x--x--x--x--x--x--|-x--x--x--x--x--x--x-----|-x--x--x--x--x-----x--x--|-x--x--x-----x--x--x--x--]
  [-7--7--7--7--7--7--7--7--|-7--7--7--7--7--7--7\----|/7--7--7--7--7\---/7--7--|-7--7--7\---/7--7--7--7--]
  [-------------------------|-------------------------|-------------------------|-------------------------]
  |
  | E  E  E  E  E  E  E  E    E  E  E  E  E  E  Q       E  E  E  E  Q     E  E    E  E  Q     E  E  E  E
  [-------------------------|-------------------------|-------------------------|-------------------------]
  [-------------------------|-------------------------|-------------------------|-------------------------]
2 [-12-12-12-12-12-12-12-12-|-12-12-12-12-12-12-12\---|/16-16-16-16-16\--/16-16-|-16-16-16\--/16-16-16-16-]
  [-x--x--x--x--x--x--x--x--|-x--x--x--x--x--x--x-----|-x--x--x--x--x-----x--x--|-x--x--x-----x--x--x--x--]
  [-10-10-10-10-10-10-10-10-|-10-10-10-10-10-10-10\---|/14-14-14-14-14\--/14-14-|-14-14-14\--/14-14-14-14-]
  [-------------------------|-------------------------|-------------------------|-------------------------]


Legend:

h - Hammer on
b - Bend
(X) - Let note X keep ringing

W - Whole note (full measure)
H - Half note
Q - Quarter note
E - Eighth note
comments
print report bad tab
2 comments total.
0 reply
warumonoLS wrote on May 1 2013, 08:42 pm

Thank you so much!!

Amazing tab.

0 reply
grimace87 wrote on May 7 2013, 05:01 am

A couple of stuff-ups I noticed I made typing this up:

1st Chorus (3rd measure):
Q E E H H E E Q
[-----------------|-----------------]
[-----------------|-----------------]
1 [-4---x-----------|-----------------]
+ [-4---x-4-4-------|(4)--------------]
2 [-2---x-4-4-------|(4)--------------]
[-------2-2-------|-2-------2-3-2---]
^ this chord should be muffled HEAVILY or rested completely
(pretty obvious when listening to the song)

And the final chorus (measure 4). This one's more subtle.
E E Q E E Q E E Q E E Q
[-----------------|-----------------]
[-----------------|-----------------]
1 [-----------------|-----------------]
+ [-4-4-4---4-4-4---|-4-4-4---4-4-4---]
2 [-5-5-5---5-5-5---|-5-5-5---5-5-5---]
[-2-2-2---2-2-2---|-2-2-2---2-3-2---]
^ play 3rd fret with middle finger

I want to post or [tab]
guest
You may want to rate the tab now too:
select rating
Please do not post tabs as comments. Select "correction" instead!