Oops, an error
Loading. Please wait.

Danger Days The True Lives Of The Fabulous Killjoys Tab

24,855 views 51 this week
2 commentsread comments
1 2 3 4 5
accurate
x 15
Autoscroll
+/-
esc
set tempo
stop
Contributor
Hey! There's an official Ultimate Guitar app which is ideal
for learning songs when you're away from computer. Get the app
WARNING: You are trying to view
                                    content from Ultimate-Guitar.com
                                    in an unauthorized application,
                                    which is prohibited.

                                    Please use an official Ultimate
                                    Guitar Tabs application for iPhone,
                                    iPad or Android to access legitimate
                                    chords, guitar, bass, and drum tabs
                                    from Ultimate-Guitar.com database.

                                    Type "ultimate guitar tabs" in Apple
                                    App Store's or Android Market's
                                    search to find the application.
Album: Danger Days: The True Lives of the Fabulous Killjoys
Band: My Chemical Romance



Songs list: 
1.	"Look Alive, Sunshine" (just talking)
2.	"Na Na Na (Na Na Na Na Na Na Na Na Na)"  
3.	"Bulletproof Heart"  	
4.	"Sing"  
5.	"Planetary (Go!)"  
6.	"The Only Hope for Me Is You" 
7.	"Jet-Star and the Kobra Kid/Traffic Report"  (just talking)
8.	"Party Poison"  	
9.	"Save Yourself, I'll Hold Them Back"  
10.	"S/C/A/R/E/C/R/O/W"  	 
11.	"Summertime"  	 
12.	"DESTROYA"  	
13.	"The Kids from Yesterday"  	
14.	"Goodnite, Dr. Death"  (just talking+ american anthem)
15.	"Vampire Money"  






"Na Na Na (Na Na Na Na Na Na Na Na Na)" 

Tuning: Standard

BEGINNING SOLO "NA NA NA..." (play 2x)
e|---------------------------------------------------------------------------|
B|---------------------------------------------------------------------------|
G|---------------------------------------------------------------------------|
D|----------------------------------9----------------------------------------|
A|--11--11-9--11--11-9--11--11-9--11--11-9-----------------------------------|
E|-----------------------------------------11--11-9--11--11-9--11--11-9-11---|

e|---------------------------------------------------------------------------|
B|---------------------------------------------------------------------------|
G|-------------------------------------------------------8-8-8-8-8-8-8-------|
D|-------------------------------------------------------8-8-8-8-8-8-8-------|
A|-9---------------------9-9---9-9-10-11--11-9-11--9-----6-6-6-6-6-6-6-------|
E|----11-10-9--9-7-9-9-7-----11----------------------------------------------|


VERSE 1 "Drugs! Gimme Drugs! Gimme Drugs..."
e|---------------------------------------------------------------------------|
B|---------------------------------------------------------------------------|
G|--13-------------------------------11------/12-13--------------------------|
D|--13-(x16)---13------\12-11--------11-(x8)-/12-13-(x9)---13----------------|
A|--11---------13-(x15)\12-11-(x8)---9-------/10-11--------13-(x7)-----------|
E|-------------11------\10-9-------------------------------11----------------|

"Love! Gimme Love! Gimme Love..."
e|---------------------------------------------------------------------------|
B|---------------------------------------------------------------------------|
G|--13-------------------------------11------/12-13--------11----------------|
D|--13-(x16)---13------\12-11--------11-(x8)-/12-13-(x9)---11-(x7)-----------|
A|--11---------13-(x15)\12-11-(x8)---9-------/10-11--------9-----------------|
E|-------------11------\10-9-------------------------------------------------|


CHORUS "NA NA NA...From mall security..." (play 2x)
e|---------------------------------------------------------------------------|
B|---------------------------------------------------------------------------|
G|-4-------------------------------1-----------------------------------------|
D|-4-(x16)----4-------/5-6---------2-(x8)--5---------------------------------|
A|-2----------4-(x15)-/5-6-(x16)---2-------5-(x8)----------------------------|
E|------------2-------/3-4-----------------3---------------------------------|


MINI INTRO "...More! Gimme More! Gimme More!"
e|----------------------------------------------------|
B|----------------------------------------------------|
G|-----------------------------8-11-8-11-8---13-------|
D|-------------------------------------------13-(x9)--|
A|--11--11-9--11--11-9--11--11---------------11-------|
E|----------------------------------------------------|


VERSE 2 "Oh let me tell you bout the sad man..."
e|---------------------------------------------------------------------------|
B|---------------------------------------------------------------------------|
G|--13-------------------------------11------/12-13--------11----------------|
D|--13-(x16)---13------\12-11--------11-(x8)-/12-13-(x9)---11-(x7)-----------|
A|--11---------13-(x15)\12-11-(x8)---9-------/10-11--------9-----------------|
E|-------------11------\10-9-------------------------------------------------|


[CHORUS "You run..."]


BRIDGE "Right Here, Right Now..." (play 2x)
e|-----------------------|
B|-----------------------|
G|--------------1--------|
D|--6--5--4--3--2--4--6--|
A|--6--5--4--3--2--4--6--|
E|--4--3--2--1-----2--4--|

"Everybody wants to change the world..."
e|---------------------------------------------------------------------------|
B|---------------------------------------------------------------------------|
G|------------------------------1--------------------------------------------|
D|--6------5------4------3------2-(x4)-4------6------------------------------|
A|--6-(x4)-5-(x4)-4-(x4)-3-(x4)-2------4-(x4)-6-(x25)------------------------|
E|--4------3------2------1-------------2------4------------------------------|


SOLO
e|--------------------------------------------------------------------------7-9-11-9-7| 
B|--------------------------7-7--------------------------7-7-8--9-9--7--9-9-----------|
G|---8--8-6--8--8--8-8-8-6-8---8--6--6-4--6--6--6-6-6-4-6-----------------------------|
D|------------------------------------------------------------------------------------|
A|------------------------------------------------------------------------------------|
E|------------------------------------------------------------------------------------|

e|-------7~11~9-h7h9--------------------------------------------------------|
B|-9~-11~-------------------------------------------------------------------|
G|-----------------------4--------------------------------------------------|
D|-----------------------4--------------------------------------------------|
A|-----------------------2--------------------------------------------------|
E|--------------------------------------------------------------------------|


[CHORUS "Make no apology..."(Play set only 1x then go to END]


END
e|-------------------------------------------------------------------------------------|
B|-------------------------------------------------------------------------------------|
G|-4-------------------------------1-------------1-------------1-------------4---------|
D|-4-(x16)----4-------/5-6---------2-(x4)-5------2-(x4)-5-(x4)-2-(x4)-5------4---------|
A|-2----------4-(x15)-/5-6-(x16)---2------5-(x4)-2------5------2------5-(x4)-2---------|
E|------------2-------/3-4----------------3-------------3-------------3----------------|





"Bulletproof Heart" 

Tuning: Half-Step Down
Intro: Piano

Both Guitars, pre-verse:
eb|---------------------------------------------------------------------------|
Bb|---------------------------------------------------------------------------|
Gb|-------7-55555-777-------7-55555-777-99999-7-55555-777---------------------|
Db|-55555-7-55555-777-55555-7-55555-777-99999-7-55555-777-55555-4-5-----------|
Ab|-55555-5-33333-555-55555-5-33333-555-77777-5-33333-555-55555-4-5-----------|
Eb|-33333-------------33333-------------------------------33333-2-3-----------|

Guitar 1 Verse:
eb|--------------------------------------------------------------|
Bb|--------------------------------------------------------------|
Gb|---12--12--12--12--12--12--12-11-12---------------------------|
Db|-12--12--12--12--10--10--12-----------------------------------|
Ab|--------------------------------------------------------------|
Eb|--------------------------------------------------------------|x3

eb|--------------------------------------------------------------|
Bb|--------------------------------------------------------------|
Gb|---12--12--12--12--12-----------------------------------------|
Db|-12--12--12--12----12-----------------------------------------|
Ab|--------------------------------------------------------------|
Eb|--------------------------------------------------------------|


Guitar 2 Verse will be the pre-verse but palm-muted

Both Guitars, verse part 2:
eb|---------------------------------------------------------------------------|
Bb|---------------------------------------------------------------------------|
Gb|----------55555-777----------55555-777-99999999-55555-777------------------|
Db|-55555555-55555-777-55555555-55555-777-99999999-55555-777-55555-4-5-4------|
Ab|-55555555-33333-555-55555555-33333-555-77777777-33333-555-55555-4-5-4------|
Eb|-33333333-----------33333333------------------------------33333-2-3-2------|

Guitar 1 Pre-chorus: (UNSURE)
eb|------------------------------------------------------|
Bb|------------------------------------------------------|
Gb|------------5~----------------------------------------|
Db|--2~----2---5~--------2~----5-4-----------------------|
Ab|--2~------0-3~----3-2-2~------------------------------|
Eb|--0~------------------0~------------------------------|

Guitar 2 Pre-Chorus:
eb|--------------------|
Bb|--8-7---------------|
Gb|------7/9-----------|
Db|--------------------|
Ab|--------------------|
Eb|--------------------|x3

Then Both Guitars: Palm-Muted!
eb|---------------------------------------------------------------------------|
Bb|---------------------------------------------------------------------------|
Gb|-55555555-77777777---------------------------------------------------------|
Db|-55555555-77777777---------------------------------------------------------|
Ab|-33333333-55555555---------------------------------------------------------|
Eb|---------------------------------------------------------------------------|
P.M..................

Guitar 3
eb|--------------------|
Bb|--------------------|
Gb|-5~--7~-------------|
Db|-5~--7~-------------|
Ab|-3~--5~-------------|
Eb|--------------------|


Both Guitars, Chorus: 
eb|---------------------------------------------------------------------------|
Bb|---------------------------------------------------------------------------|
Gb|--------------------------------4444-5555555555555555-77777777-88888888----|
Db|-555555555555-4444-222222222222-4444-5555555555555555-77777777-88888888----|
Ab|-555555555555-4444-222222222222-2222-3333333333333333-55555555-66666666----|
Eb|-333333333333-2222-000000000000--------------------------------------------|

eb|---------------------------------------------------------------------------|
Bb|---------------------------------------------------------------------------|
Gb|-------------------------------------5555555555555555-88888888-10101010----|
Db|-222222222222-4444-5555555555555555--5555555555555555-88888888-10101010----|
Ab|-222222222222-4444-5555555555555555--3333333333333333-66666666-88888888----|
Eb|-000000000000-2222-3333333333333333----------------------------------------|

Guitar 1 Solo:
eb|-------------------------------------------17br-15h17p15-14h15p14----20br----------|
Bb|-----------------------------------------------------------------15------19h20p19v-|
Gb|-----------16--14--12--12----------------------------------------------------------|
Db|-1212121212--12--12--12-----11bvr--10-12-5-----------------------------------------|
Ab|-----------------------------------------------------------------------------------|
Eb|-----------------------------------------------------------------------------------|
P.M. . . . . .  .   .   .

eb|------------------------------------------------17b17br17-17p15--15-15~-------|
Bb|-20p19p17--17--------------------------------------------------17-------------|
Gb|---------19-—19p17p16-17p16---------------------------------------------------|
Db|---------------------------19p17-19p17p16—-17v--------------------------------|
Ab|-----------------------------------------17-----------------------------------|
Eb|------------------------------------------------------------------------------|

Guitar 1 Verse:
eb|--------------------------------------------------------------|
Bb|--------------------------------------------------------------|
Gb|---12--12--12--12--12--12--12-11-12---------------------------|
Db|-12--12--12--12--10--10--12-----------------------------------|
Ab|--------------------------------------------------------------|
Eb|--------------------------------------------------------------|x3

eb|--------------------------------------------------------------|
Bb|--------------------------------------------------------------|
Gb|---12--12--12--12--121212121212-------------------------------|
Db|-12--12--12--12----121212121212-------------------------------|
Ab|--------------------------------------------------------------|
Eb|--------------------------------------------------------------|

Guitar 2 Verse will be the pre-verse but palm-muted

Both Guitars, verse part 2:
eb|---------------------------------------------------------------------------|
Bb|---------------------------------------------------------------------------|
Gb|----------55555-777----------55555-777-99999999-55555-777------------------|
Db|-55555555-55555-777-55555555-55555-777-99999999-55555-777-55555-4-5-4------|
Ab|-55555555-33333-555-55555555-33333-555-77777777-33333-555-55555-4-5-4------|
Eb|-33333333-----------33333333------------------------------33333-2-3-2------|


Guitar 1 Pre-chorus: (UNSURE)
eb|------------------------------------------------------|
Bb|------------------------------------------------------|
Gb|------------5~----------------------------------------|
Db|--2~----2---5~--------7~----5-4-----------------------|
Ab|--2~------0-3~----3-2-7~------------------------------|
Eb|--0~------------------5~------------------------------|

Guitar 2 Pre-Chorus:
eb|--------------------|
Bb|--8-7---------------|
Gb|------7/9-----------|
Db|--------------------|
Ab|--------------------|
Eb|--------------------|x3

Then Both Guitars: Palm-Muted!
eb|---------------------------------------------------------------------------|
Bb|---------------------------------------------------------------------------|
Gb|-55555555-77777777---------------------------------------------------------|
Db|-55555555-77777777---------------------------------------------------------|
Ab|-33333333-55555555---------------------------------------------------------|
Eb|---------------------------------------------------------------------------|
P.M..................

Guitar 3
eb|--------------------|
Bb|--------------------|
Gb|-5~--7~-------------|
Db|-5~--7~-------------|
Ab|-3~--5~-------------|
Eb|--------------------|

Both Guitars, Chorus: 
eb|---------------------------------------------------------------------------|
Bb|---------------------------------------------------------------------------|
Gb|--------------------------------4444-5555555555555555-77777777-88888888----|
Db|-555555555555-4444-222222222222-4444-5555555555555555-77777777-88888888----|
Ab|-555555555555-4444-222222222222-2222-3333333333333333-55555555-66666666----|
Eb|-333333333333-2222-000000000000--------------------------------------------|

eb|---------------------------------------------------------------------------|
Bb|---------------------------------------------------------------------------|
Gb|-------------------------------------5555555555555555-88888888-10101010----|
Db|-222222222222-4444-5555555555555555--5555555555555555-88888888-10101010----|
Ab|-222222222222-4444-5555555555555555--3333333333333333-66666666-88888888----|
Eb|-000000000000-2222-3333333333333333----------------------------------------|

Guitar 1:
eb|--------------------|
Bb|--------------------|
Gb|--------------------|
Db|-5~-----------------|
Ab|-5~-----------------|
Eb|-3~-----------------|


Bridge:

Both Guitars:
eb|--------------------------------------------------------------------------|
Bb|--------------------------------------------------------------------------|
Gb|----------88888888----------8888------------------------------------------|
Db|-55555555-88888888-55555555-8888-9999-88888888-10101010-------------------|
Ab|-55555555-66666666-55555555-6666-9999-88888888-10101010-------------------|
Eb|-33333333----------33333333------7777-66666666-88888888-------------------|x2

On second repeat of the above line:
Guitar 3:
eb|------------------------17br-----------------------|
Bb|------------------18-20-----20-18-20---------------|
Gb|---------------19---------------------19p17--------|
Db|-----6--8-5---------------------------------20-----|
Ab|-10~-----------------------------------------------|
Eb|---------------------------------------------------|

eb|-20b-20br-18-20-18-17br—18p17----------------------|
Bb|-----------------------------20--------------------|
Gb|---------------------------------------------------|
Db|---------------------------------------------------|
Ab|---------------------------------------------------|
Eb|---------------------------------------------------|

eb|-----------17br-----------------------|
Bb|-----18-20-----20-18-20---------------|
Gb|--19----------------------------------|
Db|--------------------------------------|
Ab|--------------------------------------|
Eb|--------------------------------------|


Chorus variation:

Both Guitars:
eb|---------------------------------------------------------------------------|
Bb|---------------------------------------------------------------------------|
Gb|---------------------------------4444-5555555555555555-77777777-88888888---|
Db|---555555-4444------------222222-4444-5555555555555555-77777777-88888888---|
Ab|---555555-4444------------222222-2222-3333333333333333-55555555-66666666---|
Eb|---333333-2222------------000000-------------------------------------------|
     
eb|-----------------------------------------------------------------|
Bb|-----------------------------------------------------------------|
Gb|-999999999999-7777-555555555555-7777----------44444444-----------|
Db|-999999999999-7777-555555555555-7777-77777777-44444444-----------|
Ab|-777777777777-5555-333333333333-5555-77777777-22222222-----------|
Eb|-------------------------------------55555555--------------------|
            
eb|--------------------------------------------------------------------------|
Bb|--------------------------------------------------------------------------|
Gb|--55555555-77777-7--------------------------------------------------------|
Db|--55555555-77777-7--------------------------------------------------------|
Ab|--33333333-55555-5--------------------------------------------------------|
Eb|--------------------------------------------------------------------------|

After line 1 of Chorus variation:
Guitar 3:
eb|----------------------------------|
Bb|-3~---10-8-7-8----3~---10-8-7-3---|
Gb|----------------------------------|
Db|----------------------------------|
Ab|----------------------------------|
Eb|----------------------------------|

eb|-------------10br----------------------------15br-17b----------17b17b17b17b----|
Bb|-10-12-10-12-----12p10p8---15br-15-15p13h15-----------17p15h17--------------19-|
Gb|-------------------------------------------------------------------------------|
Db|-------------------------------------------------------------------------------|
Ab|-------------------------------------------------------------------------------|
Eb|-------------------------------------------------------------------------------|

Both Guitars, outro:
eb|--------------------------------------------------------------------|
Bb|--------------------------------------------------------------------|
Gb|-------7-55555-777-------7-55555-777-99999-7-55555-777--------------|
Db|-55555-7-55555-777-55555-7-55555-777-99999-7-55555-777-5~-----------|
Ab|-55555-5-33333-555-55555-5-33333-555-77777-5-33333-555-5~-----------|
Eb|-33333-------------33333-------------------------------3~-----------|

Guitar 3:
eb|----------------------------------|
Bb|-20-20-20-20-20-20-20-20-20-------|
Gb|----------------------------------|
Db|----------------------------------|
Ab|----------------------------------|
Eb|----------------------------------|Repeat till end!

 	




"Sing"  

Verse 1 (Mostly piano and distortion)
Piano (Play this throughout verses)
e---0---0---0---0---0---0---0---0---0---0---0---0---0---0---0---|
b-5---5---5---5---3---3---3---3---2---2---2---2---1---1---3---3-|
g---------------------------------------------------------------|
d---------------------------------------------------------------|
a---------------------------------------------------------------|
e---------------------------------------------------------------|

Midway through verse
e----------------------|
b----------------------|
g-9~---7~---6~---5~-7~-|
d-9~---7~---6~---5~-7~-|
a-7~---5~---4~---3~-5~-|
e----------------------|

Guitar 1 (Plays it softly)
e------------|
b------12~---| repeat as needed
g-9~---------|
d------------|
a------------|
e------------|

Chorus
e------------------------------------|
b------------------------------------|
g----------77777777-9999999999999999-|
d-55555555-77777777-9999999999999999-|
a-55555555-55555555-7777777777777777-|
e-33333333---------------------------|

e----------------------------------------------------|
b----------------------------------------------------|
g-----------------------------------7777777777777777-|
d-1010101010101010--9-9-9-9-9-9-9-9-7777777777777777-|
a-1010101010101010-1010101010101010-5555555555555555-|
e--8-8-8-8-8-8-8-8--7-7-7-7-7-7-7-7------------------|

e-----------------------------------------------------------|
b-----------------------------------------------------------|
g----------55555555-------------------55555555-77777777-----|
d-22222222-55555555-55555555-77777777-55555555-77777777-2~--|
a-22222222-33333333-55555555-77777777-33333333-55555555-2~--|
e-00000000----------33333333-55555555-------------------0~--|

Verse 2
Piano is same
Guitar 1 is same

Guitar 2
e-------------------------------------------------------|
b-----------------------12--------------------------12--|
g-11br--11h12p11--12h14-------11br--11h12h14--12h14-----|
d-------------------------------------------------------|
a-------------------------------------------------------|
e-------------------------------------------------------|

Chorus

Bridge
Guitar 1
e--------------------------------|
b--------------------------------|
g--------------------------------| 2x
d--------------------------------|
a--------7-----7---------7--5-57-|
e-0--467---467----0--467---------|

Guitar 1
e--------------------------|
b--------------------------|
g--------------------------|
d--------------------------|
a------7---7-------7--5-57-|
e-0--0---0----0--0---------|

Guitar 2
e-0-0-0-0-0-0-0-0-0-0-0-0-0-0-0-0-|
b-5-5-5-5-5-5-5-5-5-5-5-5-5-5-5-5-| repeat
g---------------------------------| several
d---------------------------------| times
a---------------------------------|
e---------------------------------|

(optional to play zeroes on top e string)
e(000000000000-000000000000--0-0-0-0-0-0-0-0-0-0-0-0--0-0-0-0-0-0-0-0-0-0-0-0--|
b-555555555555-888888888888-101010101010101010101010-121212121212121212121212--|
g-xxxxxxxxxxxx-xxxxxxxxxxxx--x-x-x-x-x-x-x-x-x-x-x-x--x-x-x-x-x-x-x-x-x-x-x-x--|
d-222222222222-555555555555--7-7-7-7-7-7-7-7-7-7-7-7--9-9-9-9-9-9-9-9-9-9-9-9--|
a------------------------------------------------------------------------------|
e------------------------------------------------------------------------------|

Final Chorus
e---------------------------|
b---------------------------|
g-----7~--9~------------7~--|
d-5~--7~--9~--10~---9~--7~--|
a-5~--5~--7~--10~--10~--5~--|
e-3~-----------8~---7~------|

Chorus
Piano Verse Riff till end
end with
e-----|
b-----|
g-----|
d-2~--|
a-2~--|
e-0~--|







"Planetary (Go!)"  

Verse I: (All bass)


Pre-Chorus I:

Gtr II

e:|-------------------------------------|
B:|-8~~--8~~--12~~--10~~--8~~--8~~--8~~-|
G:|-9~~--9~~--12~~--11~~--9~~--9~~--8~~-|
D:|-9~~-10~~--12~~--12~~--9~~-10~~--8~~-|
A:|-------------------------------------|
E:|-------------------------------------|

Both Gtr's

e:|----------------------|
B:|----------------------|
G:|----------------------|
D:|----------------------|
A:|-1010101010101010////-|
E:|--8-8-8-8-8-8-8-8////-|


Chorus:

Gtr I (x2)

e:|----------------------------------------------------------------------|
B:|----------------------------------------------------------------------|
G:|----12----12----12---------12----12----12---------12----12----12------|
D:|-------------------10p9-------------------10p9-------------------10p9-|
A:|-10----10----10---------10----10----10---------10----10----10---------|
E:|----------------------------------------------------------------------|

e:|------------------|
B:|------------------|
G:|----12----12------|
D:|------------------|
A:|-10----10---------|
E:|-------------8--6-|

Gtr II (x2)

e:|----------------------------------------------------------------------|
B:|----------------------------------------------------------------------|
G:|----12----12----12---------12----12----12---------12----12----12------|
D:|-----x-----x-----x-10/9-----x-----x-----x-10/9-----x-----x-----x-10/9-|
A:|-10-10-10-10-10-10--x-x-10-10-10-10-10-10--x-x-10-10-10-10-10-10--x-x-|
E:|--------------------8/7--------------------8/7--------------------8/7-|

e:|-------------------|
B:|-------------------|
G:|----12----12-------|
D:|-----x-----x-------|
A:|-10-10-10-10-10--8-|
E:|--------------8--6-|


Verse II: 

Both Gtr's

e:|-------|
B:|-------|
G:|-------| (x2)
D:|-------|
A:|-10--8-|
E:|--8--6-|

e:|-------------------------------------------------------|
B:|-------------------------------------------------------|
G:|-12--12--12-15/16-12--12--12-10/11/12-12--12--12-15/16-|
D:|--x---x---x--x--x--x---x---x--x--x--x--x---x---x--x--x-|
A:|-10--10--10-13/14-10--10--10--8/-9/10-10--10--10-13/14-|
E:|-------------------------------------------------------|

e:|--------------|
B:|--------------|
G:|-12--12-------|
D:|--x---x-------|
A:|-10--10-10--8-|
E:|---------8--6-|

e:|-------------------------------------------------------|
B:|-------------------------------------------------------|
G:|-12--12--12-15/16-12--12--12-10/11/12-12--12--12-15/16-|
D:|--x---x---x--x--x--x---x---x--x--x--x--x---x---x--x--x-|
A:|-10--10--10-13/14-10--10--10--8/-9/10-10--10--10-13/14-|
E:|-------------------------------------------------------|

e:|--------------|
B:|--------------|
G:|-12--12-------|
D:|--x---x-------|
A:|-10--10-10--8-|
E:|---------8--6-|


Pre-Chorus II:

Gtr I

e:|-----------------------------------|
B:|-----------------------------------|
G:|-----------------------------------|
D:|-----------------------------------|
A:|-2~~--3~~-------5~~--2~~--3~~--6~~-|
E:|-----------3~~---------------------|

Gtr II

e:|-------------------------------------|
B:|-8~~--8~~--12~~--10~~--8~~--8~~--8~~-|
G:|-9~~--9~~--12~~--11~~--9~~--9~~--8~~-|
D:|-9~~-10~~--12~~--12~~--9~~-10~~--8~~-|
A:|-------------------------------------|
E:|-------------------------------------|

Both Gtr's

e:|----------------------|
B:|----------------------|
G:|----------------------|
D:|----------------------|
A:|-1010101010101010////-|
E:|--8-8-8-8-8-8-8-8////-|


Repeat Chorus

Verse III:

The beginning is just bass, then;

Both Gtr's

e:|-------------------------------------------------------|
B:|-------------------------------------------------------|
G:|-12--12--12-15/16-12--12--12-10/11/12-12--12--12-15/16-|
D:|--x---x---x--x--x--x---x---x--x--x--x--x---x---x--x--x-|
A:|-10--10--10-13/14-10--10--10--8/-9/10-10--10--10-13/14-|
E:|-------------------------------------------------------|

e:|--------------|
B:|--------------|
G:|-12--12-------|
D:|--x---x-------|
A:|-10--10-10--8-|
E:|---------8--6-|

e:|-------------------------------------------------------|
B:|-------------------------------------------------------|
G:|-12--12--12-15/16-12--12--12-10/11/12-12--12--12-15/16-|
D:|--x---x---x--x--x--x---x---x--x--x--x--x---x---x--x--x-|
A:|-10--10--10-13/14-10--10--10--8/-9/10-10--10--10-13/14-|
E:|-------------------------------------------------------|

e:|--------------|
B:|--------------|
G:|-12--12-------|
D:|--x---x-------|
A:|-10--10-10--8-|
E:|---------8--6-|


Repeat Pre-Chorus II

Repeat Chorus

Bridge: (Listen for timing.)

Gtr I

e:|-12-|
B:|-13-|
G:|-12-|
D:|----|
A:|----|
E:|----|

Gtr II

e:|-------------------------|
B:|-------------------------|
G:|-7~~~~--9~~~~--5~~~~~~~--|
D:|-x------x------x---------|
A:|-5~~~~--7~~~~--3~~~~~~~~-|
E:|-------------------------|


End bridge with:

Gtr I

e:|-12121212121212121212121212121212/141414141414141414-|
B:|-13131313131313131313131313131313/151515151515151515-|
G:|-12121212121212121212121212121212/141414141414141414-|
D:|-----------------------------------------------------|
A:|-----------------------------------------------------|
E:|-----------------------------------------------------|

Gtr II

e:|-----------------------------------------------------|
B:|-----------------------------------------------------|
G:|-12121212121212121212121212121212/141414141414141414-|
D:|--x-x-x-x-x-x-x-x-x-x-x-x-x-x-x-x--x-x-x-x-x-x-x-x-x-|
A:|-10101010101010101010101010101010/121212121212121212-|
E:|-----------------------------------------------------|


Repeat Chorus until end of song.







"The Only Hope for Me Is You" 

Tuning:Half-step down

Verse

Guitar 1 is silent

Guitar 2:
eb|---------------------------------------------------------------------------|
Bb|-15-12---13-12---15-12---13-12---12br11------------------------------------|
Gb|------12------12------12------12-------------------------------------------|
Db|---------------------------------------------------------------------------|
Ab|---------------------------------------------------------------------------|
Eb|---------------------------------------------------------------------------|

Pre-Chorus
Guitar 1: Clean
eb|-----------------------------|
Bb|-----------------------------|
Gb|-5~---8~---------------------|
Db|-5~---8~---------------------|
Ab|-3~---6~---------------------|
Eb|-----------------------------|

Guitar 2:
eb|-----------------------------|
Bb|-11~--16~--------------------|
Gb|-----------------------------|
Db|-----------------------------|
Ab|-----------------------------|
Eb|-----------------------------|

Chorus

Both Guitars:
eb|---------------------------------------------------------------------------|
Bb|---------------------------------------------------------------------------|
Gb|----------777777777----------44444444-55555555----------77777777-----------|
Db|-55555555-777777777-22222222-44444444-55555555-55555555-77777777-----------|
Ab|-55555555-555555555-22222222-22222222-33333333-55555555-55555555-----------|
Eb|-33333333-----------00000000-------------------33333333--------------------|x2


Verse 2

Guitar 1
eb|-----------------------------------------------------|
Bb|-----------------------------------------------------|
Gb|---------------8-8-8--5-5-5--------------------------|
Db|-5-5-5--5-5-5--8-8-8--5-5-5--------------------------|
Ab|-5-5-5--5-5-5--6-6-6--3-3-3--------------------------|
Eb|-3-3-3--3-3-3----------------------------------------|x2

Guitar 2
eb|-----------------------------------------------------|
Bb|-12-12-12-12-12-12-12--------------------------------|
Gb|-----------------------------------------------------|
Db|-----------------------------------------------------|
Ab|-----------------------------------------------------|
Eb|-----------------------------------------------------|x A few times

Guitar 1
eb|------------------------------------------|
Bb|------------------------------------------|
Gb|----7~----4~------------------------------|
Db|-5~-7~-2~-4~------------------------------|
Ab|-5~-5~-2~-2~------------------------------|
Eb|-3~----0~---------------------------------|

Guitar 2
eb|---------------------------------------------------------------------------|
Bb|-15-12---13-12---15-12---13-12---12br11------------------------------------|
Gb|------12------12------12------12-------------------------------------------|
Db|---------------------------------------------------------------------------|
Ab|---------------------------------------------------------------------------|
Eb|---------------------------------------------------------------------------|

Pre-Chorus
Guitar 1: Clean
eb|-----------------------------|
Bb|-----------------------------|
Gb|-5~---8~---------------------|
Db|-5~---8~---------------------|
Ab|-3~---6~---------------------|
Eb|-----------------------------|

Guitar 2:
eb|-----------------------------|
Bb|-11~--16~--------------------|
Gb|-----------------------------|
Db|-----------------------------|
Ab|-----------------------------|
Eb|-----------------------------|

Chorus

Both Guitars:
eb|---------------------------------------------------------------------------|
Bb|---------------------------------------------------------------------------|
Gb|----------777777777----------44444444-55555555----------77777777-----------|
Db|-55555555-777777777-22222222-44444444-55555555-55555555-77777777-----------|
Ab|-55555555-555555555-22222222-22222222-33333333-55555555-55555555-----------|
Eb|-33333333-----------00000000-------------------33333333--------------------|x2

Bridge: 

Guitar 1
eb|---------------------------------------------------------------------------|
Bb|---------------------------------------------------------------------------|
Gb|-------4-4-----------------------------------------------------------------|
Db|-55555--5---0-7-5--0-8-5--8-8-8-8-8-8-8-8--77777777------------------------|
Ab|-55555--------------------8-8-8-8-8-8-8-8--77777777------------------------|
Eb|-33333-------------------1010101010101010--55555555------------------------|x2
PM .....      . .    . .    . . . . .  .     ..... .


eb|---------------------------------------------------------------------------|
Bb|---------------------------------------------------------------------------|
Gb|---------------------------88888888-55555555-------------------------------|
Db|-22222222-4444444-55555555-88888888-55555555-------------------------------|
Ab|-22222222-4444444-55555555-66666666-33333333-------------------------------|
Eb|-00000000-2222222-33333333-------------------------------------------------|x2
PM ........ ....... ........ ........ ........

Chorus variation

Both Guitars:
eb|------------------------------------------|
Bb|------------------------------------------|
Gb|-444-55555555----------77777777-----------|
Db|-444-55555555-55555555-77777777-----------|
Ab|-222-33333333-55555555-55555555-----------|
Eb|--------------33333333--------------------|

eb|---------------------------------------------------------------------------|
Bb|---------------------------------------------------------------------------|
Gb|----------777777777----------44444444-55555555----------77777777-----------|
Db|-55555555-777777777-22222222-44444444-55555555-55555555-77777777-----------|
Ab|-55555555-555555555-22222222-22222222-33333333-55555555-55555555-----------|
Eb|-33333333-----------00000000-------------------33333333--------------------|

Outro:

eb|--------------------------------------------------|
Bb|--------------------------------------------------|
Gb|----------5-7-88888888-55555555-------------------|
Db|-55555555-x-x-xxxxxxxx-xxxxxxxx-------------------|
Ab|-55555555-3-5-66666666-33333333-------------------|
Eb|-33333333-----------------------------------------|








"Party Poison"  

Intro 1 (when the japanese girl speak)

e|-------------------------------------------------|
B|-------------------------------------------------|
G|-12-12--10-10------------8-8--------10-10--10-10-| x2
D|-12-12--10-10-10-10--8-8-8-8--10-10-10-10--10-10-|
A|-10-10--8--8--10-10--8-8-6-6--10-10-8--8---8--8--|
E|--------------8--8---6-6------8--8---------------|

the second time ends

e|------------------|
B|------------------|
G|-10/8/10/8--------|
D|-x-/x/x-/x--------|
A|-8-/6/8-/6--------|
E|------------------|

Intro 2

e|--------------------------------------------------|
B|--------------------------------------------------|
G|-12-12--10-10-------------8-8--------10-10--10-10-| x2
D|-12-12--10-10-10-10--8--8-8-8--10-10-10-10--10-10-|
A|-10-10--8--8--10-10--8--8-6-6--10-10-8--8---8--8--|
E|--------------8--8---6--6------8--8---------------|

Verse

e|------------------------------------------------|
B|------------------------------------------------|
G|-12121212121212121212----------------8888888----|  x2
D|-12121212121212121212-10101010101010-8888888----|
A|-10101010101010101010-10101010101010-6666666----|
E|----------------------8-8-8-8-8-8-8-------------|

then...

e|-------------------------------------------------------------------------------------|
B|-------------------------------------------------------------------------------------|
G|-8-7-5555555555555-5-7-88888888888-8-10-121212121212121212-12-11-101010101010101010--|
D|-8-7-5555555555555-5-7-88888888888-8-10-121212121212121212-12-11-101010101010101010--|
A|-6-5-3333333333333-3-5-66666666666-6-8--101010101010101010-10-9--8-8-8-8-8-8-8-8-8---|
E|-------------------------------------------------------------------------------------|

e|----------------------------------------|
B|----------------------------------------|
G|-55555555555555-12x12x12x12-10101010----|
D|-55555555555555-12x12x12x12-10101010----|
A|-33333333333333-10x10x10x10-8-8-8-8-----|
E|----------------------------------------|

Chorus

e|-------------------------------------------------|
B|-------------------------------------------------|
G|-12-12--10-10------------8-8--------10-10--10-10-| x4
D|-12-12--10-10-10-10--8-8-8-8--10-10-10-10--10-10-|
A|-10-10--8--8--10-10--8-8-6-6--10-10-8--8---8--8--|
E|--------------8--8---6-6------8--8---------------|

then...

e|--------------------------|
B|--------------------------|
G|--------------------------|
D|-------------3-5-5-3-(5)--|
A|----1--3--4---------------|
E|-3------------------------|

Verse


e|------------------------------------------------|
B|------------------------------------------------|
G|-12121212121212121212----------------8888888----|  x2
D|-12121212121212121212-10101010101010-8888888----|
A|-10101010101010101010-10101010101010-6666666----|
E|----------------------8-8-8-8-8-8-8-------------|

then...

e|-------------------------------------------------------------------------------------|
B|-------------------------------------------------------------------------------------|
G|-8-7-5555555555555-5-7-88888888888-8-10-121212121212121212-12-11-101010101010101010--|
D|-8-7-5555555555555-5-7-88888888888-8-10-121212121212121212-12-11-101010101010101010--|
A|-6-5-3333333333333-3-5-66666666666-6-8--101010101010101010-10-9--8-8-8-8-8-8-8-8-8---|
E|-------------------------------------------------------------------------------------|

then...

e|--------------------------|
B|--------------------------|
G|--------------------------|
D|-------------3-5-5-3-(5)--| x2
A|----1--3--4---------------|
E|-3------------------------|

e|-------------------------|
B|-------------------------|
G|-------------------------|  x2
D|-------------------------|
A|-10101088877766554-------|
E|-------------------------|

Bridge


e|---------------------------|
B|---------------------------|
G|-12~--10-12~--10-12~-------|
D|-12~--10-12~--10-12~-------|
A|-10~--8--10~--8--10~-------|
E|---------------------------|

Chorus till the end

e|------------------------------------------------|
B|------------------------------------------------|
G|-12-12--10-10------------8-8--------10-10-10-10-|
D|-12-12--10-10-10-10--8-8-8-8--10-10-10-10-10-10-|
A|-10-10--8--8--10-10--8-8-6-6--10-10-8--8--8--8--|
E|--------------8--8---6-6------8--8--------------|

End.

e|-----------------------------------------|
B|-----------------------------------------|
G|-------88888888-------1010101010101010---| x2
D|-10-10-88888888-10-10-1010101010101010---|
A|-10-10-66666666-10-10-8-8-8-8-8-8-8-8----|
E|-8--8-----------8--8---------------------|


e|-------|
B|-------|
G|-12~---|
D|-12~---|
A|-10~---|
E|-------|







	
"Save Yourself, I'll Hold Them Back"  

**INTRO PT.1 (clean electric guitar)**



|-------0--------------------0-------------------3--------------------------------|
|-------8------8p7------7h8--8-------------------3------3-----------5-------------|
|-------9------9---7----7----7-------------------4---------4--------5-----0-------|
|-------9---------------9----9-------------------5------------------5-------0-----|
|---7-------7-----------------------9-8-7--5-----5------------3---3---0h3-----2s7-|
|-------------------------------0---7-6-5--3---3-----3----------------------------|

>>REPEAT x(many)<<



**INTRO PT.2 (Electric)**

|---------------------------------|
|---------------------------------|
|---------------------------------|
|-9--9---7/9-9---7/9-9-9-9--------|
|-7--7---5/7-7---5/7-7-7-7--------|
|------0-------0-----------7-6-5--|

|---------------------------------|
|---------------------------------|
|----------------7-7/9---12---11--|
|----------------x-x-x----x----x--|
|-5--5-x-5-5-5-x-5-5/7-x-10-x--9--|
|-3--3-x-3-3-3-x-------x----x-----|

>>REPEAT x2<<


**VERSE**

|---------------------------------|
|---------------------------------|
|---------------------------------|
|-9--9---9-9-9-9-9-9-9-9-9--------|
|-7--7---7-7-7-7-7-7-7-7-7--------|
|------0-------------------7-6-5--|
       . . . . . . . . . . . . .

|-------------------------------|
|-------------------------------|
|-----------------------/12-11--|
|----------------5--5-x---x--x--|
|-5--5-5-5-5-5-5-3--3-x-/10--9--|
|-3--3-3-3-3-3-3----------------|
       . . . . . 

|---------------------------------|
|---------------------------------|
|---------------------------------|
|-9--9---7/9-9--------------------|
|-7--7---5/7-7--------------------|
|------0-------0-0-7\5-0-5-7-6-5--|
               . .     . . . . .

|-------------------------------|
|-------------------------------|
|-----------------------/12-14--|
|----------------5--5-x---x--x--|
|-5--5-5-5-5-5-5-3--3-x-/10-12--|
|-3--3-3-3-3-3-3----------------|
     . . . . . .

|---------------------------------|
|---------------------------------|
|---------------------------------|
|-9--9---7/9-9---7/9-9-9-9--------|
|-7--7---5/7-7---5/7-7-7-7--------|
|------0-------0-----------7-6-5--|

|-------------------------------|
|-------------------------------|
|-----------------------/12-11--|
|----------------5--5-x---x--x--|
|-5--5-5-5-5-5-5-3--3-x-/10--9--|
|-3--3-3-3-3-3-3----------------|


|---------------------------------|
|---------------------------------|
|---------------------------------|
|-9--9---7/9-9---7/9-9-9-9--------|
|-7--7---5/7-7---5/7-7-7-7-5-5-x--|
|------0-------0-----------3-3-x--|

|----------------------------|
|----------------------------|
|----------------------------|
|------2-----2-----0----0----|
|-2--2-----2-----2---2----2--|
|-0------2-----3-------------|



**CHORUS:**

*There is no rhythm represented here, but the number of power chords
represents the time you play *

|-------------------------------------------------------------|
|-------------------------------------------------------------|
|-5-5-5-5-5-5-5-5-7-7-7-7-7-7-7-7-8-8-8-8-8-8-8-8-9--9--7--7--|
|-5-5-5-5-5-5-5-5-7-7-7-7-7-7-7-7-9-9-9-9-9-9-9-9-9--9--7--7--|
|-3-3-3-3-3-3-3-3-5-5-5-5-5-5-5-5-6-6-6-6-6-6-6-6-7--7--5--5--|
|-------------------------------------------------------------|

|----------------------------------------------------------------|
|----------------------------------------------------------------|
|-5-5-5-5-5-5-5-5-7-7-7-7-7-7-7-7-9-9---7/9-9---7/9-9-9-9--------|
|-5-5-5-5-5-5-5-5-7-7-7-7-7-7-7-7-9-9---7/9-9---7/9-9-9-9-9-9-9--|
|-3-3-3-3-3-3-3-3-5-5-5-5-5-5-5-5-7-7---5/7-7---5/7-7-7-7-7-7-7--|
|-------------------------------------0-------0-----------0-0-0--|


>>REPEAT INTRO PT.2<<

>>REPEAT VERSE<<

*Note - the verse is the same, but parts are missed out near the start
for when it's just the bass playing. there was no point tabbing it out, 
as the notes are the same, so just listen to the song*


>>REPEAT CHORUS x 2<<



**BREAKDOWN**

|---------------<5>~~--|
|----------------------|
|-<4>~~--<5>~~---------|
|----------------------|
|----------------------|
|----------------------|

This bit is played repeatedly on a guitar in the background..

|-3~--0-3-0-2-3-0-3~--...--|
|--------------------------|
|--------------------------|
|--------------------------|
|--------------------------|
|--------------------------|



**SOLO**

|-(7)-------------------------------------|
|--8b8.5~--------------8b8.5~-------------|
|----------9-7-9~--7h9---------9-7-9~--7--|
|-----------------------------------------|
|-----------------------------------------|
|-----------------------------------------|

|---------------------7-----7-----7-----7--------------|
|-10b12r10--8-10-8~--10b12-10b12-10b12-10b12--8h10p8~--|
|------------------------------------------------------|
|------------------------------------------------------|
|------------------------------------------------------|
|------------------------------------------------------|

|------------------------------|
|------------------------------|
|-9-7-9~--7h9p7----------------|
|---------------9p7------------|
|-------------------10p7-------|
|------------------------10p7--|

|-12----12------14----14----14------|
|-15b17-15b17---17b19-17b19-17b19---|
|-----------------------------------|
|-----------------------------------|
|-----------------------------------|
|-----------------------------------|

|-15----15----15------10----10----10------|
|-18b20-18b20-18b20---13b15-13b15-13b15---|
|-----------------------------------------|
|-----------------------------------------|
|-----------------------------------------|
|-----------------------------------------|

|-15b17~-15--14h15p14----14-----------------12------15--------|
|---------------------17----17-15h17p15-----15b17~~~~~~~b17~--|
|---------------------------------------16--------------------|
|-------------------------------------------------------------|
|-------------------------------------------------------------|
|-------------------------------------------------------------|

*for the last bend on the last bar, hold the bend while you hit the high
15 on the high E string with your pinky*

>>REPEAT CHORUS x2<<
>>REPEAT INTRO PT.2 x2<<






"S/C/A/R/E/C/R/O/W"  	 

Intro

e|-----------------|
B|-7-7-7-7-7-7-7-7-|
G|-7-7-7-7-7-7-7-7-|
D|-7-7-7-7-7-7-7-7-|
A|-5-5-5-5-5-5-5-5-|
E|-----------------|

e|-----------------3-3-3-3--------------------------3-3-3-3----------|
B|-7-7-7-777-7-7-7-3-3-3-3--7-7-7-787-7-7-7-7-7-7-7-3-3-3-3--7-7-7-7-|
G|-7-7-7-777-7-7-7-4-4-3-3--7-7-7-777-7-7-7-7-7-7-7-4-4-3-3--7-7-7-7-|
D|-7-7-7-777-7-7-7-5-5-5-5--7-7-7-777-7-7-7-7-7-7-7-5-5-5-5--7-7-7-7-|
A|-5-5-5-555-5-5-5-5-5-5-5--5-5-5-555-5-5-5-5-5-5-5-5-5-5-5--5-5-5-5-|
E|-----------------3-3-3-3--------------------------3-3-3-3----------|

Verse

e|-------------------------------------|
B|-------------------------------------|
G|-7-7-7-7-6-6-6-6-4-4-4-4-7-7-6-67----|  x2
D|-7-7-7-7-7-7-7-7-4-4-4-4-7-7-7-77----|
A|-5-5-5-5-4-4-4-4-2-2-2-2-7-7-7-77----|
E|-------------------------5-5-5-55----|

e|------------------------------------|
B|------------------------------------|
G|-7-7-9-11--7-7-9-11-7-7-------------|
D|-x-x-x-x---x-x-x-x--x-x-9-9-7-7-----|
A|-5-5-7-9---5-5-7-9--5-5-x-x-x-x-----|- til the chorus
E|------------------------7-7-5-5-----|

Chorus

e|-----------------3-3-3-3--------------------------3-3-3-3----------|
B|-7-7-7-777-7-7-7-3-3-3-3--7-7-7-787-7-7-7-7-7-7-7-3-3-3-3--7-7-7-7-|
G|-7-7-7-777-7-7-7-4-4-3-3--7-7-7-777-7-7-7-7-7-7-7-4-4-3-3--7-7-7-7-|
D|-7-7-7-777-7-7-7-5-5-5-5--7-7-7-777-7-7-7-7-7-7-7-5-5-5-5--7-7-7-7-|
A|-5-5-5-555-5-5-5-5-5-5-5--5-5-5-555-5-5-5-5-5-5-5-5-5-5-5--5-5-5-5-|
E|-----------------3-3-3-3--------------------------3-3-3-3----------|

Verse

e|-----------------------------------|
B|-----------------------------------|
G|-7-7-9-11--7-7-9-11-7-7------------|
D|-x-x-x-x---x-x-x-x--x-x-9-9-7-7----|
A|-5-5-7-9---5-5-7-9--5-5-x-x-x-x----|
E|------------------------7-7-5-5----|


e|--------------------------------------------------|
B|--------------------------------------------------|
G|-44444/6666/7777/9999-11111111/12121212/14141414--|
D|-xxxxx/xxxx/xxxx/xxxx/x-x-x-x-/xxxxxxxx/xxxxxxxx--|
A|-22222/4444/5555/7777/9-9-9-9-/10101010/12121212--|
E|--------------------------------------------------|

Chorus

e|-----------------3-3-3-3--------------------------3-3-3-3----------|
B|-7-7-7-777-7-7-7-3-3-3-3--7-7-7-787-7-7-7-7-7-7-7-3-3-3-3--7-7-7-7-|
G|-7-7-7-777-7-7-7-4-4-3-3--7-7-7-777-7-7-7-7-7-7-7-4-4-3-3--7-7-7-7-|
D|-7-7-7-777-7-7-7-5-5-5-5--7-7-7-777-7-7-7-7-7-7-7-5-5-5-5--7-7-7-7-|
A|-5-5-5-555-5-5-5-5-5-5-5--5-5-5-555-5-5-5-5-5-5-5-5-5-5-5--5-5-5-5-|
E|-----------------3-3-3-3--------------------------3-3-3-3----------|

then...

e|-2-2-3-2-2-3-2-2-3-2----| ->til the solo
B|--3-----3-----3---------|
G|-2----------------------|
D|-0----------------------|
A|------------------------|
E|------------------------|

e|---------------------|
B|---------------------|
G|-7-7-7-7-7-7-7-7-----| *=PM
D|-7-7-7-7-7-7-7-7-----|
A|-5-5-5-5-5-5-5-5-----|
E|---------------------|
   * * * * * * * *

Solo

e|-----------------------------------------|
B|-15-14-12-10-12--------------------------|
G|----------------11~-------14/11~---------|
D|----------------------15~----------------|
A|-----------------------------------------|
E|-----------------------------------------|

e|-------------------------------|
B|-------------------------------|
G|---------14b16b14b14b16b14b16--|
D|-12~-12~-----------------------|
A|-------------------------------|
E|-------------------------------|

e|-----------------------------------------------------------------------------------|
B|----------------------------------------13-15~--13-12-10---------------------------|
G|---------------------14b16b14b16b14b16-------------------11-11-12-14---------------|
D|-12~-12~-12~-12~-12~-------------------------------------------------12-14-14b-----|
A|-----------------------------------------------------------------------------------|
E|-----------------------------------------------------------------------------------|

e|---------------------------------|
B|---------------------------------|
G|--------14b16b14b16b14b16--------|
D|-12~-12~-------------------------|
A|---------------------------------|
E|---------------------------------|

e|------------------------------------------------------------17b-15-14-17~----|
B|---------------------------------------13-15~-15-17b-17-15-------------------|
G|-------------------14b16b14b16b14b14-----------------------------------------|
D|-12~-12~-12~-12~-12~---------------------------------------------------------|
A|-----------------------------------------------------------------------------|
E|-----------------------------------------------------------------------------|

Chorus til the end

e|-----------------3-3-3-3--------------------------3-3-3-3----------|
B|-7-7-7-777-7-7-7-3-3-3-3--7-7-7-787-7-7-7-7-7-7-7-3-3-3-3--7-7-7-7-|
G|-7-7-7-777-7-7-7-4-4-3-3--7-7-7-777-7-7-7-7-7-7-7-4-4-3-3--7-7-7-7-|
D|-7-7-7-777-7-7-7-5-5-5-5--7-7-7-777-7-7-7-7-7-7-7-5-5-5-5--7-7-7-7-|
A|-5-5-5-555-5-5-5-5-5-5-5--5-5-5-555-5-5-5-5-5-5-5-5-5-5-5--5-5-5-5-|
E|-----------------3-3-3-3--------------------------3-3-3-3----------|

2nd guitar

e|-14-15-14-15-14----14-15-14-15-14-17----|
B|----------------15----------------------|
G|----------------------------------------|
D|----------------------------------------|
A|----------------------------------------|
E|----------------------------------------|








"Summertime" 

Intro:


Guitar 1

 D5 (palm mute)

Guitar 2

E-------------------------------------------------------------------------|
B--10-7x6-8-8-8-8-8-10-7-7-7-7-7/2-2-2-2h3-3-3-3-3-8h10-7-7-7-7-7-7-10x14-|
G-------------------------------------------------------------------------|
D-------------------------------------------------------------------------|
A-------------------------------------------------------------------------|
E-------------------------------------------------------------------------|

Guitar

        D            A      Em         G
E-------------------------------------------------------|
B---3--8-7-2-8-7--0--8-7-10-8-7-5-----------------------|
G-------------------------------------------------------|
D-------------------------------------------------------|
A-------------------------------------------------------|
E-------------------------------------------------------|

                        D
When the lights go out
                          A
Will you take me with you
                               Em
And carry all this broken bone
                          G
Through stitches and crows
                       D
Highways I called home
                           A
Something I can't go to now
                                Em
Until you pick me off the ground

With brick in hand, your lip gloss smile
              G
You're scraped up knees

    G                  A                    D                      G
And if you stay I will lead away your mind
    G            A                            Bm
Or until your heart explodes out
            G                   A                   D                        G
Until we find our way in the dark and out of heart
             G                   A
You can run away with me
                     D
Any time you want

                          A
Terrified of what I'd be
                            Em
As a kid from what I've seen
                           G
Every single day when people shot
                        D
And put the pieces back together
                        A 
Just to smash them down
                               Em
Turn my headphones up real loud
                        G
I think I need them now

'Cause you suck the noise out

[Refrain:]


    G                  A                     D                    G
And if you stay I will lead away your mind
          A                  Bm
Or until my heart explodes out
                G                  A                 D                       G
Until we find our way in the dark and out of heart  
                         A
You can run away with me
                D
Anytime you want


D   Dsus2    D    Dsus6     D    Dsus2     D      A

Anytime you want


     D
E-10----9----7----9-----------------------------------|
B---10----10---10---10--------------------------------|
G-----------------------------------------------------|
D-----------------------------------------------------|
A-----------------------------------------------------|
E-----------------------------------------------------|

Anytime you want

Guitar Solo

      D              G                      A                              D               G
E-----------------------------------------------5------------------------|
B-10-10-10-10-3-3-10-10-10-10-2-2-5-5-5-5/7-7-7--------------------------|
G------------------------------------------------8-8/6-------------------|
D------------------------------------------------------------------------|
A------------------------------------------------------------------------|
E------------------------------------------------------------------------|

       G                                       A               Bm          
         A
E--------------------------------------------5-7-7-9-9h10-9-7-9-9h10-|
B-10-10-10-10-3-3-10-10-10-10-2-2-5-5-5-5/7-7------------------------|
G--------------------------------------------------------------------|
D--------------------------------------------------------------------|
A--------------------------------------------------------------------|
E--------------------------------------------------------------------|

                    D               G                   A                    D
E-9-5-12-12-12-12/14-14-14-9-9/7--7-9-9h10-9-5-9-9h10-9-7-9-10-------|
B--------------------------------------------------------------------|
G--------------------------------------------------------------------|


   D
Don't walk away (x2)
               G
Don't walk away
                 A
Cause if you stay
              D            G
I will lead the way alright


       A                    Bm
Until my heart explodes out
           G             A                  D               
 G
Until we find our way in the dark and out of heart
                          A
You can run away with me
             Bm
You can run if you want
            G             A
You can run away with me

               D
Anytime you want





 	 
"DESTROYA"  

e|--------------------------------|-------------------------------|
B|--------------------------------|-------------------------------|
G|--------------------------------|-------------------------------|
D|--------------------------------|-------------------------------|
A|--------------------------------|------------------------5-7-5--|
E|-5h7-7-7-7-7-5h7-7-7-7-7-5h7-7-7|-5h7-7-7-7-7-5h7-7-7-7-7------7|


++++++one riff through the entire song+++++





	
"The Kids from Yesterday" 

Intro

Ray Toro

|--------------------------------------------|
|--------------------------------------------|
|-14-(x10)-16-(x4)---------------------------|
|------------------16-(x10)-14-(x4)----------|
|--------------------------------------------|
|--------------------------------------------|

Frank Iero                                  end with...

|--------------------------------------|    |-----|
|--------------------------------------|    |-----|
|-777777777777/9999/777777777777/6666--| x2 |--7~-|
|-xxxxxxxxxxxx/xxxx/xxxxxxxxxxxx/xxxx--|    |--x--|
|-555555555555/7777/555555555555/4444--|    |--5~-|
|--------------------------------------|    |-----|


Instrumental during the verse


1st part           2nd part
|--------------|  |---------------------------------|
|-----10~------|  |-----10~-----12~////7~---(5)-----|
|-7-9----------|  |-7-9-----------------------------|
|--------------|  |---------------------------------|
|--------------|  |---------------------------------|
|--------------|  |---------------------------------|


Pre-chorus

part 1
|------------------------------------|
|------------------------------------|
|-------------------------7777777----| x2   *=PM
|-5555555-7777777-9999999-7777777----|
|-5555555-7777777-9999999-5555555----|
|-3333333-5555555-7777777------------|
  ******* ******* ******* *******
part 2
|----------------------------------------------------|
|----------------------------------------------------|
|-----------------7777777----------------------------|
|-5555555-7777777-7777777-5555555-5555555-7777777----|
|-5555555-7777777-5555555-5555555-5555555-7777777----|
|-3333333-5555555---------3333333-3333333-5555555----|
  ******* ******* ******* ******* ******* *******

Chorus

Ray Toro

|-----------------------------------|
|-----------------------------------|
|-14------/16------/11------/9------|
|-x-(x10)-/x--(x4)-/x--(x10)/x-(x4)-|
|-12------/14------/9-------/7------|
|-----------------------------------|

Frank Iero                                  end with...

|--------------------------------------|    |-----|
|--------------------------------------|    |-----|
|-777777777777/9999/777777777777/6666--| x2 |--7~-|
|-xxxxxxxxxxxx/xxxx/xxxxxxxxxxxx/xxxx--|    |--x--|
|-555555555555/7777/555555555555/4444--|    |--5~-|
|--------------------------------------|    |-----|


Instrumental during the verse

1st part           2nd part
|--------------|  |---------------------------------|
|-----10~------|  |-----10~-----12~////7~---(5)-----|
|-7-9----------|  |-7-9-----------------------------|
|--------------|  |---------------------------------|
|--------------|  |---------------------------------|
|--------------|  |---------------------------------|


Pre-chorus

part 1
|------------------------------------|
|------------------------------------|
|-------------------------7777777----| x2   *=PM
|-5555555-7777777-9999999-7777777----|
|-5555555-7777777-9999999-5555555----|
|-3333333-5555555-7777777------------|
  ******* ******* ******* *******
part 2
|----------------------------------------------------|
|----------------------------------------------------|
|-----------------7777777----------------------------|
|-5555555-7777777-7777777-5555555-5555555-7777777----|
|-5555555-7777777-5555555-5555555-5555555-7777777----|
|-3333333-5555555---------3333333-3333333-5555555----|
  ******* ******* ******* ******* ******* *******


bridge

|----------------------------------------------------------------------------------------|
|----------------------------------------------------------------------------------------|
|-7777777/9999/1111111111-7777777/9999/666666/444/777777/9999/111111111-7777777777/666---| x2
|-xxxxxxx/xxxx/x-x-x-x-x--xxxxxxx/xxxx/xxxxxx/xxx/xxxxxx/xxxx/x-x-x-x-x-xxxxxxxxxx/xxx---| 
|-5555555/7777/9-9-9-9-9--5555555/7777/444444/222/555555/7777/9-9-9-9-9-5555555555/444---|
|----------------------------------------------------------------------------------------|

pre-chorus


part 1
|------------------------------------|
|------------------------------------|
|-------------------------7777777----| x2
|-5555555-7777777-9999999-7777777----|
|-5555555-7777777-9999999-5555555----|
|-3333333-5555555-7777777------------|

part 2
|----------------------------------------------------|
|----------------------------------------------------|
|-----------------7777777----------------------------|
|-5555555-7777777-7777777-5555555-5555555-7777777----|
|-5555555-7777777-5555555-5555555-5555555-7777777----|
|-3333333-5555555---------3333333-3333333-5555555----|

Chorus

Ray Toro

|----------------------------------|
|----------------------------------|
|-14-----/16-----/11------/9-------|
|-x-(x10)/x--(x4)/x--(x10)/x-(x4)--|
|-12-----/14-----/9-------/7-------|
|----------------------------------|

Frank Iero                                  end with...

|--------------------------------------|    |-----|
|--------------------------------------|    |-----|
|-777777777777/9999/777777777777/6666--| x2 |--7~-|
|-xxxxxxxxxxxx/xxxx/xxxxxxxxxxxx/xxxx--|    |--x--|
|-555555555555/7777/555555555555/4444--|    |--5~-|
|--------------------------------------|    |-----|

3rd guitar

|-------------------------------------------------------|
|-15151515151515151515-14-121212-14-151515151515151515--|  til the end...
|-------------------------------------------------------|
|-------------------------------------------------------|
|-------------------------------------------------------|
|-------------------------------------------------------|


 	
"Vampire Money"  

Intro

e|-----------------------------------------------------------|
B|-----------------------------------------------------------|
G|-------------------------------------------7-7-7-7-7-7-----|
D|--9--9-9-9-9-9-9-9/-7--7-7-/-9-9-9-9-9-9-9-7-7-7-7-7-7-----|
A|--9--9-9-9-9-9-9-9/-7--7-7-/-9-9-9-9-9-9-9-5-5-5-5-5-5-----|
E|--7--7-7-7-7-7-7-7/-5--5-5-/-7-7-7-7-7-7-7-----------------|

Verse

e|-----------------------------------------------------|
B|-----------------------------------------------------|
G|---------------------9~----------11--9-------7-------|
D|---9~-------9--------9~----9-----11--9---9---7-------|
A|---9~-------9--------7~----9-----9---7---9---5-------|
E|---7~-------7--------------7-------------7-----------|

Chorus

e|------------------------------------------------------------------|
B|------------------------------------------------------------------|
G|--------------------------------------------9--9-9-9-9-9-9-9-/-11-|
D|--9--9-9-9-9-9-9-9/-7--7-7-/-9-9-9-9-9-9-9--9--9-9-9-9-9-9-9-/-11-|
A|--9--9-9-9-9-9-9-9/-7--7-7-/-9-9-9-9-9-9-9--7--7-7-7-7-7-7-7-/-9--|
E|--7--7-7-7-7-7-7-7/-5--5-5-/-7-7-7-7-7-7-7------------------------|

e|------------------------------------------------------------|
B|------------------------------------------------------------|
G|-11-11-11-11-11-11-9-9-9-9-9-9-8-8-8-8-8-8--11--11--11-/-13-|
D|-11-11-11-11-11-11-9-9-9-9-9-9-8-8-8-8-8-8--11--11--11-/-13-|
A|-9--9--9--9--9--9--7-7-7-7-7-7-6-6-6-6-6-6--9---9---9--/-11-|
E|------------------------------------------------------------|

e|-------------------------------------|
B|-------------------------------------|
G|--9-9-9-9-9-9-9-11-11-11-11-11-11----|
D|--9-9-9-9-9-9-9-11-11-11-11-11-11----|
A|--7-7-7-7-7-7-7-9--9--9--9--9--9-----|
E|-------------------------------------|

Pre-Verse

e|----------------------------------------------------------------------|
B|----------------------------------------------------------------------|
G|-------------------------------------------7-7-7-7-7-7----------------|
D|--9--9-9-9-9-9-9-9/-7--7-7-/-9-9-9-9-9-9-9-7-7-7-7-7-7----------------|  x2
A|--9--9-9-9-9-9-9-9/-7--7-7-/-9-9-9-9-9-9-9-5-5-5-5-5-5----------------|
E|--7--7-7-7-7-7-7-7/-5--5-5-/-7-7-7-7-7-7-7----------------------------|

Verse 2

e|-----------------------------------------------------------------------|
B|-----------------------------------------------------------------------|
G|-------------------------------------------9-9-9-9-9-9-9---------------|
D|--9--9-9-9-9-9-9-9/-7--7-7-/-9-9-9-9-9-9-9-9-9-9-9-9-9-9-9-9-9-9-9-9-9-|
A|--9--9-9-9-9-9-9-9/-7--7-7-/-9-9-9-9-9-9-9-7-7-7-7-7-7-7-9-9-9-9-9-9-9-|
E|--7--7-7-7-7-7-7-7/-5--5-5-/-7-7-7-7-7-7-7---------------7-7-7-7-7-7-7-|

e|---------------------------------------------------------|
B|---------------------------------------------------------|
G|11-11-11-11-11-11-9-9-9-9-9-9-----------------7-7-7-7-7--|
D|11-11-11-11-11-11-9-9-9-9-9-9--9-9-9-9-9-9-9--7-7-7-7-7--|
A|9--9--9--9--9--9--7-7-7-7-7-7--9-9-9-9-9-9-9--5-5-5-5-5--|
E|-------------------------------7-7-7-7-7-7-7-------------|

Chorus 2

e|------------------------------------------------------------------|
B|------------------------------------------------------------------|
G|--------------------------------------------9--9-9-9-9-9-9-9-/-11-|
D|--9--9-9-9-9-9-9-9/-7--7-7-/-9-9-9-9-9-9-9--9--9-9-9-9-9-9-9-/-11-|
A|--9--9-9-9-9-9-9-9/-7--7-7-/-9-9-9-9-9-9-9--7--7-7-7-7-7-7-7-/-9--|
E|--7--7-7-7-7-7-7-7/-5--5-5-/-7-7-7-7-7-7-7------------------------|

e|------------------------------------------------------------|
B|------------------------------------------------------------|
G|-11-11-11-11-11-11-9-9-9-9-9-9-8-8-8-8-8-8--11--11--11-/-13-|
D|-11-11-11-11-11-11-9-9-9-9-9-9-8-8-8-8-8-8--11--11--11-/-13-|
A|-9--9--9--9--9--9--7-7-7-7-7-7-6-6-6-6-6-6--9---9---9--/-11-|
E|------------------------------------------------------------|

e|-------------------------------------|
B|-------------------------------------|
G|--9-9-9-9-9-9-9-11-11-11-11-11-11----|
D|--9-9-9-9-9-9-9-11-11-11-11-11-11----|
A|--7-7-7-7-7-7-7-9--9--9--9--9--9-----|
E|-------------------------------------|

Pre Solo

e|-----------------------------------------|
B|-----------------------------------------|
G|-----------------------------------------|
D|---9--10--11--12--13--14--15--16--17--19-|
A|---9--10--11--12--13--14--15--16--17--19-|
E|---7--8---9---10--11--12--13--14--15--17-|


Don't know solo....

Nothing is played in Verse 3 except drums and Gerard singing.

Chorus 3


e|------------------------------------------------------------------|
B|------------------------------------------------------------------|
G|--------------------------------------------9--9-9-9-9-9-9-9-/-11-|
D|--9--9-9-9-9-9-9-9/-7--7-7-/-9-9-9-9-9-9-9--9--9-9-9-9-9-9-9-/-11-|
A|--9--9-9-9-9-9-9-9/-7--7-7-/-9-9-9-9-9-9-9--7--7-7-7-7-7-7-7-/-9--|
E|--7--7-7-7-7-7-7-7/-5--5-5-/-7-7-7-7-7-7-7------------------------|

e|------------------------------------------------------------|
B|------------------------------------------------------------|
G|-11-11-11-11-11-11-9-9-9-9-9-9-8-8-8-8-8-8--11--11--11-/-13-|
D|-11-11-11-11-11-11-9-9-9-9-9-9-8-8-8-8-8-8--11--11--11-/-13-|
A|-9--9--9--9--9--9--7-7-7-7-7-7-6-6-6-6-6-6--9---9---9--/-11-|
E|------------------------------------------------------------|

e|-------------------------------------|
B|-------------------------------------|
G|--9-9-9-9-9-9-9-11-11-11-11-11-11----|
D|--9-9-9-9-9-9-9-11-11-11-11-11-11----|
A|--7-7-7-7-7-7-7-9--9--9--9--9--9-----|
E|-------------------------------------|

Outro


e|---------------------------------------------------------|
B|---------------------------------------------------------|
G|-------------------------------------------7-7-7-7-7-7---|
D|--9--9-9-9-9-9-9-9/-7--7-7-/-9-9-9-9-9-9-9-7-7-7-7-7-7---| 
A|--9--9-9-9-9-9-9-9/-7--7-7-/-9-9-9-9-9-9-9-5-5-5-5-5-5---|
E|--7--7-7-7-7-7-7-7/-5--5-5-/-7-7-7-7-7-7-7---------------|

e|---------------------------------------------|
B|---------------------------------------------|
G|---------------------------------------------|
D|--9----9----9----9~-----------------------9--|
A|--9----9----9----9~----(pick-scrapes)-----9--|
E|--7----7----7----7~-----------------------7--|

End



Rate... Please.... 
comments
print report bad tab
2 comments total.
+1 reply
MCRFTW1996 wrote on August 9 2011, 11:43 am

Awesome tab! Good job!

+1 reply
LoisJackman wrote on August 25 2013, 09:31 am

The Summertime lyrics are so incorrect it hurts. Other wise, nice tab! :3

I want to post or [tab]
guest
You may want to rate the tab now too:
select rating
Please do not post tabs as comments. Select "correction" instead!