Oops, an error
Loading. Please wait.

Dead Live Tab

ver2
ver2

Whole song

Interactive

More versions @911Tabs.com
526 views 1 this week
1 commentread comment
1 2 3 4 5
please rate
Autoscroll
+/-
esc
set tempo
stop
Contributor
Difficulty
intermediate
WARNING: You are trying to view
                                    content from Ultimate-Guitar.com
                                    in an unauthorized application,
                                    which is prohibited.

                                    Please use an official Ultimate
                                    Guitar Tabs application for iPhone,
                                    iPad or Android to access legitimate
                                    chords, guitar, bass, and drum tabs
                                    from Ultimate-Guitar.com database.

                                    Type "ultimate guitar tabs" in Apple
                                    App Store's or Android Market's
                                    search to find the application.
Alright I'm sick of looking for someone to update this song so I'm doing it myself. Its 
the NJ disk (Disk 2) of The Black Parade Is Dead.

Guitar 1 - Frank
Guitar 2 - Ray
If you want this in Drop-d then comment me about it.
Sorry if my tabbing is off (talking about the key below), its just how I tab things

p - pull off
h - hammer on
<#> - fret haromnic
{#} - pinch harmonic
\ - slide
* - PM
T - 12
E - 11
N - 10

Intro
Verse 1
Chorus
Bridge 1
Verse 2
Chorus
Bridge 2
Solo
Outro

Intro
(Guitar 2)
|----------------------------------------------------------<5>-----|
|----------------------------------------------------------<5>-----|
|------------------------------------------------------------------|
|-5-5-5-5-5-5/44-5-5-5-5-5-5/44-5-5-5-5-5-5/44-5-5-5-5-5-5-----15/-|
|-5-5-5-5-5-5/44-5-5-5-5-5-5/44-5-5-5-5-5-5/44-5-5-5-5-5-5-----15/-|
|-3-3-3-3-3-3/22-3-3-3-3-3-3/22-3-3-3-3-3-3/22-3-3-3-3-3-3-----15/-|

(Guitar 1)
|-------------------------------------------------------15151515-----|
|-----------------------------------------------15151515-------------|
|--------------------------------------------------------------------|
|-5--------------5--------------5--------------------------------15/-|
|-5--------------5--------------5--------------------------------15/-|
|-3--------------3--------------3--------------------------------15/-|
(Guitar 2)
|--------------------------------------------------------------------|
|------------------------------------------------------------2-3-----|
|-------------------------4-4-4-4--------------------5-5-5-5-----4---|
|-5-5-5-5-5-5-5-5-4-4-4-4-4-4-4-4-2-2-2-2-2-2-2-2/15\5-5-5-5-------5-|
|-5-5-5-5-5-5-5-5-4-4-4-4-2-2-2-2-2-2-2-2-2-2-2-2/15\3-3-3-3---------|
|-3-3-3-3-3-3-3-3-2-2-2-2---------0-0-0-0-0-0-0-0/15\----------------|

(Guitar 1)
|--------------------------------------------------------------------------|
|--------------------------------------------------------------------------|
|-------------------------4-4-4-4-----------------5-5-5-5-/{7}-{8}-{7}-{5}-|
|-5-5-5-5-5-5-5-5-4-4-4-4-4-4-4-4-2-2-2-2-2-2-2-2-5-5-5-5------------------|
|-5-5-5-5-5-5-5-5-4-4-4-4-2-2-2-2-2-2-2-2-2-2-2-2-3-3-3-3------------------|
|-3-3-3-3-3-3-3-3-2-2-2-2---------0-0-0-0-0-0-0-0--------------------------|

Verse 1
(Guitar 2)
|----------------------------------------------------------------------|
|----------------------------------------------------------------------|
|--------------------------4-4-4-4---------------------5-5-5-5-5-5-5-5-|
|--5-5-5-5-5-5-5-5-4-4-4-4-4-4-4-4-2-2-2-2-2-2-2-3/15\-5-5-5-5-5-5-5-5-|
|--5-5-5-5-5-5-5-5-4-4-4-4-2-2-2-2-2-2-2-2-2-2-2-3/15\-3-3-3-3-3-3-3-3-|
|--3-3-3-3-3-3-3-3-2-2-2-2---------0-0-0-0-0-0-0-3/15\-----------------|
PM * * * * * * *     * * *   * *     * * * * * *         * * * * * * *

(Guitar 1)
|-----------------------------------------------------------------------|
|-----------------------------------------------------------------------|
|-----------------------T-E-9-N----------------7----------------7-99-EE-|
|-----------------------X-X-X-X----------------X----------------X-XX-XX-|
|-----------------------N-9-7-9----------------5----------------5-77-99-|
|-----------------------------------------------------------------------|

(Guitar 1)
|------------------------------------------------------------------|
|------------------------------------------------------------------|
|--5--5--5--5---T-E-9-N----------------7-------------------7-99-EE-|
|--5--5--5--5---X-X-X-X----------------X-------------------X-XX-XX-|
|--3--3--3--3---N-9-7-9----------------5-------------------5-77-99-|
|------------------------------------------------------------------|

(Guitar 2)
|-------------------------------|
|-------------------------------|
|-2-----------5-----------------|
|-2-----------5------------/15--|
|-0-----------3---3-4-5-6-7/15--|
|--------------------------/15--|

(Guitar 1)
|-------------------------------|
|-------------------------------|
|-----------------5-4-7-4-------|
|-7-9-7-5-7-9-7-5---------5-4-0-|
|-------------------------------|
|-------------------------------|

(Chorus)
(Guitar 2)
|-----------------------------------------------------------------|
|-----------------------------------------------------------------|
|-----------------4-4-4-4-4-4-4-4-5-5-5-5-5-5-5-5-7-7-7-7-6-6-6-6-|
|-5-5-5-5-5-5-5-5-4-4-4-4-4-4-4-4-5-5-5-5-5-5-5-5-X-X-X-X-X-X-X-X-|
|-5-5-5-5-5-5-5-5-2-2-2-2-2-2-2-2-3-3-3-3-3-3-3-3-5-5-5-5-4-4-4-4-| (X2)
|-3-3-3-3-3-3-3-3-------------------------------------------------|

(Guitar 1)
|-------------------------------------------------------------------------|
|-------------------------------------------------------------------------|
|-T-T-T-T-T-T-T-T-E-E-E-E-E-T-9b-14-14-14-14-T-T-T-T-16-16-16-17-14-14/16-|
|-X-X-X-X-X-X-X-X-X-X-X-X--------X--X--X--X--X-X-X-X-X--X--X--X--X--X-/X--|
|-N-N-N-N-N-N-N-N-9-9-9-9--------12-12-12-12-N-N-N-N-14-14-14/15-12-12/14-|
|-------------------------------------------------------------------------|

(continued)
|----|
|----|
|-14-|
|-X--| (All X2)
|-12-|
|----|

(Bridge)
(Guitar 2)
|----------------------{5}-{1}-{5}-|
|----------------------------------|
|----------------------------------|
|-5-5-5-5-5-5/44-5-5-5-------------|
|-5-5-5-5-5-5/44-5-5-5-------------|
|-3-3-3-3-3-3/22-3-3-3-------------|

(Verse 2)
(Guitar 2)
|----------------------------------------------------------------------|
|----------------------------------------------------------------------|
|--------------------------4-4-4-4---------------------5-5-5-5-5-5-5-5-|
|--5-5-5-5-5-5-5-5-4-4-4-4-4-4-4-4-2-2-2-2-2-2-2-3/15\-5-5-5-5-5-5-5-5-|
|--5-5-5-5-5-5-5-5-4-4-4-4-2-2-2-2-2-2-2-2-2-2-2-3/15\-3-3-3-3-3-3-3-3-|
|--3-3-3-3-3-3-3-3-2-2-2-2---------0-0-0-0-0-0-0-3/15\-----------------|
PM * * * * * * *     * * *   * *     * * * * * *         * * * * * * *

(Guitar 1)
|--7--7--7--7--------------------7--7--7--7-------------------|
|--8--8--8--8---7-7-7-7-7-7-7----8--8--8--8---13131313131313--|
|--7--7--7--7---7-7-7-7-7-7-7----7--7--7--7---12121212121212--|
|-------------------------------------------------------------|
|-------------------------------------------------------------|
|-------------------------------------------------------------|
(Guitar 2)
|-------------------------------------------------------------------|
|-------------------------------------------------------------------|
|--N--N--N--N/15\--------4-4-4-4--------------------5-5-5-5-5-5-5-5-|
|--X--X--X--X/15\4-4-4-4-4-4-4-4-2-2-2-2-2-2-2-2/15\5-5-5-5-5-5-5-5-|
|--T--T--T--T/15\4-4-4-4-2-2-2-2-2-2-2-2-2-2-2-2/15\3-3-3-3-3-3-3-3-|
|----------------2-2-2-2---------0-0-0-0-0-0-0-0/15\----------------|
                   * * *   * *     * * * * * *        * * * * * * *
(Guitar 1)
|--7--7--7--7----------------------12--12--12--12--------------------|
|--8--8--8--8---7-7-7-1010-1212----13--13--13--13-----8-10---8-10~~--|
|--7--7--7--7---7-7-7--9-9-1111---------------------7------7---------|
|--------------------------------------------------------------------|
|--------------------------------------------------------------------|
|--------------------------------------------------------------------|

(Guitar 2)
|-------------------------------|
|-------------------------------|
|-2-----------5-----------------|
|-2-----------5------------/15--|
|-0-----------3---3-4-5-6-7/15--|
|--------------------------/15--|

(Guitar 1)
|-------------------------------|
|-------------------------------|
|-----------------5-4-7-4-------|
|-7-9-7-5-7-9-7-5---------5-4-0-|
|-------------------------------|
|-------------------------------|

(Chorus)
(Guitar 2)
|-----------------------------------------------------------------|
|-----------------------------------------------------------------|
|-----------------4-4-4-4-4-4-4-4-5-5-5-5-5-5-5-5-7-7-7-7-6-6-6-6-|
|-5-5-5-5-5-5-5-5-4-4-4-4-4-4-4-4-5-5-5-5-5-5-5-5-X-X-X-X-X-X-X-X-|
|-5-5-5-5-5-5-5-5-2-2-2-2-2-2-2-2-3-3-3-3-3-3-3-3-5-5-5-5-4-4-4-4-| (X2)
|-3-3-3-3-3-3-3-3-------------------------------------------------|

(Guitar 1)
|-------------------------------------------------------------------------|
|-------------------------------------------------------------------------|
|-T-T-T-T-T-T-T-T-E-E-E-E-E-T-9b-14-14-14-14-T-T-T-T-16-16-16-17-14-14/16-|
|-X-X-X-X-X-X-X-X-X-X-X-X--------X--X--X--X--X-X-X-X-X--X--X--X--X--X-/X--|
|-N-N-N-N-N-N-N-N-9-9-9-9--------12-12-12-12-N-N-N-N-14-14-14/15-12-12/14-|
|-------------------------------------------------------------------------|

(continued)
|----|
|----|
|-14-|
|-X--| (All X2)
|-12-|
|----|

(Bridge 2)
(Guitar 1)
|---------------------------------------------------------|
|---------------------------------------------------------|
|-----------------------------------------5-5-5-5-4-4-4-4-|
|-5-5-5-5-4-4-4-4-5-5-5-5-4-4-4-4-2-2-2-2-5-5-5-5-4-4-4-4-|
|-5-5-5-5-4-4-4-4-5-5-5-5-4-4-4-4-2-2-2-2-3-3-3-3-2-2-2-2-|
|-3-3-3-3-2-2-2-2-3-3-3-3-2-2-2-2-0-0-0-0-----------------|

(Guitar 1)
|------------|
|------------|
|--T\E-T\E~--|
|--x-X-X-X---|
|--N\9-N\9~--|
|------------|

(Guitar 1)
|--------------------------------------------------------|
|--------------------------------------------------------|
|--1617161716171617----19191919191919192121212123232323--|
|---X-X-X-X-X-X-X-X-----X-X-X-X-X-X-X-X-X-X-X-X-X-X-X-X--|
|--1415141514151415----17171717171717171919191921212121--|
|--------------------------------------------------------|

(Solo)
(Guitar 1)
|-------------------------------------------------------------------|
|-------------------------------------------------------------------|
|----------------------------------4-4-4-4-4-4-4-4-4-4-4-4-4-4-4-4--|
|--5-5-5-5-5-5-5-5-5-5-5-5-5-5-5-5-4-4-4-4-4-4-4-4-4-4-4-4-4-4-4-4--|
|--5-5-5-5-5-5-5-5-5-5-5-5-5-5-5-5-2-2-2-2-2-2-2-2-2-2-2-2-2-2-2-2--|
|--3-3-3-3-3-3-3-3-3-3-3-3-3-3-3-3----------------------------------|
(continued)
|-------------------------------------------------------------------|
|-------------------------------------------------------------------|
|--5-5-5-5-5-5-5-5-5-5-5-5-5-5-5-5-7-7-7-7-7-7-7-7-7-7-7-7-7-7-7-7--|
|--5-5-5-5-5-5-5-5-5-5-5-5-5-5-5-5-7-7-7-7-7-7-7-7-7-7-7-7-7-7-7-7--| (X2)
|--3-3-3-3-3-3-3-3-3-3-3-3-3-3-3-3-5-5-5-5-5-5-5-5-5-5-5-5-5-5-5-5--|
|-------------------------------------------------------------------|

(Guitar 2)
|-------------------------------------------------------------------|
|------------------------------------8-8~---------------------------|
|----------4-5-5-7-7^(9)~-7p5-7~---7-------4h5p4-2h4p2-0h2p0--------|
|--5~-5~-5---------------------------------------------------2------|
|--------------------------------------------------------------3~~--|
|-------------------------------------------------------------------|
(continued)
|-------------------------5----------------|
|---------------------------7--------------|
|--2p0------------------------7-5----------|
|------2h4p2-0h2p0----------------7-5-4~~--|
|------------------2-0~~-------------------|
|------------------------------------------|
(continued)
|------------------------------------------------------------|
|--3-----3-----3-----3-----3-----3-----3-----3---------------|
|--5^(7)-5^(7)-5^(7)-5^(7)-5^(7)-5^(7)-5^(7)-5^(7)~--5-4-2~--|
|------------------------------------------------------------|
|------------------------------------------------------------|
|------------------------------------------------------------|
(continued)
|--------7------------7----------|
|------8---8~-------8---8~~--15--|
|--7h9--------5h7h9--------------|
|--------------------------------|
|--------------------------------|
|--------------------------------|
(continued)
|--17p15----19p15----17p15----19p15----17p15----19p15----17p15----19p15------|
|--------15-------15-------15-------15-------15-------15-------15-------15---|
|----------------------------------------------------------------------------|
|----------------------------------------------------------------------------|
|----------------------------------------------------------------------------|
|----------------------------------------------------------------------------|
(continued)
|--20p15----19p15----17p15----19p15-----19-17-15-15------15------15-------|
|--------15-------15-------15-------15-----------18^(20)-18^(20)-18^(20)--|
|-------------------------------------------------------------------------|
|-------------------------------------------------------------------------|
|-------------------------------------------------------------------------|
|-------------------------------------------------------------------------|

(Guitar 1)
|----------------------------------------|
|----------------------------------------|
|-T-9-7-9-T--T-9-7-9-T--T-9-7-9-T-7-9-T--|
|-X-X-X-X-X--X-X-X-X-X--X-X-X-X-X-X-X-X--|
|-N-7-5-7-N--N-7-5-7-N--N-7-5-7-N-5-7-N--|
|----------------------------------------|
(continued)
|-----------------------------------------|
|-----------------------------------------|
|-T-9-7-9-T--T-9-7-14-T--T-9-7-9-T-7-9-T--| (All X4)
|-X-X-X-X-X--X-X-X-X--X--X-X-X-X-X-X-X-X--|
|-N-7-5-7-N--N-7-5-12-N--N-7-5-7-N-5-7-N--|
|-----------------------------------------|


(Guitar 2)
e|-------------------------------------------------------------------|
B|-------------------------------------------------------------------|
G|----------------------------------4-4-4-4-4-4-4-4-4-4-4-4-4-4-4-4--|
D|--5-5-5-5-5-5-5-5-5-5-5-5-5-5-5-5-4-4-4-4-4-4-4-4-4-4-4-4-4-4-4-4--|
A|--5-5-5-5-5-5-5-5-5-5-5-5-5-5-5-5-2-2-2-2-2-2-2-2-2-2-2-2-2-2-2-2--|
E|--3-3-3-3-3-3-3-3-3-3-3-3-3-3-3-3----------------------------------|
(continued)
e|-------------------------------------------------------------------|
B|-------------------------------------------------------------------|
G|--5-5-5-5-5-5-5-5-5-5-5-5-5-5-5-5-7-7-7-7-7-7-7-7-7-7-7-7-7-7-7-7--|
D|--5-5-5-5-5-5-5-5-5-5-5-5-5-5-5-5-7-7-7-7-7-7-7-7-7-7-7-7-7-7-7-7--|
A|--3-3-3-3-3-3-3-3-3-3-3-3-3-3-3-3-5-5-5-5-5-5-5-5-5-5-5-5-5-5-5-5--|
E|-------------------------------------------------------------------|

End on:
(Guitar 1)
e|------------------------|
B|------------------------|
G|------------------------|
D|--5------------------5--|
A|--5------------------5--|
E|--3------------------3--|
(Guitar 2)
e|----------------<5>-----|
B|----------------<5>-----|
G|------------------------|
D|--5-5-5-5-5-5--------5--|
A|--5-5-5-5-5-5--------5--|
E|--3-3-3-3-3-3--------3--|
comments
We did not receive enough feedback on this tab! Please rate:
print report bad tab
1 2 3 4 5
1 comment total.
0 reply
SwollenEyeballs wrote on October 29 2008, 02:37 pm

hey, right before verse 2...doesn't he bend the neck to make that weird sound with the harmonics?

|-----------------------[5]-(bend neck forward)--------|
|-----------------------[5]-(to detune/lower harmonics-|
|------------------------------------------------------|
|-5-5-5-5-5-5/44-5-5-5---------------------------------|
|-5-5-5-5-5-5/44-5-5-5---------------------------------|
|-3-3-3-3-3-3/22-3-3-3---------------------------------|

I want to post or [tab]
guest
You may want to rate the tab now too:
select rating
Please do not post tabs as comments. Select "correction" instead!