Oops, an error
Loading. Please wait.

Demolition Lovers Tab

ver2
ver2

Whole song

Interactive

More versions @911Tabs.com
7,419 views 19 this week
1 commentread comment
1 2 3 4 5
poor
x 1
Autoscroll
+/-
esc
set tempo
stop
Contributor
Hey! There's an official Ultimate Guitar app which is ideal
for learning songs when you're away from computer. Get the app
WARNING: You are trying to view
                                    content from Ultimate-Guitar.com
                                    in an unauthorized application,
                                    which is prohibited.

                                    Please use an official Ultimate
                                    Guitar Tabs application for iPhone,
                                    iPad or Android to access legitimate
                                    chords, guitar, bass, and drum tabs
                                    from Ultimate-Guitar.com database.

                                    Type "ultimate guitar tabs" in Apple
                                    App Store's or Android Market's
                                    search to find the application.
Song: Demolition Lovers
Artist: My Chemical Romance
Album: I Brought You My Bullets, You Brought Me Your Love

Intro/Verse
Guitar 1
e|--------------------------------------|
B|----------------------------5555-5555-|
G|---0---0-----0---0----------5555-4444-|
D|--1-1-1-1---6-6-6-6--0---0--3333-4444-|
A|-3---3---3/8---8----3-3-3-3-3333-3333-|x4
E|-------------------4---4--------------| 
Chorus
e|---------------------------------------------------------------------|
B|---------------------------------------------------------------------|
G|-1010101010101010-12121212121212121212121212121212-13131313-15151515-|
D|--x-x-x-x-x-x-x-x--x-x-x-x-x-x-x-x-x-x-x-x-x-x-x-x--x-x-x-x--x-x-x-x-|
A|--8-8-8-8-8-8-8-8-10101010101010101010101010101010-11111111-13131313-|
E|---------------------------------------------------------------------| 
e|-----------------------------------------------|
B|-----------------------------------------------|
G|-1010101010101010-88888888-99999999-151515-999-|
D|--x-x-x-x-x-x-x-x-xxxxxxxx-xxxxxxxx--x-x-x-xxx-|
A|--8-8-8-8-8-8-8-8-66666666-77777777-131313-777-|
E|-----------------------------------------------| 
Verse 2
Guitar 1
e|--------------------------------------|
B|----------------------------5555-5555-|
G|---0---0-----0---0----------5555-4444-|
D|--1-1-1-1---6-6-6-6--0---0--3333-4444-|
A|-3---3---3/8---8----3-3-3-3-3333-3333-|x2
E|-------------------4---4--------------| 
Guitar 2
e|--------------------------|
B|-----6\3-3-3h4-3-1-3------|
G|-5/8----------------3-1-0-|
D|--------------------------|
A|--------------------------|
E|--------------------------|
Bridge
Guitar 1
e|-----------------------------------------------------------------|
B|---4-3---4-3---4---4-4---4-4---6---4-3---4-3---4---4-4---4-4---4-|
G|-0-----0-----0---0-----0-----0---0-----0-----0---0-----4-----0---|
D|-----------------------------------------------------------------|
A|-----------------------------------------------------------------|x2
E|-----------------------------------------------------------------| 
Guitar 2
e|------------------------------------------|
B|------------------------------------------|
G|------------------------------------------|
D|-66666666-88888888-99999999-10101010-8888-|
A|-66666666-88888888-99999999-10101010-8888-|
E|-44444444-66666666-77777777--8-8-8-8-6666-|
   ******** ******** ******** * * * * ****

e|-----------------------------------------|
B|-----------------------------------------|
G|-----------------------------------------|
D|-66666666-88888888-99999999-1010-1010-88-|
A|-66666666-88888888-99999999-1010-1010-88-|
E|-44444444-66666666-77777777--8-8--8-8-66-|
   ******** ******** ******** 




Guitar 1
e|------------------------------------------|
B|------------------------------------------|
G|------------------------------------------|
D|-66666666-88888888-99999999-10101010-8888-|
A|-66666666-88888888-99999999-10101010-8888-|
E|-44444444-66666666-77777777--8-8-8-8-6666-|

e|----------------------------|
B|----------------------------|
G|----------------------------|
D|-66666666-88888888-99999999-|
A|-66666666-88888888-99999999-|
E|-44444444-66666666-77777777-|

Guitar 2   
e|----------------------------------------------------|
B|----------------------------------------------------|
G|-12121212121212121212121212121212-101010101010-1313-|
D|--x-x-x-x-x-x-x-x-x-x-x-x-x-x-x-x--x-x-x-x-x-x--x-x-|
A|-10101010101010101010101010101010--8-8-8-8-8-8-1111-|
E|----------------------------------------------------|
e|-----------------------------------------------------------------|
B|-----------------------------------------------------------------|
G|-8-8-8-8-7-7-7-7-8-8-8-8-8-8-8-8-8-8-8-8-8-8-8-8-7-7-7-7-7-7-7-7-|
D|-x-x-x-x-x-x-x-x-x-x-x-x-x-x-x-x-x-x-x-x-x-x-x-x-x-x-x-x-x-x-x-x-|
A|-6-6-6-6-5-5-5-5-6-6-6-6-6-6-6-6-6-6-6-6-6-6-6-6-5-5-5-5-5-5-5-5-|
E|-----------------------------------------------------------------|

Guitar 1
e|------------|
B|------------|
G|------------|
D|------------|
A|-5-66--5-66-|
E|------------|

Guitar 2
e|------------|
B|------------|
G|-8-8--10-10-|
D|-x-x---x--x-|
A|-6-6---8--8-|
E|------------|

Guitar 1
e|-------------------------------------------------|   e|---------------|
B|-------8h9---------------------------------------|   B|---------------|
G|-7h8p7----8-8--7-7--8/10--7-7--7-5-5--5-5-5--5-5-|   G|-------------4-|  
D|------------x--x-x--x--x--x-x--x-x-x--x-x-x--x-x-|x2 D|-5-5-5-5-5-5-5-|
A|------------6--5-5--6--8--5-5--5-3-3--3-3-3--3-3-|   A|-2-2-2-2-2-2-3-| 
E|-------------------------------------------------|   E|---------------|
                                                          * * * * * *
Guitar 2
e|---------------------------------------------|    e|-----------------|
B|---------------------------------------------|    B|-----------------|
G|---------------------------------------------|    G|---------------5-|
D|-1010--66--88-9-9-9-9--66--6-4-4--4-5-5--5-5-|    D|-5-5-5-5-5-5-5-5-|
A|-1010--66--88-9-9-9-9--66--6-4-4--4-5-5--5-5-|x2  A|-3-3-3-3-3-3-3-3-|
E|--8-8--44--66-7-7-7-7--44--4-2-2--2-3-3--3-3-|    E|-----------------|
                                                      * * * * * * *  
Guitar 1
e|------------------------------------------|
B|------------------------------------------|
G|------------------------------------------|
D|-66666666-88888888-99999999-10101010-8888-|
A|-66666666-88888888-99999999-10101010-8888-|x4
E|-44444444-66666666-77777777--8-8-8-8-6666-|







Guitar 2
e|-----------------------------------------------------------------|
B|-----------------------------------------------------------------|
G|-5-5-5-5-5-5-5-5-7-7-7-7-7-7-7-7-7-7-7-7-7-7-7-7-8-8-8-8-8-8-8-8-|
D|-x-x-x-x-x-x-x-x-x-x-x-x-x-x-x-x-x-x-x-x-x-x-x-x-x-x-x-x-x-x-x-x-|
A|-3-3-3-3-3-3-3-3-5-5-5-5-5-5-5-5-5-5-5-5-5-5-5-5-6-6-6-6-6-6-6-6-|
E|-----------------------------------------------------------------|

e|-----------------------------------------------------------------|
B|-----------------------------------------------------------------|
G|-8-8-8-8-8-8-8-8-8-8-8-8-8-8-8-8-7-7-7-7-7-7-7-7-8-8-8-8-8-8-8-8-|
D|-x-x-x-x-x-x-x-x-x-x-x-x-x-x-x-x-x-x-x-x-x-x-x-x-x-x-x-x-x-x-x-x-|
A|-6-6-6-6-6-6-6-6-6-6-6-6-6-6-6-6-5-5-5-5-5-5-5-5-6-6-6-6-6-6-6-6-|
E|-----------------------------------------------------------------|

e|----------------------------------------------------|
B|----------------------------------------------------|
G|-12121212121212121212121212121212-101010101010-1313-|
D|--x-x-x-x-x-x-x-x-x-x-x-x-x-x-x-x--x-x-x-x-x-x--x-x-|
A|-10101010101010101010101010101010--8-8-8-8-8-8-1111-|
E|----------------------------------------------------|
e|-----------------------------------------------------------------|
B|-----------------------------------------------------------------|
G|-8-8-8-8-7-7-7-7-8-8-8-8-8-8-8-8-8-8-8-8-8-8-8-8-7-7-7-7-7-7-7-7-|
D|-x-x-x-x-x-x-x-x-x-x-x-x-x-x-x-x-x-x-x-x-x-x-x-x-x-x-x-x-x-x-x-x-|
A|-6-6-6-6-5-5-5-5-6-6-6-6-6-6-6-6-6-6-6-6-6-6-6-6-5-5-5-5-5-5-5-5-|
E|-----------------------------------------------------------------|

Stop

Guitar 1
e:|-----6-------6-------6---------------4-------4-------3---4---6-|
B:|-----------------------------9-----------3-------4-------------|
G:|-8-------8-------8-------7-----5/7-5---5---5---5---5---5---5---|
D:|---8---8---8---8---8---8---8-----------------------------------|
A:|---------------------------------------------------------------|x9
E:|---------------------------------------------------------------|

Guitar 2
e|-----------------|
B|-----------------|
G|-----------------|
D|-1010--1010--5-6-|
A|-1010--1010--5-6-|
E|--8-8---8-8--5-6-|

Solo
Guitar 1
e|----------------------------------------------------------------------------|
B|----------------------------------------------------------------------------|
G|-88888887-8-8-8-8-8-8-8-8--10-10-10-8-8-8-8-8-8-8-8-7-7-7-7-7-7-7-7-5-5-5-7-|
D|----------------------------------------------------------------------------|
A|----------------------------------------------------------------------------|
E|----------------------------------------------------------------------------|

e|--------------------------------------------------------------------------------------|
B|-------------------------------------8-9-8h9-8~----------------8/9--11-11-11-11-11-11-|
G|-8-8-8-8-8-8-8-8--10-10-10-8-10-10-10----------10-10-8-8-8-8\7------------------------|
D|--------------------------------------------------------------------------------------|
A|--------------------------------------------------------------------------------------|
E|--------------------------------------------------------------------------------------|

e|-10-11-10-11~-11-10-10-10-888/10-11-11-11-13-13-13-10/11-16-16-16-15-16-15-|
B|---------------------------------------------------------------------------|
G|---------------------------------------------------------------------------|
D|---------------------------------------------------------------------------|
A|---------------------------------------------------------------------------|
E|---------------------------------------------------------------------------|

e|-{feedbackish}--------------------------------------------------------|
B|------------------9-9-9-11-11-11-11/16~-16-15-15-15-15-15-13-13-13-11-|
G|----------------------------------------------------------------------|
D|----------------------------------------------------------------------|
A|---------------11\----------------------------------------------------|
E|----------------------------------------------------------------------|

e|-----------------------------------------|
B|-11/13--9-9-9999-11-11-9-9-9-8h9p8-8-8-8-|
G|-----------------------------------------|
D|-----------------------------------------|
A|-----------------------------------------|
E|-----------------------------------------|

Guitar 2
e|-----------------------------------------------------------------------|
B|-----------------------------------------------------------------------|
G|----------------------------------5--5-5-5-5-5-5-5---------------------|
D|-6--6-6-6-6-6-6-6-6-6-6-6-6-6-6-6-5--5-5-5-5-5-5-5-5-5-5-5-6~-5~-6~-5~-|
A|-6--6-6-6-6-6-6-6-6-6-6-6-6-6-6-6-3--3-3-3-3-3-3-3-5-5-5-5-6~-5~-6~-5~-|
E|-4--4-4-4-4-4-4-4-4-4-4-4-4-4-4-4------------------3-3-3-3-4~-3~-4~-3~-|

e|----------------------------------------------------------------------------------|
B|----------------------------------------------------------------------------------|
G|----------------------------------5--5-5-5-5-5-5-5--------------------------------|
D|-6--6-6-6-6-6-6-6-6-6-6-6-6-6-6-6-5--5-5-5-5-5-5-5-5-5-5-5-----5-5-----5-5--5-5-5-|
A|-6--6-6-6-6-6-6-6-6-6-6-6-6-6-6-6-3--3-3-3-3-3-3-3-5-5-5-5-6-6-6-6-6-6-6-6--5-5-5-|
E|-4--4-4-4-4-4-4-4-4-4-4-4-4-4-4-4------------------3-3-3-3-3-3-3-3-3-3-3-3--3-3-3-|
                                                             * *     * *
e|------------------------------------------------------------|
B|------------------------------------------------------------|
G|------------------------------------------------------------|
D|-6-6-6-6-88-88-88-88-810-5-5-5-5-----5------5------5------5-|
A|-6-6-6-6-88-88-88-88-810-5-5-5-5-6-6-6--6-6-6--6-6-6--6-6-6-|
E|-4-4-4-4-66-66-66-66-6-8-3-3-3-3-3-3-3--3-3-3--3-3-3--3-3-3-|
                                   * *    * *    * *    * * 
e|-----------------------------------|
B|-----------------------------------|
G|-----------------------------------|
D|-6-6-6-6-88-88-88-88-810-5-5555-5~-|
A|-6-6-6-6-88-88-88-88-810-5-5555-5~-|
E|-4-4-4-4-66-66-66-66-6-8-3-3333----|
                           * 
e|----------------------------------------------------------------------|
B|----------------------------------------------------------------------|
G|----------------------------------------------------------------------|
D|-6--6-----6-6-----6-6-----6-6---------10-1010101010101010101010101010-|
A|-6--6-6-6-6-6-6-6-6-6-6-6-6-6-6-6-6-6-10-1010101010101010101010101010-|
E|-4--4-4-4-4-4-4-4-4-4-4-4-4-4-4-4-4-4--8--8-8-8-8-8-8-8-8-8-8-8-8-8-8-|
        * *     * *     * *     * * * * 
e|---------------------------------------------------------------------------------|
B|---------------------------------------------------------------------------------|
G|---------------------------------------------------------------------------------|
D|-5--5-5-5--5-5-5--5-5-5--5-5--6--6-6-----------------------10--10-10-10-10-10-10-|
A|-6--6-6-6--6-6-6--6-6-6--6-6--6--6-6-6-6-6-6--6-6--6-6-6-6-10--10-10-10-10-10-10-|
E|-3--3-3-3--3-3-3--3-3-3--3-3--4--4-4-4-4-4-4--4-4--4-4-4-4--8---8-8---8--8--8--8-|
                                       * * * *  * *  * * * *
e|-------------------------|
B|-------------------------|
G|-------------------------|
D|-10-10-10--10-10-10--5-5-|
A|-10-10-10--10-10-10--5-5-|
E|--8--8--8---8--8--8--3-3-|
                                                     |Guitar 1|Guitar 2| 
e|---------------------------------------------------|--------|---------|
B|---------------------------------------------------|-99-----|---------|
G|---------------------------------------------------|-8877---|-55-55---|
D|-6-6-6-6-6-6-6-6-8-8-8-8-8-8-8-8-6-5-5-5-5-5-5-5-5-|---77---|-55-55---|
A|-6-6-6-6-6-6-6-6-8-8-8-8-8-8-8-8-6-5-5-5-5-5-5-5-5-|--------|-33-55---|
E|-4-4-4-4-4-4-4-4-6-6-6-6-6-6-6-6-4-3-3-3-3-3-3-3-3-|--------|----33---|

                                                   |Guitar 1|Guitar 2|    
e|-------------------------------------------------|--------|--------|
B|-------------------------------------------------|-99-----|--------|
G|-------------------------------------------------|-8877---|-55-----|
D|-6-6-6-6-6-6-6-6-8-8-8-8-8-8-8-8-5-5-5-5-5-5-5-5-|---77---|-55-55--|
A|-6-6-6-6-6-6-6-6-8-8-8-8-8-8-8-8-5-5-5-5-5-5-5-5-|--------|-33-55--|
E|-4-4-4-4-4-4-4-4-6-6-6-6-6-6-6-6-3-3-3-3-3-3-3-3-|--------|----33--|






Guitar 1
e|---------------------------|
B|---------------------------|
G|---------------------------|
D|---------------------------|
A|--6---3---------2-3-5-6~-5-|
E|-4-4/8-6-4-3-1/3-----------|

e|-------------------------------|
B|-------------------------------|
G|-------------------------------|
D|-------------------------------|
A|--6--------------2-5/8-6-6-5-6-|
E|-4-4/8-6-4-3-1/3---------------|

Guitar 2
e|-----------------------------------------------------------|
B|-----------------------------------------------------------|
G|-------------------------------------------------5555-5555-|
D|-6-6-6-6-6-6-6-6-8-8-8-8-8-8-8-8-9-9-9-9-9-9-9-9-5555-5555-|
A|-6-6-6-6-6-6-6-6-8-8-8-8-8-8-8-8-9-9-9-9-9-9-9-9-3333-5555-|x2
E|-4-4-4-4-4-4-4-4-6-6-6-6-6-6-6-6-7-7-7-7-7-7-7-7------3333-|

Guitar 1
e|------------------------------------|
B|------------------------------------|
G|-12/13131313\121212\10\8-8-8-8\7-7/-|
D|--x--x-x-x-x--x-x-x--x-x-x-x-x-x-x--|
A|-10/11111111\101010\-8\6-6-6-6\5-5--|x3
E|------------------------------------|

e|--------------------|
B|--------------------|
G|-13-13\12/13\12\10/-|
D|--x--x--x—x--x--x---|
A|-11-11\10/11\10\-8--|
E|--------------------|

e|------------------------------------|
B|------------------------------------|
G|-12/13131313\121212\10\8-8-8-8\7-7/-|
D|--x--x-x-x-x--x-x-x--x-x-x-x-x-x-x--|
A|-10/11111111\101010\-8\6-6-6-6\5-5/-|x3
E|------------------------------------| 

e|-----------------|
B|-----------------|
G|-8-8-8-8-8-8-8-8-|
D|-x-x-x-x-x-x-x-x-|
A|-6-6-6-6-6-6-6-6-|
E|-----------------|

Guitar 2
e|-----------------------------------------------------------------------------------|
B|-----------------------------------------------------------------------------------|
G|-----------------------------------------------------------------------------------|
D|-666666666666666668888888888888888666666666666666610101010101010101010101010101010-|
A|-666666666666666668888888888888888666666666666666610101010101010101010101010101010-|x2
E|-4444444444444444488888888888888884444444444444444-8-8-8-8-8-8-8-8-8-8-8-8-8-8-8-8-|
comments
We did not receive enough feedback on this tab! Please rate:
print report bad tab
1 2 3 4 5
1 comment total.
0 reply
srammfanka wrote on July 21 2014, 09:26 am

Lack of accuracy. Clearly wrong.

I want to post or [tab]
guest
You may want to rate the tab now too:
select rating
Please do not post tabs as comments. Select "correction" instead!