Oops, an error
Loading. Please wait.

Desert Song Tab

ver5
ver5

Intro

Whole song

More versions @911Tabs.com
840 views 1 this week
1 commentread comment
1 2 3 4 5
not so good
x 1
Autoscroll
+/-
esc
set tempo
stop
Contributor
WARNING: You are trying to view
                                    content from Ultimate-Guitar.com
                                    in an unauthorized application,
                                    which is prohibited.

                                    Please use an official Ultimate
                                    Guitar Tabs application for iPhone,
                                    iPad or Android to access legitimate
                                    chords, guitar, bass, and drum tabs
                                    from Ultimate-Guitar.com database.

                                    Type "ultimate guitar tabs" in Apple
                                    App Store's or Android Market's
                                    search to find the application.
#----------------------------------PLEASE NOTE---------------------------------#
#This file is the author's own work and represents their interpretation of the #
#song. You may only use this file for private study, scholarship, or research. #
#------------------------------------------------------------------------------##


          Em                  Cm/E                   G                   C/G
      0 2 2 0 0 0          0 3 1 0 1 3          3 2 0 0 3 3          3 x 2 0 1 0

           C                  D/F#                  G/B                  Am7
      x 3 2 0 1 0          2 0 0 2 3 2          x 2 0 0 0 3          x 0 2 0 1 3

 Intro
  Q=125
      Em                                                Cm/E
 3/4
  Gtr I
      |   |||||   |||| |  |    |  |  |  |  |       | ||| |
      /   /////   //// /  /    /  /  /  /  /       / /// /

  Gtr II  Gtr II
|-------|-------|-----------|-------------------|-------12--|
|-------|-------|-----12-12-|-12-10-10-10-------|-----------|
|-------|-------|-----------|-------------12-12-|-12--------|
|-------|-------|-----------|-------------------|-----------|
|-------|-------|-----------|-------------------|-----------|
|-------|-------|-----------|-------------------|-----------|


                                            Em
   | ||| |     | ||| |     | ||| |    || | | |    |||||
   / /// /     / /// /     / /// /    // / / /    /////

|-----------|-------12--|-----------|-----------|--------|
|-12----12--|-----------|-12----12--|-------13--|--------|
|-----------|-11--------|-----------|---12------|--------|
|-----------|-----------|-----------|-----------|--------|
|-----------|-----------|-----------|-----------|--------|
|-----------|-----------|-----------|-----------|--------|


                                        Cm/E
  |||| |       |  |  |  |  |       | ||| |     | ||| |     | ||| |
  //// /       /  /  /  /  /       / /// /     / /// /     / /// /

|-----------|-------------------|-------12--|-----------|-------12-|
|-----12-12-|-12-10-10-10-------|-----------|-12----12--|----------|
|-----------|-------------12-12-|-12--------|-----------|-11-------|
|-----------|-------------------|-----------|-----------|----------|
|-----------|-------------------|-----------|-----------|----------|
|-----------|-------------------|-----------|-----------|----------|


 Verse
                    Em
                     |     |  |  |  |  |     |  |  |  |  |     |  |  |  |  |
                     /     /  /  /  /  /     /  /  /  /  /     /  /  /  /  /

|-----------|-----------|-----------------|-----------------|------------------|
|-12--------|-----------|-----------------|-----------------|------------------|
|-----0-----|-------12--|-12-12-12-12S11--|-11-11-11-11S14--|-14-14-14-14S11---|
|--------0--|----1------|-----------------|-----------------|------------------|
|-----------|-3-----10--|-10-10-10-10S=9--|--9--9--9--9S12--|-12-12-12-12S=9---|
|-----------|-----------|-----------------|-----------------|------------------|


              Cm/E
   |  |  |  |  |     |  |  |  |  |
   /  /  /  /  /     /  /  /  /  /

|-----------------|-----------------|
|-----------------|-----------------|
|-11-11-11-11-11--|-11-11-11-11S12--|
|-----------------|-----------------|
|--9--9--9--9--9--|--9--9--9--9S10--|
|-----------------|-----------------|


                                                  Em
   |  |  |  |  |     |  |  |  |  |     |  |  |  |  |
   /  /  /  /  /     /  /  /  /  /     /  /  /  /  /

|-----------------|-----------------|----------------|
|-----------------|-----------------|----------------|
|-12-12-12-12S14--|-14-14-14-14S11--|-11-11-11-11S12-|
|-----------------|-----------------|----------------|
|-10-10-10-10S12--|-12-12-12-12S=9--|--9--9--9--9S10-|
|-----------------|-----------------|----------------|


   |  |  |  |  |     |  |  |  |  |     |  |  |  |  |
   /  /  /  /  /     /  /  /  /  /     /  /  /  /  /

|-----------------|-----------------|-----------------|
|-----------------|-----------------|-----------------|
|-12-12-12-12S11--|-11-11-11-11S14--|-14-14-14-14S11--|
|-----------------|-----------------|-----------------|
|-10-10-10-10S=9--|--9--9--9--9S12--|-12-12-12-12S=9--|
|-----------------|-----------------|-----------------|


              Cm/E
   |  |  |  |  |     |  |  |  |  |
   /  /  /  /  /     /  /  /  /  /

|-----------------|------------------|
|-----------------|------------------|
|-11-11-11-11-11--|-11-11-11-11S12---|
|-----------------|------------------|
|--9--9--9--9--9--|--9--9--9--9S10---|
|-----------------|------------------|


                                                  G
   |  |  |  |  |     |  |  |  |  |     |  |  |  |  |
   /  /  /  /  /     /  /  /  /  /     /  /  /  /  /

|-----------------|-----------------|-----------------|
|-----------------|-----------------|-----------------|
|-12-12-12-12S14--|-14-14-14-14S11--|-11-11-11-11S16--|
|-----------------|-----------------|-----------------|
|-10-10-10-10S12--|-12-12-12-12S=9--|--9--9--9--9S14--|
|-----------------|-----------------|-----------------|


   |  |  |  |  |     |  |  |  |  |
   /  /  /  /  /     /  /  /  /  /

|-----------------|--------------------|
|-----------------|--------------------|
|-16-16-16-16S14--|-14-14-14-14S17-17--|
|-----------------|--------------------|
|-14-14-14-14S12--|-12-12-12-12S15-15--|
|-----------------|--------------------|


                                C/G
   |  |  |  |  |       |  |  | | |
   /  /  /  /  /       /  /  / / /

|-------------------|---------------|
|-------------------|---------------|
|-17-16-16-16-14-14-|-14-14-14S=11--|
|-------------------|---------------|
|-15-14-14-14-12-12-|-12-12-12S==9--|
|-------------------|---------------|


   |  |  |  |  |     |  |  |  |  |     |  |  |  |  |
   /  /  /  /  /     /  /  /  /  /     /  /  /  /  /

|-----------------|-----------------|----------------|
|-----------------|-----------------|----------------|
|-11-11-11-11S12--|-12-12-12-12S14--|-14-14-14-14S11-|
|-----------------|-----------------|----------------|
|--9--9--9--9S10--|-10-10-10-10S12--|-12-12-12-12S=9-|
|-----------------|-----------------|----------------|


              G
   |  |  |  |  |     |  |  |  |  |     |  |  |  |  |
   /  /  /  /  /     /  /  /  /  /     /  /  /  /  /

|-----------------|-----------------|-------------------|
|-----------------|-----------------|-------------------|
|-11-11-11-11S16--|-16-16-16-16S14--|-14-14-14-14S17-17-|
|-----------------|-----------------|-------------------|
|--9--9--9--9S14--|-14-14-14-14S12--|-12-12-12-12S15-15-|
|-----------------|-----------------|-------------------|


                                C/G
   |  |  |  |  |       |  |  | | |
   /  /  /  /  /       /  /  / / /

|-------------------|----------------|
|-------------------|----------------|
|-17-16-16-16-14-14-|-14-14-14S=11---|
|-------------------|----------------|
|-15-14-14-14-12-12-|-12-12-12S==9---|
|-------------------|----------------|


                                Cm/E
   |  |  |  |  |     |  |  |  |  |     |  |  |  |  |
   /  /  /  /  /     /  /  /  /  /     /  /  /  /  /

|-----------------|-----------------|-----------------|
|-----------------|-----------------|-----------------|
|-11-11-11-11S12--|-12-12-12-12S14--|-14-14-14-14S11--|
|-----------------|-----------------|-----------------|
|--9--9--9--9S10--|-10-10-10-10S12--|-12-12-12-12S=9--|
|-----------------|-----------------|-----------------|


              Em
   |  |  |  |  |     |  |  |  |  |
   /  /  /  /  /     /  /  /  /  /

|-----------------|------------------|
|-----------------|------------------|
|-11-11-11-11S16--|-16-16-16-16-16---|
|-----------------|------------------|
|--9--9--9--9S14--|-14-14-14-14-14---|
|-----------------|------------------|


   |  |  |  |  |       |  |  |  |  |
   /  /  /  /  /       /  /  /  /  /

|-------------------|-------------------|
|-------------------|-------------------|
|-16-16-16-16S17-17-|-17-16-16-16-14-14-|
|-------------------|-------------------|
|-14-14-14-14S15-15-|-15-14-14-14-12-12-|
|-------------------|-------------------|


            Cm/E
   |  |  | | |     |  |  |  |  |     |  |  |  |  |
   /  /  / / /     /  /  /  /  /     /  /  /  /  /

|---------------|-----------------|------------------|
|---------------|-----------------|------------------|
|-14-14-14S=11--|-11-11-11-11S12--|-12-12-12-12S14---|
|---------------|-----------------|------------------|
|-12-12-12S==9--|--9--9--9--9S10--|-10-10-10-10S12---|
|---------------|-----------------|------------------|


                                Em
   |  |  |  |  |     |  |  |  |  |     |  |  |  |  |
   /  /  /  /  /     /  /  /  /  /     /  /  /  /  /

|-----------------|-----------------|-----------------|
|-----------------|-----------------|-----------------|
|-14-14-14-14S11--|-11-11-11-11-----|-----------------|
|-----------------|-------------14--|-14-14-14-14-14--|
|-12-12-12-12s=9--|--9--9--9--9-14--|-14-14-14-14-14--|
|-----------------|-------------12--|-12-12-12-12-12--|


   |  |  |  |  |     |  |  |  |  |
   /  /  /  /  /     /  /  /  /  /

|-----------------|------------------|
|-----------------|------------------|
|-----------------|------------------|
|-14-14-14-14-14--|-14-14-14-14-14---|
|-14-14-14-14-14--|-14-14-14-14-14---|
|-12-12-12-12-12--|-12-12-12-12-12---|


              C                                                       G
   |  |  |  |  |      |  ||||    |  |  | ||    | | | ||    |  |  |  |   |
   /  /  /  /  /      /  ////    /  /  / //    / / / //    /  /  /  /   /

|-----------------|-----------|-------------|-----------|--------------------|
|-----------------|-----------|-------------|-----------|--------------------|
|-------------12--|-(12)------|-------------|-----------|--------------------|
|-14-14-14-14-----|-----------|-------------|-----------|-10-10s12-12-(12)---|
|-14-14-14-14-10--|-(10)------|-10-10h12----|-14--10----|--------------------|
|-12-12-12-12-----|-----------|-------------|-----------|--------------------|


   Chorus
    G                        D/F#                    Em
     |  |  |  | |    | | | | |     | || ||    | || | |     | || | |
     /  /  /  / /    / / / / /     / // //    / // / /     / // / /

||-----------------|------------|-----------|------------|------------|
||o----------------|------------|-----------|------------|------------|
||-----------------|------------|-----------|------------|------------|
||--12-12-12-12s9--|-9-9-9-9s7--|-10--9--7--|-5--5-5-5-5S|=7--7-7-7-7-|
||o----------------|------------|-----------|------------|------------|
||-----------------|------------|-----------|------------|------------|


                    C                        G/B
  | || | |     | ||| |     | | || |    ||| | |      | | | ||
  / // / /     / /// /     / / // /    /// / /      / / / //

|------------|-----------|-----------|------------|---------------|
|------------|-----------|-----------|------------|---------------|
|------------|-----------|-----------|------------|---------------|
|-9--9-9-9-9S|=5----10-9-|-9-7--5-5--|---7-9-9-10-|-9-9-7--5-5----|
|------------|-----------|-----------|------------|---------------|
|------------|-----------|-----------|------------|---------------|


         Am7
  | | | ||    | | | | |    | | | |  |
  / / / //    / / / / /    / / / /  /

|-----------|------------|---------------|
|-----------|------------|---------------|
|-----------|------------|---------------|
|-5-5-5-----|------------|---------------|
|--------7--|-7-7-7-7s5--|-5-5-5-5-10-10-|
|-----------|------------|---------------|


                   1.
   |  |  |  | |     |  |  |  |  |
   /  /  /  / /     /  /  /  /  /

|----------------|------------------||-|
|----------------|-----------------o||-|
|----------------|------------------||-|
|----------------|----------10s12---||-|
|-10-10-10-10-7--|-10-10-10--------o||-|
|----------------|------------------||-|


  2.
  | | | | |    | | | |  |       |  |  |  |  |
  / / / / /    / / / /  /       /  /  /  /  /

|------------|---------------|-------------------|
|------------|---------------|-------------------|
|------------|---------------|-------------------|
|------------|---------------|-------------------|
|-7-7-7-7s5--|-5-5-5-5-10-10-|-10-10-10-10-10----|
|------------|---------------|-------------------|


   Interlude
    Cm/E                              Am7
     |  |  |  |  |  |   | | | | | |   | | | | | |   | | | | | |
     /  /  /  /  /  /   / / / / / /   / / / / / /   / / / / / /

                                                                 4x
||--------------------|-------------|-------------|--------------||----|
||o-------------------|-------------|-------------|-------------o||----|
||--------------------|-------------|-------------|--------------||----|
||--10-10-10-10-10-10-|-9-9-9-9-9-9-|-7-7-7-7-7-7-|-7-7-7-7-7-7--||----|
||o-------------------|-------------|-------------|-------------o||----|
||--------------------|-------------|-------------|--------------||----|


    Cm/E
      | || |    |  |       |  | | |||        |  | | | | |
      / // /    /  /       /  / / ///        /  / / / / /

||-------------------|----------------||-----------------|
||o------8--10s12-10-|-10s12-10-8----o||-10s12p10S8--10--|
||--7h9--------------|----------------||-----------------|
||-------------------|----------------||-----------------|
||o------------------|---------------o||-----------------|
||-------------------|----------------||-----------------|


      |  | | | | |   |  | | | | |   | | ||  |    |
      /  / / / / /   /  / / / / /   / / //  /    /

|-----------------|--------10--12-|-----------------|
|-10s12p10S8--10--|-10h12---------|--10---(10)-(10)-|
|-----------------|---------------|-----------------|
|-----------------|---------------|-----------------|
|-----------------|---------------|-----------------|
|-----------------|---------------|-----------------|


     Am7
      | | | | |  |    | | | | |  |
      / / / / /  /    / / / / /  /

|--------10--12-10-|-----10--12-10-|
|-10h12------------|-12------------|
|------------------|---------------|
|------------------|---------------|
|------------------|---------------|
|------------------|---------------|


   | | | | |  |    | | | | |  |    | | | | |  |
   / / / / /  /    / / / / /  /    / / / / /  /

|-----10--13-10-|-----10--12-10-|---------------|
|-12------------|-12------------|-10--12--13-12-|
|---------------|---------------|---------------|
|---------------|---------------|---------------|
|---------------|---------------|---------------|
|---------------|---------------|---------------|


                                                        G
   | | | | |  |    | | | | |  |    | | | | | |  | |  | | |
   / / / / /  /    / / / / /  /    / / / / / /  / /  / / /

|---------10----|---------------|-------------|--------------------------|
|-10--12-----12-|-10--12--13-12-|-10----------|--------------------------|
|---------------|---------------|-----12--11--|--------------------------|
|---------------|---------------|-------------|--10s12--12--(12)-(12)----|
|---------------|---------------|-------------|--------------------------|
|---------------|---------------|-------------|--------------------------|


   Chorus
    G                        D/F#                      Em
     |  |  |  | |    | | | | |     | || ||    | || | |     | || | |
     /  /  /  / /    / / / / /     / // //    / // / /     / // / /

||-----------------|------------|-----------|------------|------------|
||o----------------|------------|-----------|------------|------------|
||-----------------|------------|-----------|------------|------------|
||--12-12-12-12s9--|-9-9-9-9s7--|-10--9--7--|-5--5-5-5-5S|=7--7-7-7-7-|
||o----------------|------------|-----------|------------|------------|
||-----------------|------------|-----------|------------|------------|


                    C                        G/B
  | || | |     | ||| |     | | || |    ||| | |      | | | ||
  / // / /     / /// /     / / // /    /// / /      / / / //

|------------|-----------|-----------|------------|-------------|
|------------|-----------|-----------|------------|-------------|
|------------|-----------|-----------|------------|-------------|
|-9--9-9-9-9S|=5----10-9-|-9-7--5-5--|---7-9-9-10-|-9-9-7--5-5--|
|------------|-----------|-----------|------------|-------------|
|------------|-----------|-----------|------------|-------------|


         Am7
  | | | ||    | | | | |    | | | |  |
  / / / //    / / / / /    / / / /  /

|-----------|------------|---------------|
|-----------|------------|---------------|
|-----------|------------|---------------|
|-5-5-5-----|------------|---------------|
|--------7--|-7-7-7-7s5--|-5-5-5-5-10-10-|
|-----------|------------|---------------|


                    1.
   |  |  |  |  |     |  |  |  |  |
   /  /  /  /  /     /  /  /  /  /

|-----------------|-------------------||
|-----------------|------------------o||
|-----------------|-------------------||
|-----------------|----------10s12----||
|-10-10-10-10-10--|-10-10-10---------o||
|-----------------|-------------------||


 Outro
  2.
                                                          Em
   |  |  | ||    | | | | |    | | | |  |       |  |  |  | |
   /  /  / //    / / / / /    / / / /  /       /  /  /  / /

|--------------|------------|---------------|----------------|----|
|--------------|------------|---------------|----------------|----|
|--------------|------------|---------------|----------------|----|
|--------------|------------|---------------|----------------|----|
|-10-10-10--7--|-7-7-7-7s5--|-5-5-5-5-10-10-|-10-10-10-10-7--|----|
|--------------|------------|---------------|----------------|----|


    Em                                                       Cm/E
     |  || | |     | | |  ||     |   |  |  |  |      | | | |  |     | ||| |
     /  // / /     / / /  //     /   /  /  /  /      / / / /  /     / /// /

||---------------|------------|-------------------|----------12--|-----------|
||o--------------|------------|-----12-12-12-10---|-10-8-8-8-----|-12----12--|
||---------------|------------|---------0--0--0-0-|--0-0-0-0--0--|-----------|
||---------------|------------|-------------------|--------------|-----------|
||o-(7)--7--(7)--|-7--(7)--9--|-(9)---------------|--------------|-----------|
||---------------|------------|-------------------|--------------|-----------|


              1.                        2.
   | ||| |     | ||| |    || | | |       | || || |  | || | |     |
   / /// /     / /// /    // / / /       / // // /  / // / /     /

|-------12--|-----------|------------||-----------|-----------|-----|
|-----------|-12----12--|-------13--o||-12--------|-----------|-----|
|-11--------|-----------|---12-------||-----0-----|-----------|-----|
|-----------|-----------|------------||--------0--|-----------|-----|
|-----------|-----------|-----------o||-----------|-3--6--(6)-|-(6)-|
|-----------|-----------|-------12---||-----------|-----------|-----|



***************************************************************************************
* Generated using Power Tab Editor by Brad Larsen - http://powertab.guitarnetwork.org *
***************************************************************************************
comments
We did not receive enough feedback on this tab! Please rate:
print report bad tab
1 2 3 4 5
1 comment total.
0 reply
makin wrote on March 31 2009, 03:40 am

Rate please... i post the powertab file but i can't found it.

I want to post or [tab]
guest
You may want to rate the tab now too:
select rating
Please do not post tabs as comments. Select "correction" instead!