Oops, an error
Loading. Please wait.

Disenchanted Tab

ver5
ver5
More versions @911Tabs.com
12,745 views 14 this week
no commentswrite comment
1 2 3 4 5
accurate
x 3
Autoscroll
+/-
esc
set tempo
stop
Contributor
Difficulty
intermediate
WARNING: You are trying to view
                                    content from Ultimate-Guitar.com
                                    in an unauthorized application,
                                    which is prohibited.

                                    Please use an official Ultimate
                                    Guitar Tabs application for iPhone,
                                    iPad or Android to access legitimate
                                    chords, guitar, bass, and drum tabs
                                    from Ultimate-Guitar.com database.

                                    Type "ultimate guitar tabs" in Apple
                                    App Store's or Android Market's
                                    search to find the application.
Song: Disenchanted
Band: My Chemical Romance
Album: The Black Parade

Key:

*:- Palm mute
x:- String mute
~:- Let ring
/:- Slide
h:- Hammer on
p:- Pull off
^(#):- Bend to fret
r:- release

Gtr I: Ray Toro: Standard Tuning (e,B,G,D,A,E)
Gtr II: Frank Iero: Standard Tuning (e,B,G,D,A,E)

Intro:

Gtr I

e:|------------------------------------------------------------------|
B:|-3---3---3------------------------3---3---3-----------------------|
G:|---2---2---2-0---0---0---0-2-0------2---2---2-0---0---0---0-2-0---|
D:|-0-------------4---4---4-------4----------------4---4---4-------4-|
A:|-----------------5----------------2---------------2---------------|
E:|------------------------------------------------------------------|

e:|------------------------------------------------------------------|
B:|-3---3---3------------------------3---3---3-----------------------|
G:|---2---2---2-0---0---0---0-2-0------2---2---2-0---0---0---0-------|
D:|---------------4---4---4-------4----------------4---4---4---4-2-0-|
A:|----------------------------------0---------------0---------------|
E:|-3---------------3------------------------------------------------|


Verse I:

Gtr I

e:|----------------------------------|
B:|----------------------------------|
G:|-7~~~~--4~~~~---------2~~~--------|
D:|-7~~~~--4~~~~--5~~~~--2~~~--------|
A:|-5~~~~--2~~~~--5~~~~--0~~~--0~-1~-|
E:|---------------3~~~~--------------|

Gtr II

e:|-2~~~~---------3~~~~--------------|
B:|-3~~~~--3~~~~--3~~~~--2~~~--------|
G:|-2~~~~--4~~~~--0~~~~--2~~~--------|
D:|-0~~~~--4~~~~--0~~~~--2~~~--------|
A:|--------2~~~~--2~~~~--0~~~--0~-1~-|
E:|---------------3~~~~--------------|

Pre-Chorus:

Gtr I

e|---------------------------------------|
B|-3~~---------------------------3~~-----|
G|-4~~-------2~~-----------------4~~-----|
D|-4~~--2~~--2~~--7-7--7-7-7--7--4~~-----|
A|-2~~--2~~--0~~--5-5--5-4-4--4--2~~-----|
E|------0~~--------------------------3~~-|

e:|---------------------------------|
B:|---------------------------------|
G:|---------------------------------|
D:|-2-2-2-2-2-2-2-2-2-2-2-2-2-2-2-2-|
A:|-0-0-0-0-0-0-0-0-0-0-0-0-0-0-0-0-|
E:|---------------------------------|

Gtr II

e:|-------------------------------------------------|
B:|-------------------------------------------------|
G:|-------------------------------------------------|
D:|-4-4-4-4-4-4-4-4-----------------2-2-2-2-2-2-2-2-|
A:|-2-2-2-2-2-2-2-2-2-2-2-2-2-2-2-2-0-0-0-0-0-0-0-0-|
E:|-----------------0-0-0-0-0-0-0-0-----------------|

e:|------------------------------------------------|
B:|------------------------------------------------|
G:|------------------------------------------------|
D:|-7-7--7-7-7--7--4-4-4-4-4-4-4-4-----------------|
A:|-5-5--5-4-4--4--2-2-2-2-2-2-2-2-5-5-5-5-5-5-5-5-|
E:|--------------------------------3-3-3-3-3-3-3-3-|

e:|---------------------------------|
B:|---------------------------------|
G:|-2-2-2-2/4-4-4-4/6-6-6-6/7-7/9-9-|
D:|-x-x-x-x-x-x-x-x-x-x-x-x-x-x-x-x-|
A:|-0-0-0-0/2-2-2-2/4-4-4-4/5-5/7-7-|
E:|---------------------------------|

Chorus:

Gtr I

e:|-----------------------------------------------------------------|
B:|-8-8-8-7-7-7-7-7-8-8-8-7-7-7-7-7-8-8-8-7-7-7-7-7-8-8-8-7-7-7-7-7-|
G:|-7-7-7-7-7-7-7-7-7-7-7-7-7-7-7-7-7-7-7-7-7-7-7-7-7-7-7-7-7-7-7-7-|
D:|-x-x-x-x-x-x-x-x-x-x-x-x-x-x-x-x-x-x-x-x-x-x-x-x-x-x-x-x-x-x-x-x-|
A:|-5-5-5-5-5-5-5-5-5-5-5-5-5-5-5-5-x-x-x-x-x-x-x-x-x-x-x-x-x-x-x-x-|
E:|---------------------------------7-7-7-7-7-7-7-7-7-7-7-7-7-7-7-7-|

e:|-----------------------------------------------------------------|
B:|---------------------------------2-2-2-2-2-2-2-2-2-2-2-2-2-2-2-2-|
G:|-4-4-4-4-4-4-4-4-4-4-4-4-4-4-4-4-2-2-2-2-2-2-2-2-2-2-2-2-2-2-2-2-|
D:|-2-2-2-2-2-2-2-2-2-2-2-2-2-2-2-2-2-2-2-2-2-2-2-2-2-2-2-2-2-2-2-2-|
A:|-2-2-2-2-2-2-2-2-2-2-2-2-2-2-2-2-0-0-0-0-0-0-0-0-0-0-0-0-0-0-0-0-|
E:|-0-0-0-0-0-0-0-0-0-0-0-0-0-0-0-0---------------------------------|

Gtr II

e:|------------------------------------------------------------------------|
B:|------------------------------------------------------------------------|
G:|-121212/1111111111-121212/14/11111111-9-9-9/1111111111-9-9-9/11/7-7-7-7-|
D:|--x-x-x--x-x-x-x-x--x-x-x-x--x-x-x-x--x-x-x--x-x-x-x-x-x-x-x--x-x-x-x-x-|
A:|-101010/-9-9-9-9-9-101010/12/9-9-9-9--7-7-7/-9-9-9-9-9-7-7-7/-9/5-5-5-5-|
E:|------------------------------------------------------------------------|

e:|-----------------------------------------------------------------|
B:|-----------------------------------------------------------------|
G:|---------9-9-9-9---------9-9-9-9-2-2-2-2-2-2-2-2-2-2-2-2-2-2-2-2-|
D:|-2-2-2-2-x-x-x-x-2-2-2-2-x-x-x-x-2-2-2-2-2-2-2-2-2-2-2-2-2-2-2-2-|
A:|-2-2-2-2-7-7-7-7-2-2-2-2-7-7-7-7-0-0-0-0-0-0-0-0-0-0-0-0-0-0-0-0-|
E:|-0-0-0-0-0-0-0-0-0-0-0-0-0-0-0-0---------------------------------|


Verse II:

Gtr I

e:|----------------------------------|
B:|----------------------------------|
G:|-7~~~~----------------------------|
D:|-7~~~~--4~~~~---------2~~~--2~-4~-|
A:|-5~~~~--2~~~~--5~~~~--0~~~--0~-1~-|
E:|---------------3~~~~------------~-|

Gtr II

e:|-------14-----------10----------------------0--------|
B:|----------15-----------10--------------3-2-----------|
G:|-------------14~~~~-------12~~~------2---------------|
D:|-0~~~------------------------------2-----------------|
A:|---------------------------------0-------------0~-1~-|
E:|-----------------------------------------------------|


Repeat Pre-Chorus

Repeat Chorus

Solo: (Not sure)

Gtr I

e:|-17~~~~-18~~~~-20^(22)-18-17~~~~-18~~~~-20^(22)-18-|
B:|---------------------------------------------------|
G:|---------------------------------------------------|
D:|---------------------------------------------------|
A:|---------------------------------------------------|
E:|---------------------------------------------------|

e:|-21^(23)r21^(23)-19^(21)-19^(21)-19p17p15-17p15p14----15-|
B:|---------------------------------------------------17----|
G:|---------------------------------------------------------|
D:|---------------------------------------------------------|
A:|---------------------------------------------------------|
E:|---------------------------------------------------------|

e:|---------14---------14---------14-------------------------------------|
B:|-17^(19)----17^(19)----17^(19)----15h17p15p14h15p14----14-------------|
G:|----------------------------------------------------16----16-14h16p14-|
D:|----------------------------------------------------------------------|
A:|----------------------------------------------------------------------|
E:|----------------------------------------------------------------------|

e:|--------------------------------10~~~~-|
B:|---------------------------------------|
G:|----14--------------------11h12--------|
D:|-16----16-14h16p14-12~~~~--------------|
A:|---------------------------------------|
E:|---------------------------------------|

Gtr II

e:|------------------------------------|
B:|------------------------------------|
G:|-7~~---------------7~~--------------|
D:|-x------------8~~--x------------8~~-|
A:|-5~~----5-7-9-x----5~~----5-7-9-x---|
E:|------5-------6~~-------5-------6~~-|

e:|-------------------------------------------------------------|
B:|-------------------------------------------------------------|
G:|-------------------------------------------------------------|
D:|-7-7--7-7-7--7-4-4--4-2-2--2---------------------------------|
A:|-5-5--5-4-4--4-2-2--2-0-0--0-5-5-5-5-5-5-5-5-7-7-7-7-7-7-7-7-|
E:|-----------------------------3-3-3-3-3-3-3-3-5-5-5-5-5-5-5-5-|

Bridge:

Gtr I

e:|------------------------------------------------------------------|
B:|-3---3---3------------------------3---3---3-----------------------|
G:|---2---2---2-0---0---0---0-2-0------2---2---2-0---0---0---0-2-0---|
D:|-0-------------4---4---4-------4----------------4---4---4-------4-|
A:|-----------------5----------------2---------------2---------------|
E:|------------------------------------------------------------------|

e:|-----------------------------------------------------------------|
B:|-3---3---3-------------------------------------------------------|
G:|---2---2---2-0---0---0---0-2-0-----------------------------------|
D:|---------------4---4---4-------4-2-2-2-2-2-2-2-2-2-2-2-2-2-2-2-2-|
A:|---------------------------------0-0-0-0-0-0-0-0-0-0-0-0-0-0-0-0-|
E:|-3---------------3-----------------------------------------------|
PM                                  * * * * * * * * * * * * * * * *

Gtr II

e:|-----------------------------------------------------------------|
B:|-----------------------------------------------------------------|
G:|-----------------------------------------------------------------|
D:|-7-7-7-7-7-7-7-7-7-7-7-7-7-7-7-7-4-4-4-4-4-4-4-4-4-4-4-4-4-4-4-4-|
A:|-5-5-5-5-5-5-5-5-5-5-5-5-5-5-5-5-2-2-2-2-2-2-2-2-2-2-2-2-2-2-2-2-|
E:|-----------------------------------------------------------------|

e:|-------------------------------------------------|
B:|-------------------------------------------------|
G:|-------------------------------------------------|
D:|---------------------------------2-2-2-2-2-2-2-2-|
A:|-5-5-5-5-5-5-5-5-5-5-5-5-5-5-5-5-0-0-0-0-0-0-0-0-|
E:|-3-3-3-3-3-3-3-3-3-3-3-3-3-3-3-3-----------------|
PM                                  * * * * * * * *

e:|-------------------------------|
B:|-------------------------------|
G:|-2/4-4-4-4/6-6-6-6/7-7-7-7/6/4-|
D:|-x-x-x-x-x-x-x-x-x-x-x-x-x-x-x-|
A:|-0/2-2-2-2/4-4-4-4/5-5-5-5/4/2-|
E:|-------------------------------|

Repeat Chorus x2 (On the second repeat, there are a number of changes, I don't have them 
so here is all I have for it)

Gtr I

e:|-----------------------------------------------------------------|
B:|-8-8-8-7-7-7-7-7-8-8-8-7-7-7-7-7-8-8-8-7-7-7-7-7-8-8-8-7-7-7-7-7-|
G:|-7-7-7-7-7-7-7-7-7-7-7-7-7-7-7-7-7-7-7-7-7-7-7-7-7-7-7-7-7-7-7-7-|
D:|-x-x-x-x-x-x-x-x-x-x-x-x-x-x-x-x-x-x-x-x-x-x-x-x-x-x-x-x-x-x-x-x-|
A:|-5-5-5-5-5-5-5-5-5-5-5-5-5-5-5-5-x-x-x-x-x-x-x-x-x-x-x-x-x-x-x-x-|
E:|---------------------------------7-7-7-7-7-7-7-7-7-7-7-7-7-7-7-7-|

e:|-----------------------------------------------------------------|
B:|---------------------------------2-2-2-2-2-2-2-2-2-2-2-2-2-2-2-2-|
G:|-4-4---4-4-4---4-4-4---4-4-4---4-2-2-2-2-2-2-2-2-2-2-2-2-2-2-2-2-|
D:|-2-2---2-2-2---2-2-2---2-2-2---2-2-2-2-2-2-2-2-2-2-2-2-2-2-2-2-2-|
A:|-2-2---2-2-2---2-2-2---2-2-2---2-0-0-0-0-0-0-0-0-0-0-0-0-0-0-0-0-|
E:|-0-0---0-0-0---0-0-0---0-0-0---0---------------------------------|

Gtr II

e:|------------------------------------------------------------------------|
B:|------------------------------------------------------------------------|
G:|-121212/1111111111-121212/14/11111111-9-9-9/1111111111-9-9-9/11/7-7-7-7-|
D:|--x-x-x--x-x-x-x-x--x-x-x-x--x-x-x-x--x-x-x--x-x-x-x-x-x-x-x--x-x-x-x-x-|
A:|-101010/-9-9-9-9-9-101010/12/9-9-9-9--7-7-7/-9-9-9-9-9-7-7-7/-9/5-5-5-5-|
E:|------------------------------------------------------------------------|

e:|-----------------------------------------------------------------|
B:|-----------------------------------------------------------------|
G:|---------------------------------2-2-2-2-2-2-2-2-2-2-2-2-2-2-2-2-|
D:|-2-2---2-2-2---2-2-2---2-2-2---2-2-2-2-2-2-2-2-2-2-2-2-2-2-2-2-2-|
A:|-2-2---2-2-2---2-2-2---2-2-2---2-0-0-0-0-0-0-0-0-0-0-0-0-0-0-0-0-|
E:|-0-0---0-0-0---0-0-0---0-0-0---0---------------------------------|

Outro:

Gtr I

e:|------------------------------------------------------------------|
B:|-3---3---3------------------------3---3---3-----------------------|
G:|---2---2---2-0---0---0---0-2-0------2---2---2-0---0---0---0-2-0---|
D:|-0-------------4---4---4-------4----------------4---4---4-------4-|
A:|-----------------5----------------2---------------2---------------|
E:|------------------------------------------------------------------|

e:|--------------------------------------------------------------------2~~-|
B:|-3---3---3------------------------3---3---3-------------------------3~~-|
G:|---2---2---2-0---0---0---0-2-0------2---2---2-0---0---0---0---------2~~-|
D:|---------------4---4---4-------4----------------4---4---4---4-2-0~--0~~-|
A:|----------------------------------0---------------0---------------------|
E:|-3---------------3------------------------------------------------------|

Gtr II

e:|-------|
B:|-------|
G:|-7~~~~-|
D:|-x-----|
A:|-5~~~~-|
E:|-------|
comments
We did not receive enough feedback on this tab! Please rate:
print report bad tab
1 2 3 4 5
I want to post or [tab]
guest
You may want to rate the tab now too:
select rating
Please do not post tabs as comments. Select "correction" instead!