Oops, an error
Loading. Please wait.

Famous Last Words Tab

ver1
ver1
More versions @911Tabs.com
542,039 views 954 this week
208 commentsread comments
1 2 3 4 5
excellent!
x 252
Autoscroll
+/-
esc
set tempo
stop
Contributor
Hey! There's an official Ultimate Guitar app which is ideal
for learning songs when you're away from computer. Get the app
WARNING: You are trying to view
                                    content from Ultimate-Guitar.com
                                    in an unauthorized application,
                                    which is prohibited.

                                    Please use an official Ultimate
                                    Guitar Tabs application for iPhone,
                                    iPad or Android to access legitimate
                                    chords, guitar, bass, and drum tabs
                                    from Ultimate-Guitar.com database.

                                    Type "ultimate guitar tabs" in Apple
                                    App Store's or Android Market's
                                    search to find the application.
TRACK NO. 13 - FAMOUS LAST WORDS

UPDATES:
18/04/07 - Updated the solo! (it should be accurate now) :)

I dedicate this song to... The Banggugus!! Hahahah...
More power to the Banggugus!! ü

Ins.:
	Gtr 1 – Frank Iero (right speaker)
	Gtr 2 – Ray Toro (left speaker)

I.  VERSE 1

Gtr 2
e|-----------------------------------|-----------------------------------|
B|--6-6------------------------------|-----------------------------------|
G|--7-7------------------------------|-----------------------------------|
D|--7-7-7-7-7-7-7-7-7-7-7-7-5-5-5-5--|--------------------------7-7-7-7--|
A|--5-5-5-5-5-5-5-5-5-5-5-5-3-3-3-3--|--8-8-8-8-8-8-8-8-8-8-8-8-8-8-8-8--|
E|-----------------------------------|--6-6-6-6-6-6-6-6-6-6-6-6-5-5-5-5--|
 (continued)
e|-----------------------------------|-----------------------------------|
B|-----------------------------------|-----------------------------------|
G|--5-5-5-5-3-3-3-3------------------|-----------------------------------|
D|--5-5-5-5-5-5-5-5------------------|-----------------------------------|
A|--5-5-5-5-5-5-5-5-7-7-7-710101010--|--8-8-8-8-8-8-8-8-8-8-8-8-7-7-7-7--|
E|--3-3-3-3-3-3-3-3-5-5-5-5-5-5-5-5--|--6-6-6-6-6-6-6-6-8-8-8-8-8-8-8-8--|
(Figure the correct palm muting.)
(Uh-oh, thanks to Mathamology for correcting that ^^^ part :)

Then,
Gtr 1 (comes in with the church organ)
e|-----------------------------------|-----------------------------------|
B|-----------------------------------|-----------------------------------|
G|--7-7------------------------------|-----------------------------------|
D|--7-7------------------------------|--8-8------------------------------|
A|--5-5------------------------------|--8-8------------------------------|
E|-----------------------------------|--6-6------------------------------|
Gtr 2
e|-----------------------------------|-----------------------------------|
B|--6-6------------------------------|-----------------------------------|
G|--7-7------------------------------|-----------------------------------|
D|--7-7-7-7-7-7-7-7-7-7-7-7-5-5-5-5--|--8-8---------------------7-7-7-7--|
A|--5-5-5-5-5-5-5-5-5-5-5-5-3-3-3-3--|--8-8-8-8-8-8-8-8-8-8-8-8-8-8-8-8--|
E|-----------------------------------|--6-6-6-6-6-6-6-6-6-6-6-6-5-5-5-5--|

Gtr 1
e|-----------------------------------|-----------------------------------|
B|-----------------------------------|-----------------------------------|
G|-----------------------------------|------------------5----------------|
D|--5-5------------------------------|--8-8-------------5----------------|
A|--5-5------------------------------|--8-8-------------3----------------|
E|--3-3------------------------------|--6-6------------------------------|
Gtr 2
e|-----------------------------------|-----------------------------------|
B|-----------------------------------|-----------------------------------|
G|--5-5-5-5-3-3-3-3------------------|-----------------------------------|
D|--5-5-5-5-5-5-5-5------------------|--8-8------------------------------|
A|--5-5-5-5-5-5-5-5-7-7-7-710101010--|--8-8-8-8-8-8-8-8-8-8-8-8-7-7-7-7--|
E|--3-3-3-3-3-3-3-3-5-5-5-5-5-5-5-5--|--6-6-6-6-6-6-6-6-8-8-8-8-8-8-8-8--|


II. BREAKDOWN

Gtr 1
e|-------------------------------------|----------------------------------|
B|-------------------------------------|----------------------------------|
G|--7-7--------------7-7---------------|------------------7-7-7-7-7-7-7/--|
D|--7-7--------------7-7---------------|------------3-----7-7-7-7-7-7-7/--|
A|--5-5--------------5-5---------------|--5-5-5-3-5---5-3-5-5-5-5-5-5-5/--|
E|-------------------------------------|----------------------------------|
Gtr 2
e|-------------------------------------|----------------------------------|
B|-------------------------------------|----------------------------------|
G|--7-7--------------7-7---------------|--7-7-------------7-7-7-7-7-7-7/--|
D|--x-x-------3v-----x-x-------3-5^-3--|--x-x-------3-----7-7-7-7-7-7-7/--|
A|--5-5-5-3-5----5-3-5-5-5-3-5---------|--5-5-5-3-5---5-3-5-5-5-5-5-5-5/--|
E|-------------------------------------|----------------------------------|


III. VERSE 2

Gtr 1
e|------------------------------------|------------------------------------|
B|------------------------------------|------------------------------------|
G|--7-7-7-7-7-7-7-7/10101010-9-9-9-9--|--7-7-7-7-7-7-7-7/10101010-9-9-9-9--|
D|--x-x-x-x-x-x-x-x--x-x-x-x-x-x-x-x--|--x-x-x-x-x-x-x-x--x-x-x-x-x-x-x-x--|
A|--5-5-5-5-5-5-5-5/-8-8-8-8-7-7-7-7--|--5-5-5-5-5-5-5-5/-8-8-8-8-7-7-7-7--|
E|------------------------------------|------------------------------------|
(continued)
e|-----------------------------------|------------------------------------|
B|-----------------------------------|------------------------------------|
G|--7-7-7-7-7-7-7-7-5-5-5-5-5-5-5-5--|--10101010101010101212121212121212--|
D|--x-x-x-x-x-x-x-x-x-x-x-x-x-x-x-x--|---x-x-x-x-x-x-x-x-x-x-x-x-x-x-x-x--|
A|--5-5-5-5-5-5-5-5-3-3-3-3-3-3-3-3--|---8-8-8-8-8-8-8-81010101010101010--|
E|-----------------------------------|------------------------------------|
(continued)
e|------------------------------------|------------------------------------|
B|------------------------------------|------------------------------------|
G|--7-7-7-7-7-7-7-7/10101010-9-9-9-9--|--7-7-7-7-7-7-7-7/1010101012121212--|
D|--x-x-x-x-x-x-x-x--x-x-x-x-x-x-x-x--|--x-x-x-x-x-x-x-x--x-x-x-x-x-x-x-x--|
A|--5-5-5-5-5-5-5-5/-8-8-8-8-7-7-7-7--|--5-5-5-5-5-5-5-5/-8-8-8-810101010--|
E|------------------------------------|------------------------------------|
(continued)
e|-----------------------------------|-------------------------------|
B|-----------------------------------|-------------------------------|
G|--7-7-7-7-7-7-7-7-9-9-9-9-9-9-9-9--|--10101010101010101212121212\--|
D|--x-x-x-x-x-x-x-x-x-x-x-x-x-x-x-x--|---x-x-x-x-x-x-x-x-x-x-x-x-x---|
A|--5-5-5-5-5-5-5-5-7-7-7-7-7-7-7-7--|---8-8-8-8-8-8-8-81010101010\--|
E|-----------------------------------|-------------------------------|

Gtr 2
e|-----------------------------------|-----------------------------------|
B|-----------------------------------|-----------------------------------|
G|--7-7-7-7-7-7-7-7-7-7-7-7-5-5-5-5--|-----------------------------------|
D|--7-7-7-7-7-7-7-7-7-7-7-7-5-5-5-5--|--8-8-8-8-8-8-8-8-8-8-8-8-7-7-7-7--|
A|--5-5-5-5-5-5-5-5-5-5-5-5-3-3-3-3--|--8-8-8-8-8-8-8-8-8-8-8-8-8-8-8-8--|
E|-----------------------------------|--6-6-6-6-6-6-6-6-6-6-6-6-5-5-5-5--|
(continued)
e|-----------------------------------|-----------------------------------|
B|-----------------------------------|-----------------------------------|
G|-----------------------------------|------------------5-5-5-5-5-5-5-5--|
D|--5-5-5-5-5-5-5-5-7-7-7-7-7-7-7-7--|--8-8-8-8-8-8-8-8-5-5-5-5-5-5-5-5--|
A|--5-5-5-5-5-5-5-5-7-7-7-7-7-7-7-7--|--8-8-8-8-8-8-8-8-3-3-3-3-3-3-3-3--|
E|--3-3-3-3-3-3-3-3-5-5-5-5-5-5-5-5--|--6-6-6-6-6-6-6-6------------------|
(continued)
e|-----------------------------------|-----------------------------------|
B|-----------------------------------|-----------------------------------|
G|--7-7-7-7-7-7-7-7-7-7-7-7-5-5-5-5--|-----------------------------------|
D|--7-7-7-7-7-7-7-7-7-7-7-7-5-5-5-5--|--8-8-8-8-8-8-8-8-8-8-8-8-7-7-7-7--|
A|--5-5-5-5-5-5-5-5-5-5-5-5-3-3-3-3--|--8-8-8-8-8-8-8-8-8-8-8-8-8-8-8-8--|
E|-----------------------------------|--6-6-6-6-6-6-6-6-6-6-6-6-5-5-5-5--|
(continued)
e|-----------------------------------|------------------------------|
B|-----------------------------------|------------------------------|
G|-----------------------------------|------------------5-5-5-5-5\--|
D|--5-5-5-5-5-5-5-5-7-7-7-7-7-7-7-7--|--8-8-8-8-8-8-8-8-5-5-5-5-5\--|
A|--5-5-5-5-5-5-5-5-7-7-7-7-7-7-7-7--|--8-8-8-8-8-8-8-8-3-3-3-3-3\--|
E|--3-3-3-3-3-3-3-3-5-5-5-5-5-5-5-5--|--6-6-6-6-6-6-6-6-------------|


IV. CHORUS

Gtr 1
e|------------------------------------|------------------------------------|
B|------------------------------------|------------------------------------|
G|--14141414141414141414141412121010--|--14141414141414141414141412121010--|
D|---x-x-x-x-x-x-x-x-x-x-x-x-x-x-x-x--|---x-x-x-x-x-x-x-x-x-x-x-x-x-x-x-x--|
A|--1212121212121212121212121010-8-8--|--1212121212121212121212121010-8-8--|
E|------------------------------------|------------------------------------|
(continued)
e|------------------------------------|-------------------------------------|
B|------------------------------------|-------------------------------------|
G|--10101010101010101212121212121212--|--101010\9-9\7-7-7-101010\9-9\7\5-5--|
D|---x-x-x-x-x-x-x-x-x-x-x-x-x-x-x-x--|---x-x-x-x-x-x-x-x--x-x-x-x-x-x-x-x--|
A|---8-8-8-8-8-8-8-81010101010101010--|---8-8-8\7-7\5-5-5--8-8-8\7-7\5\3-3--|
E|------------------------------------|-------------------------------------|

Gtr 2
e|------------------------------------|-----------------------------------|
B|------------------------------------|-----------------------------------|
G|--101010101010101010101010-9-9-9-9--|--7-7-7-7-7-7-7-7-7-7-7-7-5-5-5-5--|
D|--10101010101010101010101010101010--|--7-7-7-7-7-7-7-7-7-7-7-7-5-5-5-5--|
A|---8-8-8-8-8-8-8-8-8-8-8-8-7-7-7-7--|--5-5-5-5-5-5-5-5-5-5-5-5-3-3-3-3--|
E|------------------------------------|-----------------------------------|
(continued)
e|-----------------------------------|-----------------------------------|
B|-----------------------------------|-----------------------------------|
G|--3-3-3-3-3-3-3-3-5-5-5-5-5-5-5-5--|------------------5-5-5-5-5-5-5-5--|
D|--3-3-3-3-3-3-3-3-5-5-5-5-5-5-5-5--|--5-5-5-5-5-5-5-5-5-5-5-5-5-5-5-5--|
A|--1-1-1-1-1-1-1-1-3-3-3-3-3-3-3-3--|--5-5-5-5-5-5-5-5-3-3-3-3-3-3-3-3--|
E|-----------------------------------|--3-3-3-3-3-3-3-3------------------|

(Repeat BREAKDOWN)

Gtr 1
e|-----------------------------------|-----------------------------------|
B|------------6---------------6------|------------6---------------6------|
G|--7-7-7-5-7---7-5-7-7-7-5-7---7-5--|--7-7-7-5-7---7-5-7-7-7-5-7---7-5--|
D|-----------------------------------|-----------------------------------|
A|-----------------------------------|-----------------------------------|
E|-----------------------------------|-----------------------------------|
(continued)
e|-----------------------------------|-----------------------------------|
B|------------6-----6-6-6-5-5--------|--6-6-6-5-5-------6-6-6-5-5--------|
G|--7-7-7-5-7---7-5-----------7-5-3--|------------7-5-3-----------7-5-2--|
D|-----------------------------------|-----------------------------------|
A|-----------------------------------|-----------------------------------|
E|-----------------------------------|-----------------------------------|
(continued)
e|-----------------------------------|-----------------------------------|
B|------------6---------------6------|------------6---------------6------|
G|--7-7-7-5-7---7-5-7-7-7-5-7---7-5--|--7-7-7-5-7---7-5-7-7-7-5-7---7-5--|
D|-----------------------------------|-----------------------------------|
A|-----------------------------------|-----------------------------------|
E|-----------------------------------|-----------------------------------|
(continued)
e|-----------------------------------|------------------------------|
B|------------6-----6-6-6-5-5--------|--6-6-6-5-5-------6-6-6-6-5\--|
G|--7-7-7-5-7---7-5-----------7-5-3--|------------7-5-3-------------|
D|-----------------------------------|------------------------------|
A|-----------------------------------|------------------------------|
E|-----------------------------------|------------------------------|

Gtr 2
e|-----------------------------------|-----------------------------------|
B|-----------------------------------|-----------------------------------|
G|--7-7-7-7-7-7-7-7-7-7-7-7-5-5-5-5--|-----------------------------------|
D|--7-7-7-7-7-7-7-7-7-7-7-7-5-5-5-5--|--8-8-8-8-8-8-8-8-8-8-8-8-7-7-7-7--|
A|--5-5-5-5-5-5-5-5-5-5-5-5-3-3-3-3--|--8-8-8-8-8-8-8-8-8-8-8-8-8-8-8-8--|
E|-----------------------------------|--6-6-6-6-6-6-6-6-6-6-6-6-5-5-5-5--|
(continued)
e|-----------------------------------|-----------------------------------|
B|-----------------------------------|-----------------------------------|
G|-----------------------------------|------------------5-5-5-5-5-5-5-5--|
D|--5-5-5-5-5-5-5-5-7-7-7-7-7-7-7-7--|--8-8-8-8-8-8-8-8-5-5-5-5-5-5-5-5--|
A|--5-5-5-5-5-5-5-5-7-7-7-7-7-7-7-7--|--8-8-8-8-8-8-8-8-3-3-3-3-3-3-3-3--|
E|--3-3-3-3-3-3-3-3-5-5-5-5-5-5-5-5--|--6-6-6-6-6-6-6-6------------------|
(continued)
e|-----------------------------------|-----------------------------------|
B|-----------------------------------|-----------------------------------|
G|--7-7-7-7-7-7-7-7-7-7-7-7-5-5-5-5--|-----------------------------------|
D|--7-7-7-7-7-7-7-7-7-7-7-7-5-5-5-5--|--8-8-8-8-8-8-8-8-8-8-8-8-7-7-7-7--|
A|--5-5-5-5-5-5-5-5-5-5-5-5-3-3-3-3--|--8-8-8-8-8-8-8-8-8-8-8-8-8-8-8-8--|
E|-----------------------------------|--6-6-6-6-6-6-6-6-6-6-6-6-5-5-5-5--|
(continued)
e|-----------------------------------|------------------------------|
B|-----------------------------------|------------------------------|
G|-----------------------------------|------------------5-5-5-5-5\--|
D|--5-5-5-5-5-5-5-5-7-7-7-7-7-7-7-7--|--8-8-8-8-8-8-8-8-5-5-5-5-5\--|
A|--5-5-5-5-5-5-5-5-7-7-7-7-7-7-7-7--|--8-8-8-8-8-8-8-8-3-3-3-3-3\--|
E|--3-3-3-3-3-3-3-3-5-5-5-5-5-5-5-5--|--6-6-6-6-6-6-6-6-------------|

[Repeat CHORUS 2x]


V. SOLO 

Gtr 1
e|------------------|--------------------|3x
B|------------------|--------------------|
G|--7--5------------|--------------------|
D|--7--5--8--7-5-3--|--5555555577777777--|
A|--5--3--8--7-5-3--|--5555555577777777--|
E|--------6--5-3-1--|--3333333355555555--|
(continued)
e|------------------|--------------------|
B|------------------|--------------------|
G|--7--5------------|----------55555555--|
D|--7--5--8--7-5-3--|--5555555555555555--|
A|--5--3--8--7-5-3--|--5555555533333333--|
E|--------6--5-3-1--|--33333333----------|
Gtr 2
e|--10-------10-------10----15-13~------13p10--------------------|
B|--13^(15)~-13^(15)~----13---------15--------13p10-13p11p10-----|
G|-----------------------------------------------------------12--|
D|---------------------------------------------------------------|
A|---------------------------------------------------------------|
E|---------------------------------------------------------------|
(continued)
e|--10-------10-------8----8------8--------------------------------|
B|--13^(15)~-13^(15)~---10---10~--11^(13)~-8--10p8-----------------|
G|------------------------------------------------10p9-10p9--------|
D|----------------------------------------------------------12p10--|
A|-----------------------------------------------------------------|
E|-----------------------------------------------------------------|
(continued)
e|---------------------------------------------------------------------------|
B|-----------------10--8--10^(11)~-10--8----8--------------------------------|
G|--10--9--12--10------------------------10---10~-10-10-9-10p9p7----7p5------|
D|--|--tremolo-picking--|----------------------------------------10-----8p7--|
A|---------------------------------------------------------------------------|
E|---------------------------------------------------------------------------|(continued)
e|------------------|
B|------------------|
G|--7~-7~-7~-5-3-2--|
D|------------------|
A|------------------|
E|------------------|
(continued)
e|-------------------------------------------------------|
B|-------------------------------------------------------|
G|--------------------------10h12-14h15p14-10/12-12/14~--|
D|-----------------5h7h8h10------------------------------|
A|--------5h7h8h10---------------------------------------|
E|--3h5h6------------------------------------------------|
(continued)
e|--------------------10----15-13~---------|
B|--13^(15)~-13^(15)~----13---------15-13--|
G|-----------------------------------------|
D|-----------------------------------------|
A|-----------------------------------------|
E|-----------------------------------------|
(continued)
e|------------|--13^(15)~--|--13--------|
B|--13^(15)~--|------------|--17^(18)~--|
G|------------|------------|------------|
D|------------|------------|------------|
A|----(8x)----|----(8x)----|----(2x)----|
E|------------|------------|------------|


VI. BRIDGE

Gtr 2 (figure the palm mutes)
e|-------------------------------------|-----------------------------------|
B|-------------------------------------|-----------------------------------|
G|--1010-------------------------------|-----------------------------------|
D|---x-x-1010101010101010101010101010--|--7-7-7-7-7-7-7-7-7-7-7-7----------|
A|---8-8--8-8-8-8-8-8-8-8-8-8-7-7-7-7--|--5-5-5-5-5-5-5-5-5-5-5-5-7-7-7-7--|
E|-------------------------------------|--------------------------5-5-5-5--|
(continued)
e|-----------------------------------|-----------------------------------|
B|-----------------------------------|-----------------------------------|
G|-----------------------------------|-----------------------------------|
D|--3-3-3-3-3-3-3-3-5-5-5-5-5-5-5-5--|------------------5-5-5-5-3-3-3-3--|
A|--1-1-1-1-1-1-1-1-3-3-3-3-3-3-3-3--|--5-5-5-5-5-5-5-5-3-3-3-3-1-1-1-1--|
E|-----------------------------------|--3-3-3-3-3-3-3-3------------------|
(continued)
e|-----------------------------------|-----------------------------------|
B|-----------------------------------|-----------------------------------|
G|-----------------------------------|-----------------------------------|
D|--------------------------5-5-5-5--|--7-7-7-7-7-7-7-7-7-7-7-7-5-5-5-5--|
A|--7-7-7-7-7-7-7-7-7-7-7-7-3-3-3-3--|--5-5-5-5-5-5-5-5-5-5-5-5-3-3-3-3--|
E|--5-5-5-5-5-5-5-5-5-5-5-5----------|-----------------------------------|
(continued)
e|-----------------------------------|-----------------------------------|
B|-----------------------------------|-----------------------------------|
G|-----------------------------------|-----------------------------------|
D|--3-3-3-3-3-3-3-3-5-5-5-5-5-5-5-5--|------------------5-5-5-5-3-3-3-3--|
A|--1-1-1-1-1-1-1-1-3-3-3-3-3-3-3-3--|--5-5-5-5-5-5-5-5-3-3-3-3-1-1-1-1--|
E|-----------------------------------|--3-3-3-3-3-3-3-3------------------|

Gtr 1 (figure the timing)
e|------------2x--------------|----------------------|------------------------|
B|----------------------------|----------------------|------------------------|
G|--10-101010-10-12/14\12-10--|--10-101010-10-9-7-9--|--10-9-7-9-12/14\12-10--|
D|---x--x-x-x--x--x--x--x--x--|---x--x-x-x--x-x-x-x--|---x-x-x-x--x--x--x--x--|
A|---8--8-8-8--8-10/12\10--8--|---8--8-8-8--8-7-5-7--|---8-7-5-7-10/12\10--8--|
E|----------------------------|----------------------|------------------------|

Then,
Gtr 1
e|------------------------------------|-------------------------------------|
B|------------------------------------|-------------------------------------|
G|--17171717171717171717171714141212--|--10101010101010/171719191414141512--|
D|---x-x-x-x-x-x-x-x-x-x-x-x-x-x-x-x--|---x-x-x-x-x-x-x--x-x-x-x-x-x-x-x-x--|
A|--15151515151515151515151512121010--|---8-8-8-8-8-8-8/151517171212121310--|
E|------------------------------------|-------------------------------------|
(continued)
e|------------------------------------|------------------------------------|
B|------------------------------------|------------------------------------|
G|--1010101010101010-9-9-9-9-9-9-9-9--|--10101010101010101212121210101010--|
D|---x-x-x-x-x-x-x-x-x-x-x-x-x-x-x-x--|---x-x-x-x-x-x-x-x-x-x-x-x-x-x-x-x--|
A|---8-8-8-8-8-8-8-8-7-7-7-7-7-7-7-7--|---8-8-8-8-8-8-8-810101010-8-8-8-8--|
E|------------------------------------|------------------------------------|
(continued)
e|------------------------------------|-------------------------------------|
B|------------------------------------|-------------------------------------|
G|--17171717171717171717171714141212--|--10101010101010/171719191414141512--|
D|---x-x-x-x-x-x-x-x-x-x-x-x-x-x-x-x--|---x-x-x-x-x-x-x--x-x-x-x-x-x-x-x-x--|
A|--15151515151515151515151512121010--|---8-8-8-8-8-8-8/151517171212121310--|
E|------------------------------------|-------------------------------------|
(continued)
e|------------------------------------|-------------------------------------|
B|------------------------------------|-------------------------------------|
G|--1010101010101010-9-9-9-9-9-9-9-9--|--101010-9-9-7-7-7-101010-9-9-7-5-5--|
D|---x-x-x-x-x-x-x-x-x-x-x-x-x-x-x-x--|---x-x-x-x-x-x-x-x--x-x-x-x-x-x-x-x--|
A|---8-8-8-8-8-8-8-8-7-7-7-7-7-7-7-7--|---8-8-8-7-7-5-5-5--8-8-8-7-7-5-3-3--|
E|------------------------------------|-------------------------------------|

Gtr 2
e|------------------------------------|-----------------------------------|
B|------------------------------------|-----------------------------------|
G|--101010101010101010101010-9-9-9-9--|--7-7-7-7-7-7-7-7-7-7-7-7-5-5-5-5--|
D|--10101010101010101010101010101010--|--7-7-7-7-7-7-7-7-7-7-7-7-5-5-5-5--|
A|---8-8-8-8-8-8-8-8-8-8-8-8-7-7-7-7--|--5-5-5-5-5-5-5-5-5-5-5-5-3-3-3-3--|
E|------------------------------------|-----------------------------------|
(continued)
e|-----------------------------------|-----------------------------------|
B|-----------------------------------|-----------------------------------|
G|--3-3-3-3-3-3-3-3-5-5-5-5-5-5-5-5--|------------------5-5-5-5-5-5-5-5--|
D|--3-3-3-3-3-3-3-3-5-5-5-5-5-5-5-5--|--5-5-5-5-5-5-5-5-5-5-5-5-5-5-5-5--|
A|--1-1-1-1-1-1-1-1-3-3-3-3-3-3-3-3--|--5-5-5-5-5-5-5-5-3-3-3-3-3-3-3-3--|
E|-----------------------------------|--3-3-3-3-3-3-3-3------------------|
(continued)
e|-----------------------------------|-----------------------------------|
B|-----------------------------------|-----------------------------------|
G|--2-2-2-2-2-2-2-2-2-2-2-2-5-5-5-5--|--7-7-7-7-7-7-7-7-7-7-7-7-5-5-5-5--|
D|--2-2-2-2-2-2-2-2-2-2-2-2-5-5-5-5--|--7-7-7-7-7-7-7-7-7-7-7-7-5-5-5-5--|
A|--0-0-0-0-0-0-0-0-0-0-0-0-3-3-3-3--|--5-5-5-5-5-5-5-5-5-5-5-5-3-3-3-3--|
E|-----------------------------------|-----------------------------------|
(continued)
e|-----------------------------------|-----------------------------------|
B|-----------------------------------|-----------------------------------|
G|--3-3-3-3-3-3-3-3-5-5-5-5-5-5-5-5--|------------------5-5-5-5-5-5-5-5--|
D|--3-3-3-3-3-3-3-3-5-5-5-5-5-5-5-5--|--5-5-5-5-5-5-5-5-5-5-5-5-5-5-5-5--|
A|--1-1-1-1-1-1-1-1-3-3-3-3-3-3-3-3--|--5-5-5-5-5-5-5-5-3-3-3-3-3-3-3-3--|
E|-----------------------------------|--3-3-3-3-3-3-3-3------------------|

VII. CODA / OUTRO (is it okay to call it “CODA”?)
(Goes into FADE OUT)

Gtr 1
e|------------------------------------------|8x
B|--13-----13-----13-----13----10-11-10-----|
G|-----10-----10-----10-----10----------10--|
D|------------------------------------------|
A|------------------------------------------|
E|------------------------------------------|
Gtr 2
e|------------------------------------|-----------------------------------|
B|------------------------------------|-----------------------------------|
G|--101010101010101010101010-9-9-9-9--|--7-7-7-7-7-7-7-7-7-7-7-7-5-5-5-5--|
D|--10101010101010101010101010101010--|--7-7-7-7-7-7-7-7-7-7-7-7-5-5-5-5--|
A|---8-8-8-8-8-8-8-8-8-8-8-8-7-7-7-7--|--5-5-5-5-5-5-5-5-5-5-5-5-3-3-3-3--|
E|------------------------------------|-----------------------------------|
(continued)
e|-----------------------------------|-----------------------------------|
B|-----------------------------------|-----------------------------------|
G|--3-3-3-3-3-3-3-3-5-5-5-5-5-5-5-5--|------------------5-5-5-5-5-5-5-5--|
D|--3-3-3-3-3-3-3-3-5-5-5-5-5-5-5-5--|--5-5-5-5-5-5-5-5-5-5-5-5-5-5-5-5--|
A|--1-1-1-1-1-1-1-1-3-3-3-3-3-3-3-3--|--5-5-5-5-5-5-5-5-3-3-3-3-3-3-3-3--|
E|-----------------------------------|--3-3-3-3-3-3-3-3------------------|
(continued)
e|-----------------------------------|-----------------------------------|
B|-----------------------------------|-----------------------------------|
G|--2-2-2-2-2-2-2-2-2-2-2-2-5-5-5-5--|--7-7-7-7-7-7-7-7-7-7-7-7-5-5-5-5--|
D|--2-2-2-2-2-2-2-2-2-2-2-2-5-5-5-5--|--7-7-7-7-7-7-7-7-7-7-7-7-5-5-5-5--|
A|--0-0-0-0-0-0-0-0-0-0-0-0-3-3-3-3--|--5-5-5-5-5-5-5-5-5-5-5-5-3-3-3-3--|
E|-----------------------------------|-----------------------------------|
(continued)
e|-----------------------------------|-----------------------------------|
B|-----------------------------------|-----------------------------------|
G|--3-3-3-3-3-3-3-3-5-5-5-5-5-5-5-5--|------------------5-5-5-5-5-5-5-5--|
D|--3-3-3-3-3-3-3-3-5-5-5-5-5-5-5-5--|--5-5-5-5-5-5-5-5-5-5-5-5-5-5-5-5--|
A|--1-1-1-1-1-1-1-1-3-3-3-3-3-3-3-3--|--5-5-5-5-5-5-5-5-3-3-3-3-3-3-3-3--|
E|-----------------------------------|--3-3-3-3-3-3-3-3------------------|
comments
print report bad tab
208 comments total. Showing first comments.
+3 reply
geminivenom wrote on October 17 2006, 06:44 am

wow very, very nice tab!! pls tell us where did you get the studio version of this song!! nah, i envy my classmates coz they've got also the studio version of this song and they would not share it to me!!!

and oh, 5 stars!!

+2 reply
The Spoon wrote on October 17 2006, 11:41 am

Sweet tab! you can get the studio version here

http://board.rapbasement.com/showthread.php?p=5743133

i wanted to listen to it all when it came out, but the wating is rediculous ;)

+2 reply
The Spoon wrote on October 17 2006, 11:45 am

^^^oh yeah BTW, its not the version on the CD. its like a version that was done in a different studio. so it doesnt sound as good as the album version

I want to post or [tab]
guest
You may want to rate the tab now too:
select rating
Please do not post tabs as comments. Select "correction" instead!