Oops, an error
Loading. Please wait.

I Brought You My Bullets You Brought Me Your Love Bass Tab

3,515 views 15 this week
1 commentread comment
1 2 3 4 5
excellent!
x 3
add to favorites launch autoscroll
font size
0
reset
Autoscroll
+/-
esc
set tempo
stop
WARNING: You are trying to view
                                    content from Ultimate-Guitar.com
                                    in an unauthorized application,
                                    which is prohibited.

                                    Please use an official Ultimate
                                    Guitar Tabs application for iPhone,
                                    iPad or Android to access legitimate
                                    chords, guitar, bass, and drum tabs
                                    from Ultimate-Guitar.com database.

                                    Type "ultimate guitar tabs" in Apple
                                    App Store's or Android Market's
                                    search to find the application.
Artist: My Chemical Romance
Album: I Brought You My Bullets, You Brought Me Your Love
Bassist Mikey Way: Standard Tuning (G,D,A,E)

Romance NOT TABBED

Honey, This Mirror Isn't Big Enough For the Two of Us

Intro	
G:|--------------------------------------------------|
D:|--------------------------------------------------|
A:|-4444-66-77-3333-66-77-2222-66-77-10-10-88-77-88--| (x4)
E:|--------------------------------------------------|
Verse	
G:|------------------------------------|
D:|------------------------------------|
A:|-4-4444-4444-4442-------------------| (x2)
E:|------------------5-5555-5555-5554--|

G:|-----------------------------------------|
D:|-----------------------------------------|
A:|-4444-4444-2222-2222-1111-1111-0000-0000-| (x2)
E:|-----------------------------------------|
Pre-Chorus
G:|------------------------------------|
D:|------6/7~------7h8p7---------------|
A:|-4~---------7~----------------------|
E:|-----------------------4-4444-4444--|
Chorus
G:|---------------------------------------------|
D:|---------------------------------------------|
A:|---------------------------------------------|
E:|-5555-5555-0000-0000-4444-4444-22-122-121-22-|

G:|--------------------------------|
D:|--------------------------------|
A:|--4444-4444---------------------|
E:|------------0000-0000-2222-2222-|
Cont.
G:|------------------------|
D:|------------------------|
A:|------------------------|
E:|-4-4444-4444-5555-7777--|
Verse (x2) Bridge
		(x2)			       (x2)
G:|------------------------------|-----------------------------------------|
D:|------------------------------|-----------------------------------------|
A:|-4-4-44-44-4-1-2-2-22---------|-4444-4444-2222-2222-1111-1111-0000-0000-|
E:|----------------------55-5-4--|-----------------------------------------|
Intro End ON
 G:|-----|
 D:|-----|
 A:|--4--| (x4)
 E:|-----|

Vampires will Never Hurt you
Tabbed by Taylor Smith

  Intro                                 x2
G|-------------------------------------|---------------------------------|
D|-------------------------------------|---------------------------------|
A|-6h777777777777777-6h777777777777777-|-777777777777777-555555555555555-|
E|-------------------------------------|---------------------------------|
  intro part 2
G|-----------------------------------|
D|-----------------------------------|
A|-3-33333333333333-6-66666666666666-|
E|-----------------------------------|
Verse  x4
G|-------------------------------------------------------------------|
D|-------------------------------------------------------------------|
A|-777777777777777-555555555555555-3-33333333333333-6-66666666666666-|
E|-------------------------------------------------------------------|
"YOU PUT THE SPIKE IN MY HEART!!!"
  Chorus
G|--------------------------------------------------------------------|
D|--------------------------------------------------------------------|
A|-\777777777777777-555555555555555-3-33333333333333-6-666666---3---2-|
E|------------------------------------------------------------00--00--|

G|---------------------------------------------------------------------------|
D|---------------------------------------------------------------------------|
A|-777777777777777-555555555555555-3-33333333333333-6-66666666666666-999-6h7-|
E|---------------------------------------------------------------------------|
Whispering Part
G|-----------------------------------|
D|-----------------------------------|
A|-7-77777777777777-7-77777777777777-|
E|-----------------------------------|
Verse  x4
G|-------------------------------------------------------------------|
D|-------------------------------------------------------------------|
A|-777777777777777-555555555555555-3-33333333333333-6-66666666666666-|
E|-------------------------------------------------------------------|
Chorus
G|--------------------------------------------------------------------|
D|--------------------------------------------------------------------|
A|-\777777777777777-555555555555555-3-33333333333333-6-666666---3---2-|
E|------------------------------------------------------------00--00--|

G|--------------------------------------------------------------------|
D|--------------------------------------------------------------------|
A|-777777777777777-555555555555555-3-33333333333333-6-66666666666666--|
E|--------------------------------------------------------------------|
Bridge  x2
G|------------------------------------------------------------|
D|------------------------------------------------------------|
A|---------------------------------------------------66666666-|
E|-00000-66666-22-2-22-2-22-222222-33333333-55555555----------|
Verse  x4
G|-------------------------------------------------------------------|
D|-------------------------------------------------------------------|
A|-777777777777777-555555555555555-3-33333333333333-6-66666666666666-|
E|-------------------------------------------------------------------|
Bridge  x2
G|------------------------------------------------------------|
D|------------------------------------------------------------|
A|---------------------------------------------------66666666-|
E|-00000-66666-22-2-22-2-22-222222-33333333-55555555----------|
x1  x2
G|-----------------------------------|-----------------------------------|
D|-----------------------------------|-----------------------------------|
A|-----------------------------------|-----------------------------------|
E|-7-77777777777777-7-77777777777777-|-7-77777777777777-5-55555555555555-|

G|-----------------------------------|
D|-----------------------------------|
A|-----------------------------------|
E|-3-33333333333333-0-00-000-000-000-|
x2
G|----------------------------------------------------------------------|
D|----------------------------------------------------------------------|
A|----------------------------------------------------------------------|
E|-7-77777777777777-5-55555555555555-2-22222222222222-0-000000-5-555555-|
x4  "can you stake my heart?"
G|---|------------------------------------------------------------------------------------|
D|---|------------------------------------------------------------------------------------|
A|---|------------------------------------------------------------------------------------|
E|-7-|-77-777-777-777-7-55-555-555-555-5-33-333-333-333-3-00-000-000-000-0-55-555-555-555-|

G|---------------------------------------------------------------------------|
D|---------------------------------------------------------------------------|
A|---------------------------------------------------------------------------|
E|-77-777-777-777-7-55-555-555-555-5-33-333-333-333-3-00-000-0-55-555-5-7~~~-|
The End

Drowning Lessons

Intro
|-------------------------------------------------------------|
|-------------------------------------------------------------|
|5-5-5-5-5-5-5-5-7-7-7-7-7-7-7-7-9-9-9-9-9-9-9-9-9-9-9-9-9-9--|
|-------------------------------------------------------------|

|-------------------------------------------------------------|
|-------------------------------------------------------------|
|5-5-5-5-5-5-5-5-7-7-7-7-7-7-7-7-4-4-4-4-4-4-4-4-5-4-5-5-4-5--| x2
|-------------------------------------------------------------|
Verse
Repeat intro twice
chorus
|----------------------------------------|
|----------------------------------------|
|55-55-55-55-77-77-77-77-44-44-44-44-----| x2
|-----------------------------------55-44|
repeat verse and chorus again
solo
|-----------------------------------|
|-----------------------------------|
|55555555-7-7-7-7-44444444----------| x4
|-------------------------55554444--|
Bridge
|---------------------------------------------------------------------------|
|---------------------------------------------------------------------------|
|--------------------------77777777-2-2-2-55-555-55-555---------------------|
|2-2-2-00-000-00-000-5-5-5------------------------------555-00-0-11-1-222---|
Bridge(Cont.)
|--------------------------------------------------------------|
|--------------------------------------------------------------|
|------------------77777777-222-55-555-55-555------------------|
|00-000-00-000-555----------------------------555-0000-00002---|
Repeat intro 4 times
Outro
|-------------------------------------------------------------------------|
|-------------------------------------------------------------------------|
|55555-5555555-44444-4444444-55555-5555555-44444-4444444-55555-5555555----|
|-------------------------------------------------------------------------|

|-------------------------------------------------|
|-------------------------------------------------|repeat and fade out
|77777-7777777-99999-9999999-1010101010-xx10-xx10-|
|-------------------------------------------------|

OUR LADY OF SORROWS

Intro
G|--------------------------------------------------------------------|
D|--------------------------------------------------------------------|
A|--4--43-----0--03-----4>------3>-------0>---------33333333----------|
E|--------------------------------------------------------------------|
Verse
G|--------------------------------------------------------|x4
D|--------------------------------------------------------|
A|---4444444-33333333-00000000-33333333-------------------|
E|--------------------------------------------------------|
Chorus
G|------------------|
D|------------------|
A|---4--------------| x3
E|------4--5--2-----|
except,
G|--------------------|
D|--------------------|
A|---4----------------| (4th Time during chorus)
E|--------4--5--33----|
Verse(1x)
Chorus(1x),except
G|----------------------|
D|----------------------|
A|---4------------------| (4th Time during chorus)
E|--------4-------------|
Bridge
G|-------------------------------------------------------------------|x2
D|-------------------------------------------------------------------|
A|---44444444-000000000-77777777-22223333----------------------------|
E--------------------------------------------------------------------|

G|-----------------------------------------------------------------------|
D|-----------------------------------------------------------------------|
A|-0-0-0--00---2-2-2--22---4-4-4--44--4-767------------------------------|
E|-----------------------------------------------------------------------|

G|-----------------------------------------------------------------------|
D|-----------------------------------------------------------------------|
A|--0-0-0--00---2-2-2--22---1-1-1--11---3-3-3----------------------------|
E|-----------------------------------------------------------------------|
Chorus (7x)
next play Last Time Play
G|------------------------|
D|------------------------|
A|---4-------------4444---|
E|------4--5--2-----------|

Headfirst for Halos

Intro
G|----------------------------------------------------------------------------------------|
D|----------------------------------------------------------------------------------------|
A|-5----------------------------------------------5---------------------------------------|
E|-----------0----------3 -----------3-----------------------0-----------3-------------3--|

G|----------------------------------------------------------------------------------------|
D|----------------------------------------------------------------------------------------|
A|-5----------------------------------------------5----------7----------9-------------10--|
E|-----------0----------2------------3----------------------------------------------------|
Verse (0:48)
G|-----------------------------------------------------------------------------------------|
D|-----------------------------------------------------------------5--4--2--0--------------|
A|-5--5--5---5-5-5---4--4--4---4-4-4---2--2--2---2-2-2--------------------7--7--7---7-7-7--|
E|-----------------------------------------------------------------------------------------|

G|--------------------------------------------------------|
D|--------------------------------------------7--5--7--5--|
A|-6--6--6---6-6-6----5--5--5---5-5-5---------------------|
E|--------------------------------------------------------| x5
Chorus (1:31)
G|--------------------------------------------------------------------|
D|--------------------------------------------------------------------|
A|-5-5---5-4-4---4-2-2---2--------------------5-5---5-----------------|
E|------------------------------2-2---2-3-3---3----------0-0---0-5-5--| x2
Pre-Verse (1:49) Picked in quarter notes
G|---------------------------------------------------------------------------------------|
D|-------------------------------------------5--4--2--0----------------------------------|
A|-5--5--5--5--4--4--4--4--2--2--2--2----------------7--7--7--7--6--6--6--6--5--5--5--5--|
E|---------------------------------------------------------------------------------------|

G|-------------|
D|-7--5--7--5--|
A|-------------|
E|-------------|
Repeat Verse x2 Repeat Chorus x2
Post-Chorus (2:31)
G|-------------------------------------|
D|-------------------------------------|
A|-2-2-2-2-2-2-2-2-2-2-2-2-2-2-2-2--1--|
E|-------------------------------------|
Interlude (2:38)
G|---------------------------------------------------------------------------------------|
D|----------------------------------------------------------------5--4--2--0-------------|
A|-5--5--5---5-5-5---4--4--4---4-4-4---2--2--2---2-2-2------------------7--7--7---7-7-7--|
E|---------------------------------------------------------------------------------------|

G|----------------------------------------------------------------------------------------|
D|-------------------------------------------7--5--4--0-----------------------------------|
A|-6--6--6---6-6-6---5--5--5---5-5-5-------------------5--5--5---5-5-5---4--4--4---4-4-4--|
E|----------------------------------------------------------------------------------------|

G|----------------------------------------------------------------------------------------|
D|----------------------5--4--2--0--------------------------------------------------------|
A|-2--2--2---2-2-2------------------7--7--7---7-7-7---6--6--6---6-6-6---5--5--5--- 5-5-5--|
E|----------------------------------------------------------------------------------------|

G|------------------|
D|-7--5--7--5-------|
A|---------------5--|
E|------------------|
Ending (3:00) strummed in 8th notes
G|----------------------------------------------------------------------------------|
D|----------------------------------------------------------------------------------|
A|-5-5-5-5-5-5-5-5-4-4-4-4-4-4-4-4-2-2-2-2-2-2-2-2-4-4-4-4-4-4-4-4-5-5-5-5-5-5-5-5--|
E|----------------------------------------------------------------------------------|

G|----------------------------------------------------------------------------------|
D|----------------------------------------------------------------------------------|
A|-7-7-7-7-7-7-7-7-2-2-2-2-2-2-2-2-4-4-4-4-4-4-4-4-5-5-5-5-5-5-5-5-4-4-4-4-4-4-4-4--|
E|----------------------------------------------------------------------------------|

G|----------------------------------------------------------------------------------|
D|----------------------------------------------------------------------------------|
A|-2-2-2-2-2-2-2-2-4-4-4-4-4-4-4-4-5-5-5-5-5-5-5-5-7-7-7-7-7-7-7-7-2-2-2-2-2-2-2-2--|
E|----------------------------------------------------------------------------------|

G|----------------------------------------------------------------------------------|
D|----------------------------------------------------------------------------------|
A|-4-4-4-4-4-4-4-4-5-5-5-5-5-5-5-5-4-4-4-4-4-4-4-4-2-2-2-2-2-2-2-2-4-4-4-4-4-4-4-4--|
E|----------------------------------------------------------------------------------|

G|----------------------------------------------------------------------------|
D|----------------------------------------------------------------------------|
A|-5-5-5-5-5-5-5-5-7-7-7-7-7-7-7-7-9-9-9-9-9-9-9-9-10-10-10-10-10-10-10-10-5--|
E|----------------------------------------------------------------------------|

Skylines And Turnstiles

Intro 4X		      	
G|-----------------|-------|
D|-----------------|-------|
A|5----------------|--10---|
E|--0---3---3--3333|-------|
Verse 5X	
G|-----------------------------------------------------------------------|
D|-----------------------55-44-22-44-------------------------77-55-77-55-|
A|55-5555-44-4444-22-2222------------77-7777-66-6666-55-5555-------------|
E|-----------------------------------------------------------------------|
Chorus	2X			
G|--------------------------------|
D|--------------------------------|
A|-55-544-422-2--------55-5-------|
E|-------------22-233-3----33-355-|

G|------------------------------------------------|
D|-------------------------------5555444422224444-|
A|-5555-5555-4444-4444-2222-2222------------------|
E|------------------------------------------------|
Cont.
G|------------------------------------------------|
D|-------------------------------7777555577775555-|
A|-7777-7777-6666-6666-5555-5555------------------|
E|------------------------------------------------|
Verse	2x Chorus 2x
Bridge 4x
G|----------------------|
D|----------------------|
A|----------------------|
E|-7-7777-7777-7777-5~--|
Solo (Verse 2x)
|-----------|
|-----------|
|-5555-5555-| 2x
|-----------|
Ending
G|-----------------------------------------|
D|--------------------------5555-----------|
A|-5555-4444-2222-4444-5555------2222-4444-|
E|-----------------------------------------|

G|--------------------------------------|-------|
D|--------------------------------------|-------|
A|-555544442222444455557777999910101010-|-5~---5|
E|--------------------------------------|-------|

Early Sunsets Over Monroeville
tabbed by TheBigLebowski (philmccracken7@yahoo.com)

Intro
1|-------------------------------------------------|--------------------------|
2|-------------------------------------------------|--------------------------|
3|-5-5-55-5-7-2-2-22-2h4p2p0-----------------------|-5-5-55-5/75-2-2-22-2-4---|
4|---------------------------3-3-33-3-4-5-5-55-3-3-|--------------------------|
Cont.
1|---------------------|
2|---------------------|
3|---------------------|
4|-3-3-33-3-4-5-5-55-5-|
Verse	4x
1|-------------------------------------------------|
2|-------------------------------------------------|
3|-5-5-55-5-7-2-2-22-2h4p2p0-----------------------|
4|---------------------------3-3-33-3-4-5-5-55-3-3-|
CHorus
1|-------------------------------------------------------------------------|
2|-------------------------------------------------------------------------|
3|-2222-2222-------------------------------2222-2222-----------------------|
4|-----------2222-2222-3333-3333-2222-0000-----------2222-2222-3333-3333-5-|
Verse	4x
2nd CHorus
1|---------------------------------------------------------------------------------|
2|---------------------------------------------------------------------------------|
3|-2222-2222-------------------------------2222-2222-------------------------------|
4|-----------2222-2222-3333-3333-2222-0000-----------2222-2222-3333-3333-5555-5555-|
Cont.
1|-----------------------------------------------------------------------|
2|-----------------------------------------------------------------------|
3|-2222-2222-------------------------------2222-2222---------------------|
4|-----------2222-2222-3333-3333-2222-0000-----------2222-2222-3333-3333-|
Then:	   4x
1|-----------|
2|-----------|
3|-----------|
4|-5555-5555-|
Outro
1|---------------------------------------------------------------------------------|
2|---------------------------------------------------------------------------------|
3|-2222-2222-2222-2222-------------------------------------------------------------|
4|---------------------2222-2222-2222-2222-5555-5555-5555-5555-2222-2222-2222-2222-|
Cont.
1|-----------------------------------------------------------------------------------|
2|-----------------------------------------------------------------------------------|
3|------------------------------------10-9-------------------5/754-------------------|
4|-3333-3333-3333-3333-5555-5555-5555------10-2222-2222-2222---------3333-3333-3333--|
Cont.
1|--------------------------------------------------------------------------------|
2|-----------------------------------4~-------------------------------------------|
3|--------------------------2222-222-2~-222-0000---------------/7-55-44-----------|
4|-3333-5555-5555-5555-5555----------------------2222-2222-2222---------5555-5555-|
Cont.
1|------------------------------------------------------------------------|
2|------------------------------------------------------------------------|
3|------------------------------------------------------------------------|
4|-5555-5555-2222-2222-2222-2-02-3333-333-5/77-5/77-5-5555-5555-5555-5555-|
Cont.
1|------------------------------------------------------------------------------|
2|----------------555----------------5555---------------------------------------|
3|-2222-2222-2222---------------5555----------------5-7-5-10-9-7----------------|
4|--------------------3333-3333-----------5555-5555--------------2222-2222/5555-|
Cont.
1|---------------------------------------------------------------------------|
2|---------------------------------------------------------------------------|
3|-/9999-----------------------------------------5-7-9-10-9-7----------------|
4|-------3333-3333-0/2/3-0/2/3-0-2/333-5555-5555--------------2222-2222-2222-|
Cont.
1|------------------------------------------------------------------------------|
2|--------------------------------------------------------------------5555-5555-|
3|---------------------------------------------------------------/754-----------|
4|-2222-3333-3333-3333-3333-5555-5555-5555-5555-2222-2222-02-2222---------------|
Cont.
1|----------------------------------------------------------------------------|
2|-5555-5555-7777-7777-7777-7777-4444-4444-4444-4422-5555-5555-5555/7777-9999-|
3|----------------------------------------------------------------------------|
4|----------------------------------------------------------------------------|
Cont.
1|-----------------------------------------------------------------------------|
2|-9999-12121212-1111111-5555-5555-5555-444------------------------------------|
3|-----------------------------------------5/9999-9999-9999-975----------------|
4|--------------------------------------------------------------5555-5555-5555-|
Cont.
1|---------------------------------------------------------------------------------|
2|---------------------------------------------------------------------------------|
3|---------------------------------------------------------------------------------|
4|-5555-2222-2222-2222-2222-3333-3333-3333-3333-5555-5555-5555-5555-7777-7777-7777-|
Cont.
1|----------------------------------------------------------------------------|
2|-----------5555-5555-5555-5555-7777-7777-7777-7777-4444-4444-4444-4444-5555-|
3|----------------------------------------------------------------------------|
4|-7777-7777------------------------------------------------------------------|
Cont.
1|----------------------------------------------------------------------------|
2|-5555-5555-5555-7777-7777-7777-7777-9999-9999-9999-9999---------------------|
3|----------------------------------------------------------------------------|
4|--------------------------------------------------------2222-2222-2222-2222-|
Cont.
1|----------------|------|
2|----------------|------|
3|----------------|------|
4|-3333-3333-3333-|--3~--|

Origionally tabbed by Tyler
Cubicles

G ---------|
D ---------|
A ---------|
E -444-2222

G --------------------------------|
D --------------------------------|
A -------------------------111-22-|
E -0000000-2222222-4444444--------|

G --------------------------------|
D --------------------------------|
A -----------------1111111-222-1~-|
E -0000000-2222222----------------|

G --------------------------------|
D --------------------------------|
A -------------------------111-22-|
E -0000000-2222222-4444444--------|

G --------------------------------|
D --------------------------------|
A -----------------2222222-111----|
E -0000000-2222222-------------44-|

G ------------------------------------------|
D ------------------------------------------|
A ----1~-22222222-11111111------------------|
E -0~----------------------4444444444444444-|

G ---------------------------------------|
D ---------------------------------------|
A ----1~-2-2-2-2-4-4-4-4-----------------|
E -0~--------------------4-4-4-4--22--44-|

G ---------------------------------------|
D ---------------------------------------|
A ----1~-22222222-11111111-------0-2-1---|
E -0~----------------------44444-------4-|

G --------------------------------|
D --------------------------------|
A -------------------------111-22-|
E -0000000-2222222-4444444--------|

G --------------------------------|
D --------------------------------|
A -----------------2222222-111----|
E -0000000-2222222-------------44-|


G --------------------------------|
D --------------------------------|
A -------------------------111-22-|
E -0000000-2222222-4444444--------|

G --------------------------------|
D --------------------------------|
A -----------------1111111-222-1~-|
E -0000000-2222222----------------|

G --------------------------------|
D --------------------------------|
A -------------------------111-22-|
E -0000000-2222222-4444444--------|

G --------------------------------|
D --------------------------------|
A -----------------2222222-111----|
E -0000000-2222222-------------44-|

G ------------------------------------------|
D ------------------------------------------|
A ----1~-22222222-11111111------------------|
E -0~----------------------4444444444444444-|

G ---------------------------------------|
D ---------------------------------------|
A ----1~-2-2-2-2-4-4-4-4-----------------|
E -0~--------------------4-4-4-4--22--44-|

G ---------------------------------------|
D ---------------------------------------|
A ----1~-22222222-11111111-------0-2-1---|
E -0~----------------------44444-------4-|

G -----8---8-6-8----|
D ---9---9-------9~-|
A -7----------------|
E ------------------|

G -----8---11-8-9-8~-|
D ---9---9-----------|
A -7-----------------|
E -------------------|

G ---------------------------------|
D ---------------------------------|
A ---------------------------------|
E -0000000-2222222-4444444-444--22-|

G ---------------------------------|
D ---------------------------------|
A ---------------------------------|
E -0000000-2222222-4444444-444--22-|

G ---------------------------------|
D ---------------------------------|
A ---------------------------------|
E -0000000-2222222-4444444-444--22-|

G ---------------------------------|
D ---------------------------------|
A -------------------------2222222-|
E -0000000-2222222-4444444---------|

G ----------------------------|
D ----------------------------|
A ----------------------------|  (x4)
E 0000000222222244444444444444

G ----------------------------|
D ----------------------------|
A -----------------------21---|
E 00000-22--2-44444~-------20-|

G ------------------------|
D ------------------------|
A -------------------2--2-|
E 00000-22--2-44444-------|

G ----------------------------|
D ----------------------------|
A -----------------------21---|
E 00000-22--2-44444~-------20-|

G ------------------------|
D ------------------------|
A -------------------2--2-|
E 00000-22--2-44444-------|

G ----------------------------|
D ----------------------------|
A ----------------------------|  (x3)
E 00000~-22222~-44444~-44444~-|

G ----------------------------|
D ----------------------------|
A ----------------------------|
E 00000~-22222~-44444~--------|

G -----------------|
D -----------------|
A -----------------|
E 44---44---4-2-0~-|

Demolition Lovers
Tabbed by: kiefermatot
Email: bat6man9@hotmail.com

Intro Is Guitar Only Except: 
 (:29-:31) (:39-:41) 
G|------------]-------------| 
D|------------]-------------| 
A|------------]-5555--------| 
E|3333--7777--]-------3333--| 
Chorus (:42-1:02) 
G|----------------------------------------------------------------------| 
D|----------------------------------------------------------------------| 
A|--------------------------------------------------------5(x4)---------| 
E|4(x8)--6(x8)--7(x8)--8(x4)--6(x4)--4(x8)--6(x8)--7(x8)---------3(x4)--|
Verse (1:03-1:23) 
G|------------------------------------------------------------------| 
D|------------------------------------------------------------------| 
A|3-333----------------------2222--3-333----------------3333--------| 
E|-------1-111--4-444--3333---------------1-111--4-444--------3333--| 
Chorus (1:24-2:00) 
(x3) (Fourth Time Play This) 
G|-----------------------------------[------------------------------| 
D|-----------------------------------[------------------------------| 
A|-----------------------------------[------------------------------| 
E|4(x8)--6(x8)--7(x8)--8(x4)--6(x4)--[-4(x8)--6(x8)--7(x8)--88--66--|
Post-Chorus (2:01-2:18) 



(x2) 
G|---------------------------------| 
D|---------------------------------| 
A|---------------------------------| 
E|88--44--66--777-777--44-422-233--| 
Chorus (2:19-2:50) 
(x4) 
G|-----------------------------------| 
D|-----------------------------------| 
A|-----------------------------------| 
E|4(x8)--6(x8)--7(x8)--8(x4)--6(x4)--| 
No Bass Through Guitar / Drum Break Until 3:33 
Bridge (3:33-5:03) (# Of Notes Played/Timing Up For Personal Interpretation) 
(x10) 
G|----------------------| 
D|----------------------| 
A|--------3(x8)---------| 
E|4(x16)---------3(x8)--| 
Outro (5:03-5:19) 
G|--------------------------------------------------------------| 
D|--------------------------------------------------------------| 
A|--------------------------------------------------------------| 
E|4(x8)--6(x6)--44--3(x8)--88--66--4(x8)--6(x8)--7(x8)--88--66--| 
Outro Continued (5:19-6:06) 
(x3) 
G|------------------------------------------------------------------------| 
D|------------------------------------------------------------------------| 
A|------------------------------------------------------------------------| 
E|4(x8)--6(x6)--44--3(x8)--8(x4)--6(x4)--4(x8)--6(x8)--7(x8)--8(x4)--6(x4)|

| /  slide up
| \  slide down
| h  hammer-on
| p  pull-off
| ~  vibrato
| +  harmonic
| x  Mute note

comments
We did not receive enough feedback on this tab! Please rate:
print report bad tab
1 2 3 4 5
1 comment total.
0 reply
Craig-Bass1995 wrote on April 12 2011, 02:04 pm

Hate to break it to you, dude, but Honey This Mirror Isn't Big Enough For The Two Of Us is wrong. Don't be offended or anything, but this put me off reading the rest of the songs you have tabbed.

To help you out a bit, this is how the intro should be played:

Intro
G:|--------------------------------------------------|
D:|--------------------------------------------------|
A:|-4444-66-77-3333-66-77------66-77--9-9-7-7-6-6-7-7| (x4)
E:|-----------------------4444-----------------------|

I want to post or [tab]
guest
You may want to rate the tab now too:
select rating
Please do not post tabs as comments. Select "correction" instead!