Oops, an error
Loading. Please wait.

I Brought You My Bullets You Brought Me Your Love Tab

ver1
ver1

Album

More versions @911Tabs.com
27,405 views 48 this week
18 commentsread comments
1 2 3 4 5
accurate
x 27
Autoscroll
+/-
esc
set tempo
stop
Hey! There's an official Ultimate Guitar app which is ideal
for learning songs when you're away from computer. Get the app
WARNING: You are trying to view
                                    content from Ultimate-Guitar.com
                                    in an unauthorized application,
                                    which is prohibited.

                                    Please use an official Ultimate
                                    Guitar Tabs application for iPhone,
                                    iPad or Android to access legitimate
                                    chords, guitar, bass, and drum tabs
                                    from Ultimate-Guitar.com database.

                                    Type "ultimate guitar tabs" in Apple
                                    App Store's or Android Market's
                                    search to find the application.
Band: My Chemical Romance
Album: I Brought You My Bullets, You Brought Me Your Love


OK. I just finished this and I have some things to say about the songs.
Most of them were on ultimate Guitar but they weren’t completely right.I’ve changed all
the songs and they sound alot better. I did: “Our Lady of Sorrows”, “This is the Best
Day Ever”, “Early Sunsets Over Monroeville, and “Demolition Lovers”, completely. The
others were from other peoples tabs. This is a great album so have fun.~



Tracks


1.	Romance
2.	Honey This Mirror Isn’t Big Enough For The Two Of Us
3.	Vampires Will Never Hurt You
4.	Drowning Lessons
5.	Our Lady Of Sorrows
6.	Headfirst For Halos
7.	Skylines and Turnstiles
8.	Early Sunsets Over Monroeville
9.	This Is The Best Day Ever
10.	Cubicles
11.	Demolition Lovers




-------------------------------
1. Romance
-------------------------------


||-7-----7-----7-----|-7-----5-----3-----|-3-----2-----0-----|
||---0-----0-----0---|---0-----0-----0---|---0-----0-----0---|
||-----0-----0-----0-|-----0-----0-----0-|-----0-----0-----0-|
||-------------------|-------------------|-------------------|
||-------------------|-------------------|-------------------|
||-0-----------------|-0-----------------|-0-----------------|

|-0-----3-----7-----|-12----12----12----|-12----10----8-----|
|---0-----0-----0---|---0-----0-----0---|---0-----0-----0---|
|-----0-----0-----0-|-----0-----0-----0-|-----0-----0-----0-|
|-------------------|-------------------|-------------------|
|-------------------|-------------------|-------------------|
|-0-----------------|-0-----------------|-0-----------------|

|-8-----7-----5-----|-5-----7-----8-----|-7-----8-----7-----|
|---5-----5-----5---|---5-----5-----5---|---7-----7-----8---|
|-----5-----5-----5-|-----5-----5-----5-|-----8-----8-----7-|
|-------------------|-------------------|-------------------|
|-0-----------------|-0-----------------|-------------------|
|-------------------|-------------------|-7-----------------|

|-11----8-----7-----|-7-----5-----3-----|-3-----2-----0-----|
|---7-----7-----7---|---0-----0-----0---|---0-----0-----0---|
|-----7-----7-----7-|-----0-----0-----0-|-----0-----0-----0-|
|-------------------|-------------------|-------------------|
|-------------------|-------------------|-------------------|
|-7-----------------|-0-----------------|-0-----------------|

|-2-----2-----2-----|-2-----3-----2-----|-0-----0-----0-----|-0--------------|
|---1-----1-----1---|---0-----0-----0---|---0-----0-----0---|-0--------------|
|-----2-----2-----2-|-----2-----2-----2-|-----0-----0-----0-|-0--------------|
|-------------------|-------------------|-2-----------------|----------------|
|-0-----------------|-2-----------------|-------2-----------|----------------|
|-------------------|-------------------|-------------3-----|-0--------------|


-------------------------------------------------------
2. Honey This Mirror Isn’t Big Enough For The Two of Us
-------------------------------------------------------


Intro:
Guitar 1
(0:00)-(0:44)
e|-----------------|-----------------|-----------------|-----------------|
B|-----------------|-----------------|-----------------|-----------------|
G|-----------------|-----------------|-----------------|-----------------|
D|-----------------|-----------------|-----------------|-----------------|
A|-4-4-4-4-6-6-7-7-|-4-4-4-4-6-6-7-7-|-3-3-3-3-4-4-6-6-|-6-6-6-6-4-4-4-4-|
E|-----------------|-----------------|-----------------|-----------------|


Guitar 2
(0:09)
e|-----------------|-----------------|-----------------|-----------------|
B|-----------------|-----------------|-----------------|-----------------|
G|-6---------------|-5---------------|-----------------|-9---------------|
D|-6---------------|-5---------------|-6---------------|-9---------------|
A|-4---------------|-3---------------|-6---------------|-7---------------|
E|-----------------|-----------------|-4---------------|-----------------|


(0:18)
e|-----------------|-----------------|-----------------|-----------------|
B|-----------------|-----------------|-----------------|-----------------|
G|-6---------------|-5---------------|-----------------|-9---------------|
D|-6---------------|-5---------------|-6---------------|-9---------------|
A|-4---------------|-3---------------|-6---------------|-7---------------|
E|-----------------|-----------------|-4---------------|-----------------|


(0:27)
e|-----------------|-----------------|-----------------|-----------------|
B|-----------------|-----------------|-----------------|-----------------|
G|-6--------8--9---|-5--------8--9---|----------8--9---|-11--9---8---9---|
D|-----------------|-----------------|-6---------------|-----------------|
A|-4--------6--7---|-3--------6--7---|----------6--7---|-9---7---6---7---|
E|-----------------|-----------------|-4---------------|-----------------|


(0:35)
e|-----------------|-----------------|-----------------|-----------------|
B|-----------------|-----------------|-----------------|-----------------|
G|-6--------8--9---|-5--------8--9---|----------8--9---|-11--9---8---9---|
D|-----------------|-----------------|-6---------------|-----------------|
A|-4--------6--7---|-3--------6--7---|----------6--7---|-9---7---6---7---|
E|-----------------|-----------------|-4---------------|-----------------|


Verse:
Guitar 1 and 2
(0:44)
e|-----------------|-------------------|-------------------|-------------------|
B|-----------------|-------------------|-------------------|-------------------|
G|-6---------------|-------------------|---6---------------|-------------------|
D|-6---------------|-6-7---------------|-6-6---------------|-6-7---------------|
A|-4-4-4-4-4-4-4-4-|-6-7---------------|-6-4-4-4-4-4-4-4-4-|-6-7---------------|
E|-----------------|-4-5-5-5-5-5-5-5-5-|-4-----------------|-4-5-5-5-5-5-5-5-5-|
PM   .............       .............       .............       .............

  "The amount of pills I'm taking.."


(0:52)
Guitar 1
e|-----------------|-----------------|-----------------|-----------------|
B|-----------------|-----------------|-----------------|-----------------|
G|---6-6-6-6-6-6-6-|-4-4-4-4-4-4-4-4-|-2-2-2-2-2-2-2-2-|-2-2-2-2-2-2-2-2-|
D|-6-6-6-6-6-6-6-6-|-4-4-4-4-4-4-4-4-|-2-2-2-2-2-2-2-2-|-2-2-2-2-2-2-2-2-|
A|-6-4-4-4-4-4-4-4-|-2-2-2-2-2-2-2-2-|-0-0-0-0-0-0-0-0-|-0-0-0-0-0-0-0-0-|
E|-4---------------|-----------------|-----------------|-----------------|

  "Well, I find it hard to stay.."

Guitar 2
e|-----------------|-----------------|-----------------|-----------------|
B|-----------------|-----------------|-----------------|-----------------|
G|---6-6-6-6-6-6-6-|-9-9-9-9-9-9-9-9-|-9-9-9-9-9-9-9-9-|-9-9-9-9-9-9-11--|
D|-6---------------|-----------------|-----------------|-----------------|
A|-6-4-4-4-4-4-4-4-|-7-7-7-7-7-7-7-7-|-7-7-7-7-7-7-7-7-|-7-7-7-7-7-7-9---|
E|-4---------------|-----------------|-----------------|-----------------|

(1:02)
Guitar 1 and 2
e|-----------------|-------------------|-------------------|-------------------|
B|-----------------|-------------------|-------------------|-------------------|
G|-6---------------|-------------------|---6---------------|-------------------|
D|-6---------------|-6-7---------------|-6-6---------------|-6-7---------------|
A|-4-4-4-4-4-4-4-4-|-6-7---------------|-6-4-4-4-4-4-4-4-4-|-6-7---------------|
E|-----------------|-4-5-5-5-5-5-5-5-5-|-4-----------------|-4-5-5-5-5-5-5-5-5-|
PM   .............       .............       .............       .............

  "Well, I choose the life I've taken.."

(1:11)
Guitar 1
e|-----------------|-----------------|-----------------|-----------------|
B|-----------------|-----------------|-----------------|-----------------|
G|---6-6-6-6-6-6-6-|-4-4-4-4-4-4-4-4-|-2-2-2-2-2-2-2-2-|-2-2-2-2-2-2-2-2-|
D|-6-6-6-6-6-6-6-6-|-4-4-4-4-4-4-4-4-|-2-2-2-2-2-2-2-2-|-2-2-2-2-2-2-2-2-|
A|-6-4-4-4-4-4-4-4-|-2-2-2-2-2-2-2-2-|-0-0-0-0-0-0-0-0-|-0-0-0-0-0-0-0-0-|
E|-4---------------|-----------------|-----------------|-----------------|

  "Well, I find it hard to stay.."

Guitar 2
e|-----------------|-----------------|-----------------|-----------------|
B|-----------------|-----------------|-----------------|-----------------|
G|---6-6-6-6-6-6-6-|-9-9-9-9-9-9-9-9-|-9-9-9-9-9-9-9-9-|-9-9-9-9-9-9-11--|
D|-6---------------|-----------------|-----------------|-----------------|
A|-6-4-4-4-4-4-4-4-|-7-7-7-7-7-7-7-7-|-7-7-7-7-7-7-7-7-|-7-7-7-7-7-7-9---|
E|-4---------------|-----------------|-----------------|-----------------|


Chorus:
(1:20)
Guitar 1
e|--------------------------|-------(12)~~~-|-------|
B|-4--5-4-------------------|--(12)~~~------|--5----|
G|--------1-2-----4--4/6~~--|---------------|----6--|
D|--------------------------|---------------|-------|
A|--------------------------|---------------|-------|
E|--------------------------|---HARMONICS---|-------|

  "And you can cry all you want to, I don't care how.."


(1:25)
Guitar 1
e|-----------------|-----------------|-----------------|-----------------|
B|-----------------|-----------------|-----------------|-----------------|
G|-----------------|-----------------|-----------------|-----------------|
D|-6-6-6-6-6-6-6-6-|-7-7-7-7-7-7-7-7-|-2-2-2-2-2-2-2-2-|-6-6-6-6-6-6-6-6-|
A|-6-6-6-6-6-6-6-6-|-7-7-7-7-7-7-7-7-|-2-2-2-2-2-2-2-2-|-6-6-6-6-6-6-6-6-|
E|-4-4-4-4-4-4-4-4-|-5-5-5-5-5-5-5-5-|-0-0-0-0-0-0-0-0-|-4-4-4-4-4-4-4-4-|
PM ...............

  "Much. You'll invest yourself in me."

Guitar 2
e|-----------------|-----------------|-----------------|-----------------|
B|-----------------|-----------------|-----------------|-----------------|
G|-----------------|-9-9-9-9-9-9-9-9-|-9-9-9-9-9-9-9-9-|-8-8-8-8-8-8-8-8-|
D|-6-6-6-6-6-6-6-6-|-----------------|-----------------|-----------------|
A|-6-6-6-6-6-6-6-6-|-7-7-7-7-7-7-7-7-|-7-7-7-7-7-7-7-7-|-6-6-6-6-6-6-6-6-|
E|-4-4-4-4-4-4-4-4-|-----------------|-----------------|-----------------|
PM ...............

(1:34)
Guitar 1
e|----------------|
B|----------------|
G|----------------|
D|-4--2-4-2-4-2-4-|
A|-4--2-4-2-4-2-4-|
E|-2--0-2-0-2-0-2-|

  "..(working out) And.."


(1:36)
Guitar 1
e|-----------------|         |-----------------|
B|-----5-5-4-4-----|         |-----4-4-5-5-7-7-|
G|-6-6---------4-4-| x3 then |-6-6-------------|
D|-----------------|         |-----------------|
A|-----------------|         |-----------------|
E|-----------------|         |-----------------|

  "And you can't touch my friends."


(1:40)
e|-----------------|         |-----------------|
B|-----5-5-4-4-----|         |-----4-4-5-5-7-7-|
G|-6-6---------4-4-| x3 then |-6-6-------------|
D|-----------------|         |-----------------|
A|-----------------|         |-----------------|
E|-----------------|         |-----------------|

  "We're not working out.."

(1:36)
Guitar 2
e|-----------------|-----------------|-----------------|-----------------|
B|-----------------|-----------------|-----------------|-----------------|
G|-6-6-6-6-6-6-6-6-|-4-4-4-4-4-4-4-4-|-----------------|-2-2-2-2-2-2-2-2-|
D|-6-6-6-6-6-6-6-6-|-4-4-4-4-4-4-4-4-|-4-4-4-4-4-4-4-4-|-2-2-2-2-2-2-2-2-|
A|-4-4-4-4-4-4-4-4-|-2-2-2-2-2-2-2-2-|-4-4-4-4-4-4-4-4-|-0-0-0-0-0-0-0-0-|
E|-----------------|-----------------|-2-2-2-2-2-2-2-2-|-----------------|

e|-----------------|
B|-----------------|
G|-2-2-2-2-4-4-4-4-|
D|-2-2-2-2-4-4-4-4-|
A|-0-0-0-0-2-2-2-2-|
E|-----------------|
PM ...............

Verse:
(1:47)
Guitar 1
e|-------------------------|-------------------------|
B|-4-5-4-------------------|-4h5-4--5-5/7--5--7-7/9~-|
G|-------1--4/6-4-2--1h2-1-|-------------------------|
D|-------------------------|-------------------------|
A|-------------------------|-------------------------|
E|-------------------------|-------------------------|

  "But I hope I'm not mistaken.."

Guitar 2
e|----------------|
B|----------------|
G|-6--------------|
D|-6--------------|
A|-4--------------|
E|----------------|


(1:55)
Guitar 1
e|-----------------|-----------------|-----------------|-----------------|
B|-----------------|-----------------|-----------------|-----------------|
G|---6-6-6-6-6-6-6-|-4-4-4-4-4-4-4-4-|-2-2-2-2-2-2-2-2-|-2-2-2-2-2-2-2-2-|
D|-6-6-6-6-6-6-6-6-|-4-4-4-4-4-4-4-4-|-2-2-2-2-2-2-2-2-|-2-2-2-2-2-2-2-2-|
A|-6-4-4-4-4-4-4-4-|-2-2-2-2-2-2-2-2-|-0-0-0-0-0-0-0-0-|-0-0-0-0-0-0-0-0-|
E|-4---------------|-----------------|-----------------|-----------------|

  "Well, I find it hard to stay.."

Guitar 2
e|-----------------|-----------------|-----------------|-----------------|
B|-----------------|-----------------|-----------------|-----------------|
G|---6-6-6-6-6-6-6-|-9-9-9-9-9-9-9-9-|-9-9-9-9-9-9-9-9-|-9-9-9-9-9-9-11--|
D|-6---------------|-----------------|-----------------|-----------------|
A|-6-4-4-4-4-4-4-4-|-7-7-7-7-7-7-7-7-|-7-7-7-7-7-7-7-7-|-7-7-7-7-7-7-9---|
E|-4---------------|-----------------|-----------------|-----------------|

(2:05)
Guitar 1
e|-----------------|-------------------|-------------------|-------------------|
B|-----------------|-------------------|-------------------|-------------------|
G|-6-6-6-6-6-6-6-6-|-------------------|---6-6-6-6-6-6-6-6-|-------------------|
D|-6-6-6-6-6-6-6-6-|-6-7-7-7-7-7-7-7-7-|-6-6-6-6-6-6-6-6-6-|-6-7-7-7-7-7-7-7-7-|
A|-4-4-4-4-4-4-4-4-|-6-7-7-7-7-7-7-7-7-|-6-4-4-4-4-4-4-4-4-|-6-7-7-7-7-7-7-7-7-|
E|-----------------|-4-5-5-5-5-5-5-5-5-|-4-----------------|-4-5-5-5-5-5-5-5-5-|
PM ...............   .................   .................   .................

  "Well, I choose this life I've taken.."

Guitar 2
e|----4p0-2p0-2p0--|-----4p0-2p0-2p0---|-----4p0-2p0-2p0---|-----4p0-2p0-2p0---|
B|-0h2-------------|--0h2--------------|--0h2--------------|--0h2--------------|
G|-----------------|-------------------|-------------------|-------------------|
D|-----------------|-------------------|-------------------|-------------------|
A|-----------------|-------------------|-------------------|-------------------|
E|-----------------|-------------------|-------------------|-------------------|

(2:13)
Guitar 1
e|-----------------|-----------------|-----------------|-----------------|
B|-----------------|-----------------|-----------------|-----------------|
G|---6-6-6-6-6-6-6-|-4-4-4-4-4-4-4-4-|-2-2-2-2-2-2-2-2-|-2-2-2-2-2-2-2-2-|
D|-6-6-6-6-6-6-6-6-|-4-4-4-4-4-4-4-4-|-2-2-2-2-2-2-2-2-|-2-2-2-2-2-2-2-2-|
A|-6-4-4-4-4-4-4-4-|-2-2-2-2-2-2-2-2-|-0-0-0-0-0-0-0-0-|-0-0-0-0-0-0-0-0-|
E|-4---------------|-----------------|-----------------|-----------------|

  "Well, I find it hard to stay.."

Guitar 2
e|-----------------|-----------------|-----------------|-----------------|
B|-----------------|-----------------|-----------------|-----------------|
G|---6-6-6-6-6-6-6-|-9-9-9-9-9-9-9-9-|-9-9-9-9-9-9-9-9-|-9-9-9-9-9-9-11--|
D|-6---------------|-----------------|-----------------|-----------------|
A|-6-4-4-4-4-4-4-4-|-7-7-7-7-7-7-7-7-|-7-7-7-7-7-7-7-7-|-7-7-7-7-7-7-9---|
E|-4---------------|-----------------|-----------------|-----------------|


Chorus:

Guitar 1
(2:22)
e|--------------------------|-------(12)~~~-|-------|
B|-5--5-4-------------------|--(12)~~~------|--5----|
G|--------1-2-----4--4/6~~--|---------------|----6--|
D|--------------------------|---------------|-------|
A|--------------------------|---------------|-------|
E|--------------------------|---HARMONICS---|-------|

  "And you can cry all you want to, I don't care how.."


(2:27)
e|-----------------|-----------------|-----------------|-----------------|
B|-----------------|-----------------|-----------------|-----------------|
G|-----------------|-----------------|-----------------|-----------------|
D|-6-6-6-6-6-6-6-6-|-7-7-7-7-7-7-7-7-|-2-2-2-2-2-2-2-2-|-6-6-6-6-6-6-6-6-|
A|-6-6-6-6-6-6-6-6-|-7-7-7-7-7-7-7-7-|-2-2-2-2-2-2-2-2-|-6-6-6-6-6-6-6-6-|
E|-4-4-4-4-4-4-4-4-|-5-5-5-5-5-5-5-5-|-0-0-0-0-0-0-0-0-|-4-4-4-4-4-4-4-4-|
PM ...............

  "Much. You'll invest yourself in me."

Guitar 2
e|-----------------|-----------------|-----------------|-----------------|
B|-----------------|-----------------|-----------------|-----------------|
G|-----------------|-9-9-9-9-9-9-9-9-|-9-9-9-9-9-9-9-9-|-8-8-8-8-8-8-8-8-|
D|-6-6-6-6-6-6-6-6-|-----------------|-----------------|-----------------|
A|-6-6-6-6-6-6-6-6-|-7-7-7-7-7-7-7-7-|-7-7-7-7-7-7-7-7-|-6-6-6-6-6-6-6-6-|
E|-4-4-4-4-4-4-4-4-|-----------------|-----------------|-----------------|
PM ...............

(2:36)
e|----------------|
B|----------------|
G|----------------|
D|-4--2-4-2-4-2-4-|
A|-4--2-4-2-4-2-4-|
E|-2--0-2-0-2-0-2-|

  "..(out) And.."

Guitar 1
(2:38)
e|-----------------|         |-----------------|
B|-----5-5-4-4-----|         |-----4-4-5-5-7-7-|
G|-6-6---------4-4-| x3 then |-6-6-------------|
D|-----------------|         |-----------------|
A|-----------------|         |-----------------|
E|-----------------|         |-----------------|

  "You can't keep my brother, and you won't fuck my friends."


(2:42)
e|-----------------|         |-----------------|
B|-----5-5-4-4-----|         |-----4-4-5-5-7-7-|
G|-6-6---------4-4-| x3 then |-6-6-------------|
D|-----------------|         |-----------------|
A|-----------------|         |-----------------|
E|-----------------|         |-----------------|

  "We're not working out.."

(2:38)
Guitar 2
e|-----------------|-----------------|-----------------|-----------------|
B|-----------------|-----------------|-----------------|-----------------|
G|-6-6-6-6-6-6-6-6-|-4-4-4-4-4-4-4-4-|-----------------|-2-2-2-2-2-2-2-2-|
D|-6-6-6-6-6-6-6-6-|-4-4-4-4-4-4-4-4-|-4-4-4-4-4-4-4-4-|-2-2-2-2-2-2-2-2-|
A|-4-4-4-4-4-4-4-4-|-2-2-2-2-2-2-2-2-|-4-4-4-4-4-4-4-4-|-0-0-0-0-0-0-0-0-|
E|-----------------|-----------------|-2-2-2-2-2-2-2-2-|-----------------|

e|-----------------|
B|-----------------|
G|-2-2-2-2-4-4-4-4-|
D|-2-2-2-2-4-4-4-4-|
A|-0-0-0-0-2-2-2-2-|
E|-----------------|
PM ...............


Ending:
(2:49)
Guitar 1 and 2
e|-------|
B|-------|
G|-6~~~--|
D|-6~~~--|
A|-4~~~--|
E|-------|


(3:06)
Guitar 1
E|-----------------------|
B|-----------------------|
G|-6~~~~\-----8~~~~/9~~--|
D|-----------------------|
A|-4~~~~\-----6~~~~/7~~--|
E|-----------------------|

  "Never again.."


(3:14)-(3:47)
Guitar 1
e|----------------------------------------|
B|-2---2---------------2---2-----5---5----|
G|---1---1---4---4-------4---4-----6---6--|
D|-------------6---6----------------------|
A|----------------------------------------|
E|----------------------------------------|

  "You can cry all you want to."

(3:14)
Guitar 2
e|-----------------|-----------------|-----------------|-----------------|
B|-----------------|-----------------|-----------------|-----------------|
G|-----------------|-----------------|-----------------|-----------------|
D|-----------------|-----------------|-----------------|-----------------|
A|-4-4-4-4-6-6-7-7-|-3-3-3-3-6-6-7-7-|---------6-6-7-7-|-6-6-6-6-4-4-4-4-|
E|-----------------|-----------------|-4-4-4-4---------|-----------------|
PM .....................................................................
  


(3:31)
Guitar 2
e|-----------------|-----------------|-----------------|-----------------|
B|-----------------|-----------------|-----------------|-----------------|
G|-----------------|-----------------|-----------------|-----------------|
D|-----------------|-----------------|-----------------|-----------------|
A|-4-4-4-4-6-6-7-7-|-3-3-3-3-6-6-7-7-|---------6-6-7-7-|-6-6-6-6-4-4-4-4-|
E|-----------------|-----------------|-4-4-4-4---------|-----------------|

  "Oh baby let me in.."


(3:40)
e|-----------------|-----------------|-----------------|-----------------|
B|-----------------|-----------------|-----------------|-----------------|
G|-----------------|-----------------|-----------------|-----------------|
D|-----------------|-----------------|-----------------|-----------------|
A|-4-4-4-4-6-6-7-7-|-3-3-3-3-6-6-7-7-|---------6-6-7-7-|-6-6-6-6-4-4-4-4-|
E|-----------------|-----------------|-4-4-4-4---------|-----------------|

  "Oh baby let me in.."


(3:47)
Guitar 1 and 2
e|----|
B|----|
G|-6--|
D|-6--|
A|-4--|
E|----|

  "In."



-------------------------------------------------------
3. Vampires Will Never Hurt You
-------------------------------------------------------


Intro:
Guitar 1
e:|-----------------|-------------------|---------------------|
B:|-----------------|-------------------|---------------------|
G:|-9-9-9-9-9-9-9-9-|-9-9-9-9-11-11-9-9-|---------------------|
D:|-----------------|-0-0-0-0--0--0-0-0-|-9-9-9-9-10-10-10-10-|
A:|-7-7-7-7-7-7-7-7-|-------------------|---------------------|
E:|-----------------|-------------------|-8-8-8-8--8--8--8--8-|

e:|-------------------------|-------------------|-------------------|
B:|-------------------------|-------------------|---------------8-8-|
G:|-------------------------|-9-9-9-9-11-11-9-9-|-9-9-9-9-11-11-9-9-|
D:|-13-13-13-13-10-10--9--9-|-------------------|-0-0-0-0-----------|
A:|-------------------------|-7-7-7-7--9--9-7-7-|----------9—-9-7-7-|
E:|-11-11-11-11-11-11-11-11-|-------------------|-------------------|

e:|---------------------|-------------------------|
B:|---------------------|-------------------------|
G:|---------------------|-------------------------|
D:|-9-9-9-9-10-10-10-10-|-13-13-13-13-10-10--9--9-|
A:|---------------------|-------------------------|
E:|-8-8-8-8--8--8--8--8-|-11-11-11-11-11-11-11-11-|


Verse:
Guitar 1
e:|-------------------|-------------------|---------------------|
B:|-------------------|-------------------|---------------------|
G:|-9-9-9-9-11-11-9-9-|-9-9-9-9-11-11-9-9-|---------------------|
D:|-------------------|-0-0-0-0--0--0-0-0-|-9-9-9-9-10-10-10-10-|
A:|-7-7-7-7—-9--9-7-7-|-------------------|---------------------|
E:|-------------------|-------------------|-8-8-8-8--8--8--8--8-|

e:|-------------------------|-------------------|-------------------|
B:|-------------------------|-------------------|---------------8-8-|
G:|-------------------------|-9-9-9-9-11-11-9-9-|-9-9-9-9-11-11-9-9-|
D:|-13-13-13-13-10-10--9--9-|-------------------|-0-0-0-0-----------|
A:|-------------------------|-7-7-7-7--9--9-7-7-|----------9—-9-7-7-|
E:|-11-11-11-11-11-11-11-11-|-------------------|-------------------|

e:|---------------------|-------------------------|
B:|---------------------|-------------------------|
G:|---------------------|-------------------------|
D:|-9-9-9-9-10-10-10-10-|-13-13-13-13-10-10--9--9-|
A:|---------------------|-------------------------|
E:|-8-8-8-8--8--8--8--8-|-11-11-11-11-11-11-11-11-|

Guitar 2
e:|----7-7--7-7--|
B:|-----8-8--8-8-|
G:|-99-----------|
D:|-99-----------|
A:|-77-----------|
E:|--------------|

e:|----7-7----7-7--|
B:|-----8-8----8-8-|
G:|-99-------------|
D:|-99-------------|
A:|-77-------------|
E:|----------------|

e:|---------|
B:|---------|
G:|-9-9-9-9-|
D:|---------|
A:|-7-7-7-7-|
E:|---------|

e:|---------|
B:|---------|
G:|-9-9-9-9-|
D:|---------|
A:|-7-7-7-7-|
E:|---------|

e:|---------------------|
B:|---------------------|
G:|---------------------|
D:|---------------------|
A:|---------------------|
E:|-(Pick-Scrape)-------|


Chorus:

Guitar 1 (Distorted)
e:|-------------------|-------------------|---------------------|
B:|-------------------|-------------------|---------------------|
G:|-9-9-9-9-11-11-9-9-|-9-9-9-9-11-11-9-9-|---------------------|
D:|-------------------|-0-0-0-0--0--0-0-0-|-9-9-9-9-10-10-10-10-|
A:|-7-7-7-7—-9--9-7-7-|-------------------|---------------------|
E:|-------------------|-------------------|-8-8-8-8--8--8--8--8-|

e:|-------------------------|-------------------|-------------------|
B:|-------------------------|-------------------|---------------8-8-|
G:|-------------------------|-9-9-9-9-11-11-9-9-|-9-9-9-9-11-11-9-9-|
D:|-13-13-13-13-10-10--9--9-|-------------------|-0-0-0-0-----------|
A:|-------------------------|-7-7-7-7--9--9-7-7-|----------9—-9-7-7-|
E:|-11-11-11-11-11-11-11-11-|-------------------|-------------------|

e:|---------------------|-------------------------|
B:|---------------------|-------------------------|
G:|---------------------|-------------------------|
D:|-9-9-9-9-10-10-10-10-|-13-13-13-13-10-10--9--9-|
A:|---------------------|-------------------------|
E:|-8-8-8-8--8--8--8--8-|-11-11-11-11-11-11-11-11-|

e:|-------------------|
B:|-------------------|
G:|-------------------|
D:|-10-10-10--9--9—-9-|
A:|-------------------|
E:|-11-11-11-11-11-11-|
PM   .  .     .  .

Guitar 2 (Distorted)
e:|-----------------|-----------------|-----------------|-----------------------|
B:|-----------------|-----------------|-----------------|-----------------------|
G:|-9-9-9-9-9-9-9-9-|-7-7-7-7-7-7-7-7-|-5-5-5-5-5-5-5-5-|-8-8-8-8-5-5--5-4-4--4-|
D:|-9-9-9-9-9-9-9-9-|-7-7-7-7-7-7-7-7-|-5-5-5-5-5-5-5-5-|-8-8-8-8-5-5--5-4-4--4-|
A:|-7-7-7-7-7-7-7-7-|-5-5-5-5-5-5-5-5-|-3-3-3-3-3-3-3-3-|-6-6-6-6-3-3--3-2-2--2-|
E:|-----------------|-----------------|-----------------|-----------------------|
PM                                                                . .    . .
Both Guitars (Distorted)
e:|-----------------|
B:|-----------------|
G:|--9------9-------|
D:|--9------9-------|
A:|--7------7-------|
E:|-----------------|

Repeat Verse

Repeat Chorus

Pro Chorus
Guitar 1
e:|------------------------------------------|
B:|------------------------------------------|
G:|------------------------------------------|
D:|------------------------------------------|
A:|---7---7---8---7---2---2---2h3p2h3p2p0----|
E:|-00--00--00--00--00--00--00---------------|
PM  ..  ..  ..  ..  ..  ..  ..

Guitar 2 
e:|------------------------------------|
B:|------------------------------------|
G:|---------4444-4-33-3-33-3-33-3-33-3-|
D:|-2222-2--5555-5-33-3-33-3-33-3-33-3-|
A:|-2222-2--2222-2-11-1-11-1-11-1-11-1-|
E:|-0000-0-----------------------------|
PM  ....    ....   ..   ..   ..   ..

Guitar 1  

e:|--------------------|
B:|--------------------|
G:|-44444444-5555-8888-|
D:|--------------------|
A:|-22222222-3333-6666-|
E:|--------------------|

Guitar 2 

e:|--------------------|
B:|--------------------|
G:|-44444444-5555-8888-|
D:|-55555555-5555-8888-|
A:|-22222222-3333-6666-|
E:|--------------------|

Verse

Chorus:
Guitar 1(Slight Change this time) 
e:|----------------------------------------------------------|
B:|----------------------------------------------------------|
G:|-99999999-1111111111111111-1212121212121212-141414141414--|
D:|----------------------------------------------------------|
A:|-77777777-9-9-9-9-9-9-9-9--1010101010101010-121212121212--|
E:|----------------------------------------------------------|

e:|-------------------------------------------------------------|
B:|-------------------------------------------------------------|
G:|-17171717-1616161616161616-1414141414141414-1212121212121212-|
D:|-------------------------------------------------------------|
A:|-15151515-1414141414141414-1212121212121212-1010101010101010-|
E:|-------------------------------------------------------------|

e:|----------------------------|
B:|----------------------------|
G:|-141414141414-171717171717--|
D:|----------------------------|
A:|-121212121212-151515151515--|
E:|----------------------------|

Guitar 2 plays normal riff

Repeat Pro Chorus

Bridge:
Guitar 1 
e:|--------------------------------------|
B:|--------------------------------------|
G:|--------------------------------------|
D:|-9-999999999999999-9-9999999999999999-|
A:|-9-999999999999999-9-9999999999999999-|
E:|-7-777777777777777-7-7777777777777777-|
PM    ...............   ................

Guitar 2 
e:|--------------------------------------|
B:|--------------------------------------|
G:|--------------------------------------|
D:|-9-----------------9------------------|
A:|-9-----------------9------------------|
E:|-7-----------------7------------------|

Guitar 1 and 2
e:|-------------------|
B:|-------------------|
G:|-------------------|
D:|-9-999999999999999-|
A:|-9-999999999999999-|
E:|-7-777777777777777-|
PM    ...............

e:|--------------------|
B:|--------------------|
G:|--------------------|
D:|-7-777777777777777--|
A:|-7-777777777777777--|
E:|-5-555555555555555--|
PM    ...............

e:|---------------------|
B:|---------------------|
G:|---------------------|
D:|-5-5555555-22222222--|
A:|-5-5555555-22222222--|
E:|-3-3333333-00000000--|
PM    ....... ........

Guitar 1 
e:|---------------------------|
B:|---------------------------|
G:|---------------------------|
D:|-2---------7p5h7-9/7-------|
A:|-2---9p7h9-----------------|
E:|-0-------------------------|

Guitar 2
e|-----------|
B|-----------|
G|-----------|
D|-22222222--|
A|-22222222--|
E|-00000000--|
PM ........

Guitar 1
e:|------------------------------------------------------------|
B:|------------------------------------------------------------|
G:|--------------666666666666-777777777777-999999-121212121212-|
D:|-999999999999-666666666666-777777777777-999999-121212121212-|
A:|-999999999999-444444444444-555555555555-777777-101010101010-|
E:|-777777777777-----------------------------------------------|

e:|----------------------------------------------------|
B:|----------------------------------------------------|
G:|-1111111111111111-1212121212121212-1414141414141414-|
D:|-x-x-x-x-x-x-x-x--x-x-x-x-x-x-x-x--x-x-x-x-x-x-x-x--|
A:|-9-9-9-9-9-9-9-9--1010101010101010-1212121212121212-|
E:|----------------------------------------------------|

e:|-------------------------------|
B:|-------------------------------|
G:|-161616161616-1919191919191919-|
D:|-x-x-x-x-x-x--x-x-x-x-x-x-x-x--|
A:|-141414141414-1717171717171717-|
E:|-------------------------------|

Guitar 2
e:|--------------------------------------------|
B:|--------------------------------------------|
G:|-99999999-77777777-55555555-8888-55-5-44-4--|
D:|-99999999-77777777-55555555-8888-55-5-44-4--|
A:|-77777777-55555555-33333333-6666-33-3-22-2--|
E:|--------------------------------------------|

e:|--------------------------------------------|
B:|--------------------------------------------|
G:|-99999999-77777777-55555555-8888-55-5-44-4--|
D:|-99999999-77777777-55555555-8888-55-5-44-4--|
A:|-77777777-55555555-33333333-6666-33-3-22-2--|
E:|--------------------------------------------|


Outro

Guitar 1 and 2
e:|--------------------|
B:|--------------------|
G:|-----101010-999-777-|
D:|-99--x-x-x--xxx-xxx-|
A:|-xx--8-8-8--777-555-|
E:|-77-----------------|

(5:04)
e:|--------------------|
B:|--------------------|
G:|----101010--99------|
D:|-99--x-x-x--xx--999-|
A:|-xx--8-8-8--77--999-|
E:|-77-------------777-|
PM                 ...

Guitar 1
e:|-------------------------------------|
B:|-------------------12~---------------|
G:|-----------------------11~-------11~-|
D:|-999999-9~~~~~~~~~--------9~-----9~~-|
A:|-999999-9~~~~~~~~~-----------9~------|
E:|-777777-7~~~~~~~~~-------------------|

Guitar 2
e:|------------|
B:|------------|
G:|------------|
D:|-9~~~~~~~~~-|
A:|-9~~~~~~~~~-|
E:|-7~~~~~~~~~-|


-------------------------------------------------------
4. Drowning Lessons
-------------------------------------------------------

Intro and Verse:
Guitar 1
e:|---------------------|   |--------------------|
B:|---------------------|   |--------------------|
G:|-14-14-13-13-9-9-9-9-|   |-9-9-11-11-11—-9—-9-|
D:|---------------------|3x |--------------------|
A:|-12-12-11-11-7-7-7-7-|   |-7-7--9--9--9--7—-7-|
E:|---------------------|   |--------------------|

Guitar 1:Intro [pt 2]
e:|---------------------|   |-------------------------------------|
B:|---------------------|   |-------------------------------------|
G:|-14-14-13-13-9-9-9-9-|   |-13-13-13-13-13-13-11-11-13-13-11-11-|
D:|---------------------|2x |-------------------------------------|
A:|-12-12-11-11-7-7-7-7-|   |-11-11-11-11-11-11--9--9-11-11--9--9-|
E:|---------------------|   |-------------------------------------|

Guitar 2
e:|------------------------|-----------------------|
B:|------------------------|-----------------------|
G:|-7-----9-----11----9--9-|-7-----9-----6----7--7-|
D:|-7-----9-----11----9—-9-|-7-----9-----6----7--7-|
A:|-5-----7------9----7--7-|-5-----7-----4----5--5-|
E:|------------------------|-----------------------|

Chorus:
Guitar 1
e|------------------------------------------|
B|------------------------------------------|
G|-7-7-7-7-6-7-7-7-7-7/9-7-7-7-7-6-7-6-7-6--|
D|-7-7-7-7-6-7-7-7-7-7/9-7-7-7-7-6-7-6-7-6--|
A|-5-5-5-5-4-5-5-5-5-5/7-5-5-5-5-4-5-4-5-4--|
E|------------------------------------------|

Guitar 2
e|-------------------------------------------------------------------------|
B|-------------------------------------------------------------------------|
G|-7-7---7-7--7-7--7-7-9-9---9-9--9-9--9-9-6-6---6-6--6-6--6-6-------------|
D|-7-7---7-7--7-7--7-7-9-9---9-9--9-9--9-9-6-6---6-6--6-6--6-6-7-7-7-7-6-6-|
A|-5-5---5-5--5-5--5-5-7-7---7-7--7-7--7-7-4-4---4-4--4-4--4-4-7-7-7-7-6-6-|
E|-------------------------------------------------------------5-5-5-5-4-4-|
   . .   . .  . .  . . . .   . .  . .  . . . .   . .  . .  . . . . . . . .

Repeat Verse

Repeat Chorus

Solo:
Guitar 1
e:|----------------------------------|   |-----------------------------------|
B:|----------------------------------|   |-----------------------------------|
G:|-19-19-19-19-19-18-18-18-18-18-18-|   |-19-18-16-14-14-13-19-19-18-21-----|
D:|----------------------------------|3x |-----------------------------------|
A:|-17-17-17-17-17-16-16-16-16-16-16-|   |-17-16-14-12-12-11-17-17-16-19-----|
E:|----------------------------------|   |-----------------------------------|

e:|--------------------------------------------------------17-17-17-17-17-|
B:|-------------------17-19-19-19-19-19-17-21-21-21-21-21-----------------|
G:|----19----18----21--------------------------------------13-13-13-13-13-|
D:|-------------------14-16-16-16-16-16-14-18-18-18-18-18-----------------|
A:|----17----16----19-----------------------------------------------------|
E:|-----------------------------------------------------------------------|

e:|-17-17-17-17-17-16-12-12-12-12----17----16----19-19-21-21-21-21-21-19-21-|
B:|-------------------------------------------------------------------------|
G:|-13-13-13-13-13-12--9--9--9--9----13----12----16-16-18-18-18-18-18-16-18-|
D:|-------------------------------------------------------------------------|
A:|-------------------------------------------------------------------------|
E:|-------------------------------------------------------------------------|


e:|-22-21-19-17-16-17-17-17-17-17-16-12-12----17----16----12-14-12-16-17----|
B:|-------------------------------------------------------------------------|
G:|-19-18-16-13-12-13-13-13-13-13-12--9--9----13----12-----9-11--9-12-13----|
D:|-------------------------------------------------------------------------|
A:|-------------------------------------------------------------------------|
E:|-------------------------------------------------------------------------|

Guitar 2
e:|-------------------------------------------------|
B:|----------9----10----12----9---------------------|
G:|-------------------------------------------------|
D:|-6-7-7----6-----7-----9----6-6-7-7~-6-7-6-9-7-6--|
A:|-------------------------------------------------|
E:|-------------------------------------------------|

Bridge:
Guitar 1
e:|-----------------------------------------------------------------|
B:|-----------------------------------------------------------------|
G:|-----------------------------------4-4---------------------------|
D:|-4-4-2-2-2-2-2-2-2-2-7-7-----------4-4-2-2--2--2-7-7-2-2-2-2-3-3-|
A:|-4-4-2-2-2-2-2-2-2-2-7-7--4--5--4--2-2-2-2--2--2-7-7-2-2-2-2-3-3-|
E:|-2-2-0-0-0-0-0-0-0-0-5-5---------------0-0--0--0-5-5-0-0-0-0-1-1-|
       . . . . . . . .                    . .  .  .       . . . .

Guitar 2
e:|-------------------------------------------------|
B:|-------------------------------------------------|
G:|--------------------------------4-4--------------|
D:|-4-4--------------7-7-----------4-4-2h4-2h4-2h4--|
A:|-4-4--3h4-3h4-3h4-7-7-4-5-4-5-4~2-2--------------|
E:|-2-2--------------5-5----------------------------|

Repeat Verse


-------------------------------------------------------
5. Our Lady Of Sorrows
-------------------------------------------------------

Intro:

Guitar 1
e:|-------------------------|-------------------------|
B:|-------------------------|-------------------------|
G:|-------------------------|-------------------------|
D:|-11-------------------11-|-10----------------------|
A:|-11-------------------11-|-10----------------------|
E:|--9--------------------9-|--8----------------------|

Guitar 2
e:|-------------------------|-------------------------|
B:|-------------------------|-------------------------|
G:|-------------------------|-------------------------|
D:|-11-11-11-11-11-11-11-11-|-10-10-10-10-10-10-10-10-|
A:|-11-11-11-11-11-11-11-11-|-10-10-10-10-10-10-10-10-|
E:|--9--9--9--9--9--9--9--9-|--8--8--8--8--8--8--8--8-|
PM   .  .  .  .  .  .  .  .    .  .  .  .  .  .  .  .
Guitar 1
e:|-------------------------|-------------------------|
B:|-------------------------|-------------------------|
G:|-------------------------|-------------------------|
D:|-7---------------------7-|-10----------------------|
A:|-7---------------------7-|-10----------------------|
E:|-5---------------------5-|--8----------------------|

Guitar 2
e:|-------------------------|-------------------------|
B:|-------------------------|-------------------------|
G:|-------------------------|-------------------------|
D:|-7--7--7--7--7--7--7--7--|-10-10-10-10-10-10-10-10-|
A:|-7--7--7--7--7--7--7--7--|-10-10-10-10-10-10-10-10-|
E:|-5--5--5--5--5--5--5--5--|--8--8--8--8--8--8--8--8-|
PM  .  .  .  .  .  .  .  .     .  .  .  .  .  .  .  .

Verse:

Guitar 2 playes intro without PM
Guitar 1 starts with intro and does this
Near the end of the verse

Guitar 1
e:|------------------------|-------------------------|
B:|------------------------|-------------------------|
G:|-9-----8-----9-----11---|-9-----8-----9-----------|
D:|------------------------|-------------------------|
A:|-7-----6-----7------9---|-7-----6-----7-----------|
E:|------------------------|-------------------------|

Chorus:

Guitar 1 and 2
e:|------------------------|-------------------------|
B:|------------------------|-------------------------|
G:|-6--6-------------------|-6--6--------------5--5--|
D:|-6--6--6--6--7--7--4--4-|-6--6--6--6--7--7--5--5--|
A:|-4--4--6--6--7--7--4--4-|-4--4--6--6--7--7--3--3--|
E:|-------4--4--5--5--2--2-|-------4--4--5--5--------|

Repeat Verse

Repeat Chorus

Then right before brigde:

Guitar 1
e:|-----------------|
B:|-----------------|
G:|-6-6-6-6-6-6-6-6-|
D:|-6-6-6-6-6-6-6-6-|
A:|-4-4-4-4-4-4-4-4-|
E:|-----------------|
PM  . . . . . . . .

Brigde:

Guitar 1
e:|-----------------|-----------------|-----------------|-----------------|
B:|-----------------|-----------------|-----------------|-----------------|
G:|-9---8---9---9---|-9---8---9---9---|-9---8---9---9---|-9---8---9---8-6-|
D:|-----------------|-----------------|-----------------|-----------------|
A:|-----------------|-----------------|-----------------|-----------------|
E:|-----------------|-----------------|-----------------|-----------------|

Guitar 2
e:|-----------------|-----------------|-----------------|-----------------|
B:|-----------------|-----------------|-----------------|-----------------|
G:|-6-6-6-6-6-6-6-6-|-----------------|-----------------|-4-4-4-4-5-5-5-5-|
D:|-6-6-6-6-6-6-6-6-|-7-7-7-7-7-7-7-7-|-2-2-2-2-2-2-2-2-|-4-4-4-4-5-5-5-5-|
A:|-4-4-4-4-4-4-4-4-|-7-7-7-7-7-7-7-7-|-2-2-2-2-2-2-2-2-|-2-2-2-2-3-3-3-3-|
E:|-----------------|-5-5-5-5-5-5-5-5-|-0-0-0-0-0-0-0-0-|-----------------|

Repeat, then

Guitar 1
e:|-----------------|-----------------|-----------------|-------------------|
B:|-----------------|-----------------|-----------------|-------------------|
G:|-9---8---9---9---|-9---8---9---9---|-9---8---9---9---|-14p8h9p8h14p8h9p8-|
D:|-----------------|-----------------|-----------------|-------------------|
A:|-----------------|-----------------|-----------------|-------------------|
E:|-----------------|-----------------|-----------------|-------------------|

Guitar 2
e:|-----------------|-----------------|-----------------|-----------------|
B:|-----------------|-----------------|-----------------|-----------------|
G:|-----------------|-----------------|-6-6-6-6-6-6-6-6-|-6-6-6-6-6-6-6-6-|
D:|-7-7-7-7-7-7-7-7-|-9-9-9-9-9-9-9-9-|-6-6-6-6-6-6-6-6-|-6-6-6-6-6-6-6-6-|
A:|-7-7-7-7-7-7-7-7-|-9-9-9-9-9-9-9-9-|-4-4-4-4-4-4-4-4-|-4-4-4-4-4-4-4-4-|
E:|-5-5-5-5-5-5-5-5-|-7-7-7-7-7-7-7-7-|-----------------|-----------------|

Guitar 1
e:|-12--11--12--12--|-12--11--12--12--|-12--11--12--12--|-16--16--16--16--|
B:|-----------------|-----------------|-----------------|-----------------|
G:|-9---8---9---9---|-9---8---9---9---|-9---8---9---9---|-13--13--13--13--|
D:|-----------------|-----------------|-----------------|-----------------|
A:|-----------------|-----------------|-----------------|-----------------|
E:|-----------------|-----------------|-----------------|-----------------|

Guitar 2
e:|-----------------|-----------------|-----------------|-----------------|
B:|-----------------|-----------------|-----------------|-----------------|
G:|-----------------|-----------------|-9-9-9-9-9-9-9-9-|-12—-12--12—-12--|
D:|-7-7-7-7-7-7-7-7-|-9-9-9-9-9-9-9-9-|-9-9-9-9-9-9-9-9-|-----------------|
A:|-7-7-7-7-7-7-7-7-|-9-9-9-9-9-9-9-9-|-7-7-7-7-7-7-7-7-|-10--10--10--10--|
E:|-5-5-5-5-5-5-5-5-|-7-7-7-7-7-7-7-7-|-----------------|-----------------|

Repeat Chorus




-------------------------------------------------------
6. Headfirst for Halos
-------------------------------------------------------



Intro:

Guitar 1
e:|-----------------------------------------------------------------|
B:|-7p10----7p10----7p10----7p10----7p10----7p10----7p10----7p10----|
G:|------10------10------10------10------10------10------10------10-|
D:|-----------------------------------------------------------------|
A:|-----------------------------------------------------------------|
E:|-----------------------------------------------------------------|

e:|-------------------------------------------------|
B:|-8p7---8p7---8p7---8p7---8p7---8p7---8p7---8p7---|
G:|-----9-----9-----9-----9-----9-----9-----9-----9-|
D:|-------------------------------------------------|
A:|-------------------------------------------------|
E:|-------------------------------------------------|

e:|-------------------------------------------------|
B:|-7p5---7p5---7p5---7p5---7p5---7p5---7p5---7p5---|
G:|-----7-----7-----7-----7-----7-----7-----7-----7-|
D:|-------------------------------------------------|
A:|-------------------------------------------------|
E:|-------------------------------------------------|

e:|-------------------------------------------------|
B:|-8p7---8p7---8p7---8p7---8p7---8p7---8p7---8p7---|
G:|-----7-----7-----7-----7-----7-----7-----7-----7-|
D:|-------------------------------------------------|
A:|-------------------------------------------------|
E:|-------------------------------------------------|

e:|--------------------------------------------------------|
B:|---------7---------7------------------------------------|
G:|-7~--7-9---------9---7--7-9-11-12-11-9--11--9h11p9h11p9-|
D:|-----------9~--9----------------------------------------|
A:|--------------------------------------------------------|
E:|--------------------------------------------------------|

e:|--------------------------------------12-14/15-15~-|
B:|----------------------12-14/15-15--15--------------|
G:|-7~--7-9-11/12-12--12------------------------------|
D:|---------------------------------------------------|
A:|---------------------------------------------------|
E:|---------------------------------------------------|

Guitar 2
e:|--------------------------------------|
B:|--------------------------------------|
G:|-7~--9~--7~------7~--9~--7~-----------|
D:|-7~--9~--7~--5~--7~--9~--7~--555-5-55-|
A:|-5~--7~--5~--5~--5~--7~--5~--555-5-55-|
E:|-------------3~--------------333-3-33-|
PM                              ... . ..

e:|--------------------------------|
B:|--------------------------------|
G:|-7~--9~--7~------7~--9~--7~-----|
D:|-7~--9~--7~--5~--7~--9~--7~--5~-|
A:|-5~--7~--5~--5~--5~--7~--5~--5~-|
E:|-------------3~--------------3~-|


Verse:

Guitar 1
e:|-------------------------------------------------------------|
B:|-------------------------------------------------------------|
G:|-11-11-11111111-11-11-11111111-11-11-11111111-11-11-11111111-|
D:|-x--x--x-x-x-x--x--x--x-x-x-x--x--x--x-x-x-x--x--x--x-x-x-x--|
A:|-9--9--9-9-9-9--9--9--9-9-9-9--9--9--9-9-9-9--9--9--9-9-9-9--|
E:|-------------------------------------------------------------|

e:|------------------------------------------------------|
B:|------------------------------------------------------|
G:|-12-12-12121212-12-12-12121212-12-12-12121212--12--12-|
D:|-x--x--x-x-x-x--x--x--x-x-x-x--x--x--x-x-x-x---x---x--|
A:|-10-10-10101010-10-10-10101010-10-10-10101010--10--10-|
E:|------------------------------------------------------|

Guitar 2
e:|-------------------------------------|
B:|-------------------------------------|
G:|-7-7-7777-6-6-6666-4-4-4444-4-4-4444-|
D:|-7-7-7777-7-7-7777-4-4-4444-4-4-4444-|
A:|-5-5-5555-5-5-5555-2-2-2222-2-2-2222-|
E:|-------------------------------------|

e:|----------------------------------|
B:|----------------------------------|
G:|-9-9-9999-8-8-8888-7-7-7777--7--7-|
D:|-9-9-9999-9-9-9999-7-7-7777--7--7-|
A:|-7-7-7777-7-7-7777-5-5-5555--5--5-|
E:|----------------------------------|


Chorus:

Guitar 1
e:|----------------------------------------------------------|
B:|----------------------------------------8-7---------------|
G:|-7-------6------4-------------------7-9----9-7-6--9-7-9-6-|
D:|---4-7-4--4-7-4---4-7-4--9-7-5-4--9-----------------------|
A:|----------------------------------------------------------|
E:|----------------------------------------------------------|

Guitar 2
e:|---------------------------------------------|
B:|---------------------------------------------|
G:|-77--7-66--6-44-4-44--4-99--9-88--8-77--7-77-|
D:|-77--7-77--7-44-4-44--4-99--9-99--9-77--7-77-|
A:|-55--5-44--4-22-2-22--2-77--7-66--6-55--5-55-|
E:|---------------------------------------------|

Guitar 1
e:|---------------------------------------------------------------------|
B:|---------------------------------------------------------------------|
G:|--------111111111--------11111111---------111111111--------111111111-|
D:|---------x-x-x-x----------x-x-x-x----------x-x-x-x----------x-x-x-x--|
A:|-9-9-9-9-9-9-9-9--9-9-9-9-9-9-9-9--9-9-9-9-9-9-9-9--9-9-9-9-9-9-9-9--|
E:|---------------------------------------------------------------------|
PM  * * * *          * * * *          * * * *          * * * *

e:|---------------------------------------------------------------------|
B:|---------------------------------------------------------------------|
G:|---------12121212---------12121212---------12121212---------12121212-|
D:|---------x-x-x-x----------x-x-x-x----------x-x-x-x----------x-x-x-x--|
A:|-1010101010101010-1010101010101010-1010101010101010-1010101010101010-|
E:|---------------------------------------------------------------------|
PM  * * * *          * * * *          * * * *          * * * *

Gtr II

e:|------------------------------------------------------------------------|
B:|------------------------------------------------------------------------|
G:|-77777777-66666666-44444444-44444444-99999999-88888888-7777777777777777-|
D:|-77777777-77777777-44444444-44444444-99999999-99999999-7777777777777777-|
A:|-55555555-44444444-22222222-22222222-77777777-77777777-5555555555555555-|
E:|------------------------------------------------------------------------|
PM  ****     ****     ****     ****     ****     ****     ****    **** 


Repeat Verse


Repeat Chorus

Guitar 1 and 2
e:|----------------------|
B:|----------------------|
G:|-4-444444444444444-2~-|
D:|-4-444444444444444-2~-|
A:|-2-222222222222222-0~-|
E:|----------------------|
PM    ...............


Solo:

Guitar 1
e:|--------------------------------------------------------------------|
B:|--------------------------------------------------------------------|
G:|-11-11-11-11-11-11-11-11-11-11-11-11-11-11-9-11-11-11-11-9-7-9-11-9-|
D:|-x--x--x--x--x--x--x--x--x--x--x--x--x--x--x-x--x--x--x--x-x-x-x--x-|
A:|-9--9--9--9--9--9--9--9--9--9--9--9--9--9--7-9--9--9--9--7-5-7-9--7-|
E:|--------------------------------------------------------------------|

e:|--------------------------------------------------|
B:|--------------------------------------------------|
G:|-12-11-12\11/9/11-12-11-12-14-9-7-9-11-12-11-9-11-|
D:|-x--x--x--x--x-x--x--x--x--x--x-x-x-x--x--x--x-x--|
A:|-10-9--10\9-/7/9--10-9--10-12-7-5-7-9--10-9--7-9--|
E:|--------------------------------------------------|

e:|-10-9-10\9/10/12-14-12-10-9--10-9-10-12-14-12-10-9-|
B:|-x--x-x--x-x--x--x--x--x--x--x--x-x--x--x--x--x--x-|
G:|-7--6-7-\6/7/-9--11-9--7--6--7--6-7--9--11-9--7--6-|
D:|---------------------------------------------------|
A:|---------------------------------------------------|
E:|---------------------------------------------------|

e:|-15-14-15\14\12/14--15-14-15-17--12-10-12-14-15-14-12-14-10-|
B:|-x--x--x--x--x--x---x--x--x--x---x--x--x--x--x--x--x--x--x--|
G:|-12-11-12\11\9-/11--12-11-12-14--9--7--9--11-12-11-9--11-7--|
D:|------------------------------------------------------------|
A:|------------------------------------------------------------|
E:|------------------------------------------------------------|

Guitar 2
e:|-------------------------------------|
B:|-------------------------------------|
G:|-7-7-7777-6-6-6666-4-4-4444-4-4-4444-|
D:|-7-7-7777-7-7-7777-4-4-4444-4-4-4444-|
A:|-5-5-5555-5-5-5555-2-2-2222-2-2-2222-|
E:|-------------------------------------|

e:|---------------------------------|
B:|---------------------------------|
G:|-9-9-9999-8-8-8888-7-7-7777-7--7-|
D:|-9-9-9999-9-9-9999-7-7-7777-7--7-|
A:|-7-7-7777-7-7-7777-5-5-5555-5--5-|
E:|---------------------------------|

e:|----|
B:|----|
G:|-7~-|
D:|-7~-|
A:|-5~-|
E:|----|

Guitar 1
e:|--------10-------------------------|
B:|-----------------------------------|
G:|---7--7----------------------------|
D:|-------------/9-7\5\4--4-----------|
A:|-5-----------------------7\5-5---4-|
E:|-----------------------------------|


Outro:

Guitar 1
e:|-------------------------------------------------|
B:|-------------------------------------------------|
G:|-19-19-19-19-18-18-18-18-19-19-19-19-21-21-21-21-|
D:|-x--x--x--x--x--x--x--x--x--x--x--x--x--x--x--x--|
A:|-17-17-17-17-16-16-16-16-17-17-17-17-19-19-19-19-|
E:|-------------------------------------------------|

e:|-------------------------------------------------|
B:|-------------------------------------------------|
G:|-19-19-19-19-21-21-21-21-19-19-19-19-18-18-18-18-|
D:|-x--x--x--x--x--x--x--x--x--x--x--x--x--x--x--x--|
A:|-17-17-17-17-19-19-19-19-17-17-17-17-16-16-16-16-|
E:|-------------------------------------------------|

Guitar 2
e:|---------------------------------|
B:|---------------------------------|
G:|-7-7-7-7-6-6-6-6-7-7-7-7-9-9-9-9-|
D:|-x-x-x-x-x-x-x-x-x-x-x-x-x-x-x-x-|
A:|-5-5-5-5-4-4-4-4-5-5-5-5-7-7-7-7-|
E:|---------------------------------|

e:|---------------------------------|
B:|---------------------------------|
G:|-7-7-7-7-9-9-9-9-7-7-7-7-6-6-6-6-|
D:|-x-x-x-x-x-x-x-x-x-x-x-x-x-x-x-x-|
A:|-5-5-5-5-7-7-7-7-5-5-5-5-4-4-4-4-|
E:|---------------------------------|

Guitar 1 and 2
e:|-----------|
B:|-----------|
G:|-7~~~---7/-|
D:|-7~~~---7/-|
A:|-5~~~---5/-|
E:|-----------|




-------------------------------------------------------
7. Skylines and Turnstiles
-------------------------------------------------------

Intro:

Guitar 1
e:|------------------------------------------------------------------|
B:|-------------------------------------------888--------------------|
G:|-101010-999-777-----------------x2--101010-----777----------------|
D:|----------------101010-99-1010---------------------101010-99-1010-|
A:|------------------------------------------------------------------|
E:|------------------------------------------------------------------|
  
e:|-------------------------------|
B:|-------------------------------|
G:|-101010-999-777----------------|
D:|----------------101010-9h10p9~-|
A:|-------------------------------|
E:|-------------------------------|

Guitar 2
e:|-------------|-------------|-------------|-------------|
B:|-------------|-------------|-------------|-------------|
G:|-------------|-------------|-------------|-------------|
D:|-7-----------|-9-----------|-10----------|-6-----------|
A:|-7-----------|-9-----------|-10----------|-6-----------|
E:|-5-----------|-7-----------|--8----------|-4-----------|

Guitar 1
e:|------------------------------------------------------------------|
B:|-------------------------------------------888--------------------|
G:|-101010-999-777-----------------x2--101010-----777----------------|
D:|----------------101010-99-1010---------------------101010-99-1010-|
A:|------------------------------------------------------------------|
E:|------------------------------------------------------------------|

Guitar 2
e:|-------------|-------------|-------------|
B:|-------------|-------------|-------------|
G:|-------------|-------------|-------------|
D:|-7-----------|-9-----------|-10----------|
A:|-7-----------|-9-----------|-10----------|
E:|-5-----------|-7-----------|--8----------|

Guitar 1 and 2
e:|-----------|
B:|-----------|
G:|-----------|
D:|-6666666-6-|
A:|-6666666-6-|
E:|-4444444-4-|
PM     .......


Verse:

Guitar 1 and 2
e:|--------------------------------------------|
B:|--------------------------------------------|
G:|--------------------------------------------|
D:|-77777777/55555555-44444444-xx3-xx3-xx3-xx3-| x2
A:|-77777777/55555555-55555555-xx3-xx3-xx3-xx3-|
E:|-55555555/33333333-22222222-xx1-xx1-xx1-xx1-|

Guitar 1
e:|--------------------------------------------|
B:|--------------------------------------------|
G:|--------------------------------------------|
D:|-77777777/55555555-44444444-xx3-xx3-xx3-xx3-| x2
A:|-77777777/55555555-55555555-xx3-xx3-xx3-xx3-|
E:|-55555555/33333333-22222222-xx1-xx1-xx1-xx1-|

Guitar 2
e:|-------------------------------------------------------|
B:|-------------------------------------------------------|
G:|-------------------------------------------------------|
D:|-77777777/101010101010/9/101010101010--xx3-xx3-xx3-xx3-| x2
A:|---------------------------------------xx3-xx3-xx3-xx3-|
E:|-55555555/-8-8-8-8-8-8/7/-8-8-8-8-8-8--xx1-xx1-xx1-xx1-|

Guitar 1
e:|---------------------------------------------------|
B:|---------------------------------------------------|
G:|---------------------------------------------------|
D:|-77777777/9999999/1010101010101010-xx6-xx6-xx6-xx6-|
A:|-77777777/9999999/1010101010101010-xx6-xx6-xx6-xx6-|
E:|-55555555/7777777/-8-8-8-8-8-8-8-8-xx4-xx4-xx4-xx4-|

Guitar 2
e:|--------------------------------------------|
B:|--------------------------------------------|
G:|-55555555/77777777/99999999-xx9-xx9-xx9-xx9-|
D:|----------------------------xx--xx--xx--xx--|
A:|-33333333/55555555/77777777-xx7-xx7-xx7-xx7-|
E:|--------------------------------------------|

Guitar 1
e:|-----------------------------------------------|
B:|-----------------------------------------------|
G:|-----------------------------------------------|
D:|-77777777/9999999/1010101010101010-666666666-6-|
A:|-77777777/9999999/1010101010101010-666666666-6-|
E:|-55555555/7777777/-8-8-8-8-8-8-8-8-444444444-4-|
                                       .........

Guitar 2
e:|-----------------------------------------------|
B:|-----------------------------------------------|
G:|-55555555/77777777/1212121212121212------------|
D:|------------------------------------66666666-6-|
A:|-33333333/55555555/1010101010101010-66666666-6-|
E:|------------------------------------44444444-4-|
PM                                     ........

Chorus:

Guitar 1 and 2
e:|----------------------------------------------------------------|
B:|----------------------------------------------------------------|
G:|----------------------------------2-2-2-2-2-2-2-----------------|
D:|-3-3-3-3-3-3-3333-2-2-2-2-2-2-2-2-2-2-2-2-2-2-2-5-5-xxx-5-5-xxx-|
A:|-3-3-3-3-3-3-3333-2-2-2-2-2-2-2-2-0-0-0-0-0-0-0-5-5-xxx-5-5-xxx-|
E:|-1-1-1-1-1-1-1111-0-0-0-0-0-0-0-0---------------3-3-xxx-3-3-xxx-|
PM              ....             . .

e:|------------------------------------------------------------|
B:|------------------------------------------------------------|
G:|---------------------------------2-2-2-2-2-2-2--5--5---5--5-|
D:|-3-3-3-3-3-3-3-3-2-2-2-2-2-2-2-2-2-2-2-2-2-2-2--5--5---5--5-|
A:|-3-3-3-3-3-3-3-3-2-2-2-2-2-2-2-2-0-0-0-0-0-0-0--3--3---3--3-|
E:|-1-1-1-1-1-1-1-1-0-0-0-0-0-0-0-0----------------------------|
PM                              . .

Guitar 1
e:|----------------------------------------------------------------|
B:|----------------------------------------------------------------|
G:|----------------------------------2-2-2-2-2-2-2-----------------|
D:|-3-3-3-3-3-3-3333-2-2-2-2-2-2-2-2-2-2-2-2-2-2-2-5-5-xxx-5-5-xxx-|
A:|-3-3-3-3-3-3-3333-2-2-2-2-2-2-2-2-0-0-0-0-0-0-0-5-5-xxx-5-5-xxx-|
E:|-1-1-1-1-1-1-1111-0-0-0-0-0-0-0-0---------------3-3-xxx-3-3-xxx-|
PM              ....             . .

e:|------------------------------------------------------------|
B:|------------------------------------------------------------|
G:|---------------------------------2-2-2-2-2-2-2--5--5---5--5-|
D:|-3-3-3-3-3-3-3-3-2-2-2-2-2-2-2-2-2-2-2-2-2-2-2--5--5---5--5-|
A:|-3-3-3-3-3-3-3-3-2-2-2-2-2-2-2-2-0-0-0-0-0-0-0--3--3---3--3-|
E:|-1-1-1-1-1-1-1-1-0-0-0-0-0-0-0-0----------------------------|
PM                              . .

Guitar 2
e:|------------------------------------------------------------------------|
B:|------------------------------------------------------------------------|
G:|-----4/5------5/7----7/9----------------4/5------5/7----7/9-------------|
D:|------------------------------------------------------------------------|
A:|-----2/3------3/5----5/7----------------2/3------3/5----5/7-------------|
E:|------------------------------------------------------------------------|

Brigde:

Guitar 1
e:|------------------------------|
B:|------------------------------|
G:|-22-33-3--22-33-3--3-2---3-2--|x4
D:|-22-33-3--22-33-3--3-2---3-2--|
A:|-00-11-1--00-11-1--1-0---1-0--|
E:|------------------------------|

Guitar 2
e:|------66-------55-------------|
B:|------66-------66-------------|
G:|--------------------10-9-10-9-|x2
D:|------------------------------|
A:|---------------------8-7--8-7-|
E:|------------------------------|

e:|-----33-------55------------------------------------------|
B:|-----33-------55------------------------------------------|
G:|-------------------10-9-10-9--------4------4----10-9-10-9-|
D:|----------------------------------------------------------|
A:|--------------------8-7--8-7------2---2----2-----8-7--8-7-|
E:|----------------------------------------------------------|

Guitar 1
e:|-12-12-12-12-12-12-12-12-10-10-10-10-10-10-10-10-8-8-8-8-8-8-8-8-8-8-8-8-8-8-8-|
B:|-------------------------------------------------------------------------------|
G:|--9--9--9--9--9--9--9--9--7--7--7--7--7--7--7--7-5-5-5-5-5-5-5-5-5-5-5-5-5-5-5-|
D:|-------------------------------------------------------------------------------|
A:|-------------------------------------------------------------------------------|
E:|-------------------------------------------------------------------------------|

Guitar 2
e:|---------|
B:|---------|
G:|---------|
D:|-3--3--3-|
A:|-3--3--3-|
E:|-1--1--1-|

e:|-------------------------------------------------------------------------|
B:|-------------------------------------------------------------------------|
G:|-5-5-5-5-5-5-5-5-7-7-7-7-7-7-7-7-9-9-9-9-9-9-9-9-10-10-10-10-10-10-10-10-|x2
D:|-5-5-5-5-5-5-5-5-7-7-7-7-7-7-7-7-9-9-9-9-9-9-9-9-10-10-10-10-10-10-10-10-|
A:|-3-3-3-3-3-3-3-3-5-5-5-5-5-5-5-5-7-7-7-7-7-7-7-7--8--8--8--8--8--8--8--8-|
E:|-------------------------------------------------------------------------|

e:|-----------|
B:|-----------|
G:|-----------|
D:|-333333333-|
A:|-333333333-|
E:|-111111111-|

Repeat Chorus

Then:

Guitar 1 and 2
e:|------------|
B:|------------|
G:|---------5--|
D:|-2----------|
A:|-2-------3--|
E:|-0----0-----|



-------------------------------------------------------
8. Early Sunsets Over Monroeville
-------------------------------------------------------


Intro:

    D			    Bm		    F#m		    A
e:|-----------------|-----------------|-----------------|-----------------|
B:|-----------------|-----------------|-----------------|-----------------|
G:|-7-------------9-|-7-------------9-|-7-------------9-|-9/11---9--------|x2
D:|-----------------|-----------------|-----------------|-----------------|
A:|-----------------|-----------------|-----------------|-----------------|
E:|-----------------|-----------------|-----------------|-----------------|

Verse:

    D			    Bm		    F#m		    A
e:|-----------------|-----------------|-----------------|-----------------|
B:|-------10--------|-----------------|-10--------------|-----------------|
G:|-11-12----7------|---------------7-|-----------------|-----------------|x2
D:|-----------------|-----------------|-----------------|-----------------|
A:|-----------------|-----------------|-----------------|-----------------|
E:|-----------------|-----------------|-----------------|-----------------|

    D			    Bm		    F#m		    A
e:|-----------------|-----------------|-----------------|-----------------|
B:|-7--7--7-7--7--7-|-7--7--7-7--7--7-|-7--7--7-7--7--7-|-----------------|
G:|-----------------|-----------------|-----------------|-----------------|x2
D:|-----------------|-----------------|-----------------|-----------------|
A:|-----------------|-----------------|-----------------|-----------------|
E:|-----------------|-----------------|-----------------|-----------------|

Chorus:

    
    Bm		    F#m		    Gm		    A
e:|-----------------|-----------------|-----------------|-----------------|
B:|-----------------|-----------------|-----------------|-----------------|
G:|-6--7--7-6--7--7-|-6--7--7-6--7--7-|-6--7--7-6--7--9-|-9/11---9--------|
D:|-----------------|-----------------|-----------------|-----------------|
A:|-----------------|-----------------|-----------------|-----------------|
E:|-----------------|-----------------|-----------------|-----------------|

   Bm		          F#m		    Gm		    A
e:|-----5-----------|-----5-----------|-----5------5----|---------15-14---|
B:|-----------------|-----------------|-----------------|-----------------|
G:|-6-7---7---------|-6-7---7---------|-6-7----6-7------|------14---------|
D:|-----------------|-----------------|-----------------|-----------------|
A:|-----------------|-----------------|-----------------|-----------------|
E:|-----------------|-----------------|-----------------|-----------------|

Verse:

    D			    Bm		    F#m		    A
e:|-----------------|-----------------|-----------------|-----------------|
B:|-----------------|-10--------------|-----------------|--------------10-|
G:|---------------7-|-----------------|-----------------|--------11-12----|
D:|-----------------|-----------------|-----------------|-----------------|
A:|-----------------|-----------------|-----------------|-----------------|
E:|-----------------|-----------------|-----------------|-----------------|

    D			    Bm		    F#m		    A
e:|-----------------|-----------------|-----------------|-----------------|
B:|-----------------|-10--------------|-----------------|-----------------|
G:|-7-------------7-|-----------------|-----------------|-----------------|
D:|-----------------|-----------------|-----------------|-----------------|
A:|-----------------|-----------------|-----------------|-----------------|
E:|-----------------|-----------------|-----------------|-----------------|

    D			    Bm		    F#m		    A
e:|-----------------|-----------------|-----------------|-----------------|
B:|-7--7--7-7--7--7-|-7--7--7-7--7--7-|-7--7--7-7--7--7-|-----------------|
G:|-----------------|-----------------|-----------------|-----------------|x2
D:|-----------------|-----------------|-----------------|-----------------|
A:|-----------------|-----------------|-----------------|-----------------|
E:|-----------------|-----------------|-----------------|-----------------|

Chorus:

    Bm		    F#m		    Gm		    A
e:|-----------------|-----------------|-----------------|-----------------|
B:|-----------------|-----------------|-----------------|-----------------|
G:|-6--7--7-6--7--7-|-6--7--7-6--7--7-|-6--7--7-6--7--9-|-9/11---9--------|x2
D:|-----------------|-----------------|-----------------|-----------------|
A:|-----------------|-----------------|-----------------|-----------------|
E:|-----------------|-----------------|-----------------|-----------------|

  Bm		          F#m		    Gm		    A
e:|-----5-----------|-----5-----------|-----5------5----|-----5-----------|
B:|-----------------|-----------------|-----------------|-----------------|
G:|-6-7---7---------|-6-7---7---------|-6-7----6-7------|-6-7---7---------|
D:|-----------------|-----------------|-----------------|-----------------|
A:|-----------------|-----------------|-----------------|-----------------|
E:|-----------------|-----------------|-----------------|-----------------|

  Bm		          F#m		    Gm		    A
e:|-----5-----------|-----5-----------|-----5------5----|-5/7-5-----------|
B:|-----------------|-----------------|-----------------|-------8-7-8-7-5-|
G:|-6-7---7---------|-6-7---7---------|-6-7----6-7------|-----------------|
D:|-----------------|-----------------|-----------------|-----------------|
A:|-----------------|-----------------|-----------------|-----------------|
E:|-----------------|-----------------|-----------------|-----------------|

Brigde:

Guitar 1
e:|-------------------------|
B:|---------------5-7-8-7-5-|
G:|-4-6-7-9-7-6-7-----------|x25
D:|-------------------------|
A:|-------------------------|
E:|-------------------------|

End:
e:|-------------------------|
B:|---5-7-8-7-5-------------|
G:|-7-------------4--/6---7-|
D:|-------------------------|
A:|-------------------------|
E:|-------------------------|

Guitar 2
e:|-------------------------|
B:|-------------------------|
G:|-------------------------|x10
D:|-9-9-9-7-7-7-5-5-5-4-4-4-|
A:|-------------------------|
E:|-------------------------|

F#m   Gm   A   F#m   Gm   A 

-------------------------------------------------------
9. This Is the Best Day Ever
-------------------------------------------------------


Intro1:

Guitar 1
e:|------------------|------------------|------------------|------------------|
B:|------------------|------------------|------------------|------------------|
G:|-1111111111111111-|-1212121212121212-|-1414141414141414-|-1616161619191919-|
D:|------------------|------------------|------------------|------------------|
A:|--9-9-9-9-9-9-9-9-|-1010101010101010-|-1212121212121212-|-1414141417171717-|
E:|------------------|------------------|------------------|------------------|

e:|------------------|------------------|------------------|------------------|
B:|------------------|------------------|------------------|------------------|
G:|-1111111111111111-|-1212121212121212-|-1414141414141414-|-1111111111-------|
D:|------------------|------------------|------------------|------------------|
A:|--9-9-9-9-9-9-9-9-|-1010101010101010-|-1212121212121212-|--9-9-9-9-9-------|
E:|------------------|------------------|------------------|------------------|

Intro2:

Repeat Guitar 1’s part

Guitar 2
e:|-----------------|-----------------|-----------------|-----------------|
B:|-----------------|-----------------|-----------------|-----------------|
G:|-5h7p5h7p5h7p5h7-|-4h5p4h5p4h5p4h5-|-2h4p2h4p2h4p2h4-|-4h5p4h5p4h5p4h5-|
D:|-----------------|-----------------|-----------------|-----------------|
A:|-----------------|-----------------|-----------------|-----------------|
E:|-----------------|-----------------|-----------------|-----------------|

e:|-----------------|-----------------|-----------------|-----------------|
B:|-----------------|-----------------|-----------------|-----------------|
G:|-5h7p5h7p5h7p5h7-|-4h5p4h5p4h5p4h5-|-2h4p2h4p2h4p2h4-|-4h5p4h5-7-------|
D:|-----------------|-----------------|-----------------|-----------------|
A:|-----------------|-----------------|-----------------|-----------------|
E:|-----------------|-----------------|-----------------|-----------------|

Verse:

Guitar 1
e:|------------------|------------------|------------------|------------------|
B:|------------------|------------------|------------------|------------------|
G:|-1111111111111111-|-1212121212121212-|-1414141414141414-|-1616161619191919-|x4
D:|------------------|------------------|------------------|------------------|
A:|--9-9-9-9-9-9-9-9-|-1010101010101010-|-1212121212121212-|-1414141417171717-|
E:|------------------|------------------|------------------|------------------|

Guitar 2
e:|-----------------|------------------|------------------|------------------|
B:|-----------------|------------------|------------------|------------------|
G:|-----------------|------------------|------------------|------------------|
D:|-----------------|------------------|------------------|------------------|
A:|-9-9-9-9-9-9-9-9-|-1010101010101010-|-1212121212121212-|-1414141417171717-|
E:|-7-7-7-7-7-7-7-7-|--8-8-8-8-8-8-8-8-|-1010101010101010-|-1212121215151515-|

e:|-----------------|------------------|------------------|-----------------|
B:|-----------------|------------------|------------------|-----------------|
G:|-----------------|------------------|------------------|-----------------|x2
D:|-----------------|------------------|------------------|-----------------|
A:|-9-9-9-9-9-9-9-9-|-1010101010101010-|-1212121212121212-|-9-9-9-9-9-9-9-9-|
E:|-7-7-7-7-7-7-7-7-|--8-8-8-8-8-8-8-8-|-1010101010101010-|-7-7-7-7-7-7-7-7-|

Pre-Chorus:

Guitar 1
e:|------------------------10--|
B:|-7h8p7-8h10p8-12h13p12-8--8-|x3
G:|----------------------------|
D:|----------------------------|
A:|----------------------------|
E:|----------------------------|

Guitar 2
e:|-----------------|-----------------|-----------------|-----------------|
B:|-----------------|-----------------|-----------------|-----------------|
G:|-4-4---------4-4-|---------4-4-----|-----4-4---------|-----------------|
D:|-4-4-5-5-2-2-4-4-|-5-5-2-2-4-4-5-5-|-2-2-4-4-5-5-2-2-|-2---------------|
A:|-2-2-5-5-2-2-2-2-|-5-5-2-2-2-2-5-5-|-2-2-2-2-5-5-2-2-|-2---------------|
E:|-----3-3-0-0-----|-3-3-0-0-----3-3-|-0-0-----3-3-0-0-|-0---------------|
PM  . . . . . . . .   . . . . . . . .   . . . . . . . .

Repeat Verse

Bridge1:

Guitar 1
e:|------------------|------------------|------------------|------------------|
B:|------------------|------------------|------------------|------------------|
G:|-1111111111111111-|-1212121212121212-|-1414141414141414-|-1616161616161616-|x3
D:|------------------|------------------|------------------|------------------|
A:|--9-9-9-9-9-9-9-9-|-1010101010101010-|-1212121212121212-|-1414141414141414-|
E:|------------------|------------------|------------------|------------------|

e:|------------------|------------------|------------------|
B:|------------------|------------------|------------------|
G:|-1111111111111111-|-1212121212121212-|-12---14---12-----|
D:|------------------|------------------|------------------|
A:|--9-9-9-9-9-9-9-9-|-1010101010101010-|-10---12---10-----|
E:|------------------|------------------|------------------|

Guitar 2
e:|-----------------|-----------------|-----------------|-----------------|
B:|-----------------|-----------------|-----------------|-----------------|
G:|-----------------|-----------------|-----------------|-----------------|
D:|-9--9--9---------|-9--9--9---------|-9--9--9---------|-9--9--9---------|
A:|-9--9--9---------|-9--9--9---------|-9--9--9---------|-9--9--9---------|
E:|-7--7--7---------|-7--7--7---------|-7--7--7---------|-7--7--7---------|

e:|-----------------|-----------------|-----------------|-----------------|
B:|-----------------|-----------------|-----------------|-----------------|
G:|-----------------|-----------------|-----------------|-----------------|
D:|-9-9-9-9-9-9-9-9-|-9-9-9-9-9-9-9-9-|-9-9-9-9-9-9-9-9-|-9-9-9-9-9-9-9-9-|
A:|-9-9-9-9-9-9-9-9-|-9-9-9-9-9-9-9-9-|-9-9-9-9-9-9-9-9-|-9-9-9-9-9-9-9-9-|
E:|-7-7-7-7-7-7-7-7-|-7-7-7-7-7-7-7-7-|-7-7-7-7-7-7-7-7-|-7-7-7-7-7-7-7-7-|

e:|-----------------|-----------------|-----------------|-----------------|
B:|-----------------|-----------------|-----------------|-----------------|
G:|-----------------|-----------------|-----------------|-----------------|
D:|-10--10--10--10--|--7---7---7---7--|--5---5---5---5--|--2---2---2---2--|
A:|-10--10--10--10--|--7---7---7---7--|--5---5---5---5--|--2---2---2---2--|
E:|--8---8---8---8--|--5---5---5---5--|--3---3---3---3--|--0---0---0---0--|

e:|-----------------|-----------------|----------------|
B:|-----------------|-----------------|----------------|
G:|-----------------|-----------------|----------------|
D:|-10--10--10--10--|--7---7---7---7--|--10---9---10---|
A:|-10--10--10--10--|--7---7---7---7--|--10---9---10---|
E:|--8---8---8---8--|--5---5---5---5--|---8---7----8---|

Chorus:

Guitar 1
e:|-----------------|-----------------|-----------------|-----------------|
B:|-----------------|-----------------|-----------------|-----------------|
G:|-----------------|-4-4-4-4-5-5-7-7-|-5-5-5-5-4-4-4-4-|-2-2-2-2-2-2-2-2-|
D:|-5-5-5-5-5-5-5-5-|-----------------|-5-5-5-5-4-4-4-4-|-2-2-2-2-2-2-2-2-|
A:|-5-5-5-5-5-5-5-5-|-2-2-2-2-3-3-5-5-|-3-3-3-3-2-2-2-2-|-0-0-0-0-0-0-0-0-|
E:|-3-3-3-3-3-3-3-3-|-----------------|-----------------|-----------------|

Guitar 2
e:|-----------------|-----------------|-----------------|-----------------|
B:|-----------------|-----------------|-----------------|-----------------|
G:|-----------------|-----------------|-5-5-5-5-5-5-5-5-|-2-2-2-2-2-2-2-2-|
D:|-5-5-5-5-5-5-5-5-|-4-4-4-4-4-4-4-4-|-5-5-5-5-5-5-5-5-|-2-2-2-2-2-2-2-2-|
A:|-5-5-5-5-5-5-5-5-|-4-4-4-4-4-4-4-4-|-3-3-3-3-3-3-3-3-|-0-0-0-0-0-0-0-0-|
E:|-3-3-3-3-3-3-3-3-|-2-2-2-2-2-2-2-2-|-----------------|-----------------|

Guitar 1 and 2
e:|-----------------|-----------------|
B:|-----------------|-----------------|
G:|-----------------|-----------------|
D:|-2-----2-4-----4-|-5-----5-4---2---|
A:|-2-----2-5-----5-|-5-----5-5---2---|
E:|-0-----0-2-----2-|-3-----3-2---0---|

Guitar 1
e:|-----------------|-----------------|
B:|-----------------|-----------------|
G:|-5-5-5-5-7-7-7-5-|-5-5-5-5-7-7-7-7-|
D:|-----------------|-----------------|
A:|-3-3-3-3-5-5-5-3-|-3-3-3-3-5-5-5-5-|
E:|-----------------|-----------------|

Guitar 2
e:|-----------------|-----------------|
B:|-----------------|-----------------|
G:|-5-5-5-5-5-5-5-5-|-5-5-5-5-5-5-5-5-|
D:|-5-5-5-5-5-5-5-5-|-5-5-5-5-5-5-5-5-|
A:|-3-3-3-3-3-3-3-3-|-3-3-3-3-3-3-3-3-|
E:|-----------------|-----------------|

Repeat 2 times


-------------------------------------------------------
10. Cubicles
-------------------------------------------------------


Intro:

Guitar 1
e:|-----------------------------------|
B:|-----------------------------------|
G:|---6666-44--666666-888888--999-888-|
D:|-----------------------------------|
A:|-0-4444-22--444444-666666--777-666-|
E:|-----------------------------------|
PM  .

e:|--------------------------------|
B:|--------------------------------|
G:|-6666-44--666666--888888--88-66-|
D:|--------------------------------|
A:|-4444-22--444444--666666--66-44-|
E:|--------------------------------|

Verse:

Guitar 1 and 2
e:|---------------------------------|
B:|---------------------------------|
G:|-6666-44--666666-888888--999-888-|
D:|---------------------------------|
A:|-4444-22--444444-666666--777-666-|
E:|---------------------------------|

e:|---------------------------------|
B:|---------------------------------|
G:|-6666-44--666666-11111111--66-88-|  
D:|---------------------------------|
A:|-4444-22--444444--9-9-9-9--44-66-|
E:|---------------------------------|

Chorus:

Guitar 1 and 2
e:|-----------------------|
B:|-----------------------|
G:|-----------------------|
D:|-2~-2-2222--8~-8-88-88-|
A:|-2~-2-2222--8~-8-88-88-|
E:|-0~-0-0000--6~-6-66-66-|
PM                     ..


e:|---------------------------------------|
B:|---------------------------------------|
G:|---------------------------------------|    
D:|-999999999-777777777-66666666666666666-|    
A:|-999999999-777777777-66666666666666666-|
E:|-777777777-555555555-44444444444444444-|


e:|-----------------------|
B:|-----------------------|
G:|-----------------------|
D:|-2~-2-2222--8~-8-88-88-|
A:|-2~-2-2222--8~-8-88-88-|
E:|-0~-0-0000--6~-6-66-66-|
PM                     ..

e:|---------------------------------------|
B:|---------------------------------------|
G:|-------------------------------66-88---|    
D:|-999999999-777777777-66666666----------|    
A:|-999999999-777777777-66666666—-44-66---|
E:|-777777777-555555555-44444444—---------|

e:|-----------------------|
B:|-----------------------|
G:|-----------------------|
D:|-2~-2-2222--6~-6-66-66-|
A:|-2~-2-2222--6~-6-66-66-|
E:|-0~-0-0000--4~-4-44-44-|
PM                     ..

e:|---------------------------------------|
B:|---------------------------------------|
G:|---------------------------------------|    
D:|-999999999-777777777-66666666666666666-|    
A:|-999999999-777777777-66666666666666666-|
E:|-777777777-555555555-44444444444444444-|

Pre-Verse:

Guitar 1 and 2
e:|---------------------------------|
B:|---------------------------------|
G:|-6666-44--666666-888888--999-888-|
D:|---------------------------------|
A:|-4444-22--444444-666666--777-666-|
E:|---------------------------------|


e:|---------------------------------|
B:|----------------------------12---|
G:|-6666-44--666666-11111111-111111-|  
D:|---------------------------------|
A:|-4444-22--444444-9-9-9-9---9—-9--|
E:|---------------------------------|

Repeat Verse

Repeat Chorus

Bridge:

Guitar 1
e:|------------------------------------|
B:|------------------------------------|
G:|-99999999-44444444-6666666666666666-|        
D:|-99999999-44444444-6666666666666666-| 
A:|-77777777-22222222-4444444444444444-|
E:|------------------------------------|
PM  ........ ........ ................

Guitar 2
e:|-------------------------------------|
B:|-------------------------------------|
G:|-------------------------------------|
D:|-------------------------------------|
A:|-77777777-22222222-44444444444444444-|
E:|-------------------------------------|  
PM  ........ ........ .................

Guitar 1
e:|-----------------------------------------------|
B:|-----------------------------------------------|
G:|-99999-8--99999-8--99999-8--99999-8--999-8h9p8-|
D:|-xxxxx-x--xxxxx-x--xxxxx-x--xxxxx-x--xxx-------|   
A:|-77777-6--77777-6--77777-6--77777-6--777-------|
E:|-----------------------------------------------|

Guitar 2
e:|------------------------------------|
B:|------------------------------------|
G:|-99999999-44444444-6666666666666666-|
D:|-99999999-44444444-6666666666666666-|
A:|-77777777-22222222-4444444444444444-|
E:|------------------------------------|

Outro:

Guitar 1 
e:|-----------------------------|
B:|-----------------------------|
G:|-----------------------------|
D:|-2222-2-4444-4-6666-6-9999-9-|
A:|-2222-2-4444-4-6666-6-7777-7-|
E:|-0000-0-2222-2-4444-4-7777-7-|
PM  ....   ....   ....   ....

Guitar 2
e:|----------------------------------|
B:|----------------------------------|
G:|-------------------------9h11p9/8-|x2
D:|-2222-2-4444-4-6666-6--9----------|
A:|-2222-2-4444-4-6666-6--7----------|
E:|-0000-0-2222-2-4444-4--7----------|
PM  ....   ....   ....
                                      
e:|-12---12---11---11----|
B:|---12---12----12---12-|
G:|----------------------|x8
D:|----------------------|
A:|----------------------|
E:|----------------------|

Guitar 1

e:|-----------------------------|
B:|-----------------------------|
G:|-----------------------------|
D:|-2222-2-4444-4-6666-6-9999-9-|
A:|-2222-2-4444-4-6666-6-7777-7-|
E:|-0000-0-2222-2-4444-4-7777-7-|
PM  ....   ....   ....   ....

e:|---------------|
B:|---------------|
G:|---------------|
D:|-2222-2-4444-4-|
A:|-2222-2-4444-4-|
E:|-0000-0-2222-2-|
PM  ....   ....

Guitar 1 and 2
e:|-----------------|
B:|-----------------|
G:|-----------------|
D:|-66-66-666-2~~~~-|
A:|-66-66-666-2~~~~-|
E:|-44-44-444-0~~~~-|
PM        ...


-------------------------------------------------------
11. Demolition Lovers
-------------------------------------------------------


Guitar 1
e:|------------------------------------------------------------------|
B:|------------------------------------------------------------------|
G:|-----0-------0-------0-------0--------------------5-5-5-5-4-4-4-4-|x4
D:|---1---1---1-------6---6---6---6------0-------0---5-5-5-5-4-4-4-4-|
A:|-3-------3-----3/8-------8----------3---3---3---3-3-3-3-3-2-2-2-2-|
E:|----------------------------------4-------4-------3-3-3-3-3-3-3-3-|

e:|-------------------------------------------------------------------------|
B:|-------------------------------------------------------------------------|
G:|-------------------------------------------------------------------------|
D:|-10-10-10-10-10-10-10-10-12-12-12-12-12-12-12-12-12-12-12-12-12-12-12-12-|
A:|-------------------------------------------------------------------------|
E:|--8--8--8--8--8--8--8--8-10-10-10-10-10-10-10-10-10-10-10-10-10-10-10-10-|

e:|-----------------------------------------------------------------|
B:|-----------------------------------------------------------------|
G:|-----------------------------------------------------------------|
D:|-13-13-13-13-15-15-15-15-10-10-10-10-10-10-10-10-8-8-8-8-8-8-8-8-|
A:|-----------------------------------------------------------------|
E:|-11-11-11-11-13-13-13-13--8--8--8--8--8--8--8--8-6-6-6-6-6-6-6-6-|

e:|-------------------------------------|
B:|-------------------------------------|
G:|-------------------------------------|
D:|-9-9-9-9-9-9-9-9-15-15-15-15-9-9-9-9-|
A:|-------------------------------------|
E:|-7-7-7-7-7-7-7-7-13-13-13-13-7-7-7-7-|

Guitar 1
e:|------------------------------------------------------------------|
B:|------------------------------------------------------------------|
G:|-----0-------0-------0-------0--------------------5-5-5-5-4-4-4-4-|x2
D:|---1---1---1-------6---6---6---6------0-------0---5-5-5-5-4-4-4-4-|
A:|-3-------3-----3/8-------8----------3---3---3---3-3-3-3-3-2-2-2-2-|
E:|----------------------------------4-------4-------3-3-3-3-3-3-3-3-|

Guitar 2
e:|------------------------------------------------------------------|
B:|------------------------------------------------------------------|
G:|------------------------------10\7---------------7------7b(8)b7---|
D:|-------------10/13------------------------------------------------|
A:|------------------------------------------------------------------|
E:|------------------------------------------------------------------|

e:|------------------------------------------------------------------|
B:|------------------------------------------------------------------|
G:|-5---------7------------------0-----------------------------------|
D:|--------------8--------6------------------------------------------|
A:|------------------------------------------------------------------|
E:|------------------------------------------------------------------|

Guitar 1
e:|---------------------------------------------------------------------|
B:|---------------------------------------------------------------------|
G:|---------------------------------------------------------------------|x2
D:|-6-6-6-6-6-6-6-6-8-8-8-8-8-8-8-8-9-9-9-9-9-9-9-9-10-10-10-10-8-8-8-8-|
A:|-6-6-6-6-6-6-6-6-8-8-8-8-8-8-8-8-9-9-9-9-9-9-9-9-10-10-10-10-8-8-8-8-|
E:|-4-4-4-4-4-4-4-4-6-6-6-6-6-6-6-6-7-7-7-7-7-7-7-7--8--8--8--8-6-6-6-6-|
PM  . . . . . . . . . . . . . . . . . . . . . . . .  .  .  .  . . . . .

Guitar 2
e:|---------------------------------------------------------------------|
B:|---------------------------------------------------------------------|
G:|-8-8-8-7-8-8-8-7-8-8-8-8-8-8-10-8-8-8-7-8-8-8-7-8-8-8-8--8-8--8-8-8-8|x2
D:|---------------------------------------------------------------------|
A:|---------------------------------------------------------------------|
E:|---------------------------------------------------------------------|

Guitar 1
e:|---------------------------------------------------------------------|
B:|---------------------------------------------------------------------|
G:|---------------------------------------------------------------------|x2
D:|-6-6-6-6-6-6-6-6-8-8-8-8-8-8-8-8-9-9-9-9-9-9-9-9-10-10-10-10-8-8-8-8-|
A:|-6-6-6-6-6-6-6-6-8-8-8-8-8-8-8-8-9-9-9-9-9-9-9-9-10-10-10-10-8-8-8-8-|
E:|-4-4-4-4-4-4-4-4-6-6-6-6-6-6-6-6-7-7-7-7-7-7-7-7--8--8--8--8-6-6-6-6-|

Guitar 2
e:|-------------------------------------------------------------------------|
B:|-------------------------------------------------------------------------|
G:|-12-12-12-12-12-12-12-12-12-12-12-12-12-12-12-12-10-10-10-10-10-10-13-13-|
D:|-------------------------------------------------------------------------|
A:|-10-10-10-10-10-10-10-10-10-10-10-10-10-10-10-10--8--8--8--8--8--8-11-11-|
E:|-------------------------------------------------------------------------|

e:|-----------------------------------------------------------------|
B:|-----------------------------------------------------------------|
G:|-8-8-8-8-7-7-7-7-8-8-8-8-8-8-8-8-8-8-8-8-8-8-8-8-7-7-7-7-7-7-7-7-|
D:|-----------------------------------------------------------------|
A:|-6-6-6-6-5-5-5-5-6-6-6-6-6-6-6-6-6-6-6-6-6-6-6-6-5-5-5-5-5-5-5-5-|
E:|-----------------------------------------------------------------|

e:|---------------------|
B:|---------------------|
G:|-8-8------10-10------|
D:|---------------------|
A:|-6-6-5-66--8--8-5-66-|
E:|---------------------|

Guitar 1
e:|--------------------------------------------------------------------|
B:|--------------------------------------------------------------------|
G:|--------------------------------------------------------------------|x2
D:|-10-10-------6-6------8-8--------9-9-9-9-----6-6--6-4-4—-4-5-5--5-5-|
A:|-10-10-------6-6------8-8--------9-9-9-9-----6-6--6-4-4--4-5-5--5-5-|
E:|--8--8-------4-4------6-6--------7-7-7-7-----4-4--4-2-2--2-3-3--3-3-|

Guitar 2
e:|--------------------------------------------------------------------|
B:|-----------------8h9------------------------------------------------|
G:|-------7h8p7--------8-----8-7-7---8/10-------7-7--7-5-5--5-5-5--5-5-|x2
D:|--------------------------------------------------------------------|
A:|--------------------------6-5-5---6/-8-------5-5--5-3-3--3-3-3--3-3-|
E:|--------------------------------------------------------------------|

Guitar 1
e:|---------------------------------------------------------------------|
B:|---------------------------------------------------------------------|
G:|---------------------------------------------------------------------|x4
D:|-6-6-6-6-6-6-6-6-8-8-8-8-8-8-8-8-9-9-9-9-9-9-9-9-10-10-10-10-8-8-8-8-|
A:|-6-6-6-6-6-6-6-6-8-8-8-8-8-8-8-8-9-9-9-9-9-9-9-9-10-10-10-10-8-8-8-8-|
E:|-4-4-4-4-4-4-4-4-6-6-6-6-6-6-6-6-7-7-7-7-7-7-7-7--8--8--8--8-6-6-6-6-|

Guitar 2
e:|-----------------------------------------------------------------|
B:|-----------------------------------------------------------------|
G:|-5-5-5-5-5-5-5-5-7-7-7-7-7-7-7-7-7-7-7-7-7-7-7-7-8-8-8-8-8-8-8-8-|
D:|-----------------------------------------------------------------|
A:|-3-3-3-3-3-3-3-3-5-5-5-5-5-5-5-5-5-5-5-5-5-5-5-5-6-6-6-6-6-6-6-6-|
E:|-----------------------------------------------------------------|

e:|-----------------------------------------------------------------|
B:|-----------------------------------------------------------------|
G:|-8-8-8-8-8-8-8-8-8-8-8-8-8-8-8-8-7-7-7-7-7-7-7-7-8-8-8-8-8-8-8-8-|
D:|-----------------------------------------------------------------|
A:|-6-6-6-6-6-6-6-6-6-6-6-6-6-6-6-6-5-5-5-5-5-5-5-5-6-6-6-6-6-6-6-6-|
E:|-----------------------------------------------------------------|

e:|-------------------------------------------------------------------------|
B:|-------------------------------------------------------------------------|
G:|-12-12-12-12-12-12-12-12-12-12-12-12-12-12-12-12-10-10-10-10-10-10-13-13-|
D:|-------------------------------------------------------------------------|
A:|-10-10-10-10-10-10-10-10-10-10-10-10-10-10-10-10--8--8--8--8--8--8-11-11-|
E:|-------------------------------------------------------------------------|

e:|-----------------------------------------------------------------|
B:|-----------------------------------------------------------------|
G:|-8-8-8-8-7-7-7-7-8-8-8-8-8-8-8-8-8-8-8-8-8-8-8-8-7-7-7-7-7-7-7-7-|
D:|-----------------------------------------------------------------|
A:|-6-6-6-6-5-5-5-5-6-6-6-6-6-6-6-6-6-6-6-6-6-6-6-6-5-5-5-5-5-5-5-5-|
E:|-----------------------------------------------------------------|

Stop

Guitar 1
e:|-----6-------6-------6---------------4-------4-------3---4---6-|
B:|-----------------------------9-----------3-------4-------------|
G:|-8-------8-------8-------7-----5/7-5---5---5---5---5---5---5---|
D:|---8---8---8---8---8---8---8-----------------------------------|
A:|---------------------------------------------------------------|
E:|---------------------------------------------------------------|

e:|----------------------|
B:|----------------------|
G:|----------------------|
D:|-10--10-----10--10--5-|
A:|-10--10-----10--10--5-|
E:|--8---8------8---8--3-|


Solo:

Guitar 1
e:|-------------------------------------------------------------------------|
B:|-------------------------------------------------------------------------|
G:|-------------------------------------------------------------------------|x4
D:|-6-6-6-6-6-6-6-6-6-6-6-6-6-6-6-6-10-10-10-10-10-10-10-10-5-5-5-5-5-5-5-5-|
A:|-6-6-6-6-6-6-6-6-6-6-6-6-6-6-6-6-10-10-10-10-10-10-10-10-5-5-5-5-5-5-5-5-|
E:|-4-4-4-4-4-4-4-4-4-4-4-4-4-4-4-4--8--8--8--8--8--8--8--8-3-3-3-3-3-3-3-3-|

e:|---------------------|
B:|---------------------|
G:|-5-5--5---5-5--5-----|
D:|-5-5--5---5-5--5---5-|
A:|-3-3--3---3-3--3---5-|
E:|-------------------3-|

e:|---------------------------------------------------------------------------|
B:|---------------------------------------------------------------------------|
G:|-8-8-8-8-8-8-7-7-8-8-8-8-8-8-10-10-8-8-8-8-8-8-8-8-7-7-7-7-5-5-7-7-8-8-8-8-|
D:|---------------------------------------------------------------------------|
A:|---------------------------------------------------------------------------|
E:|---------------------------------------------------------------------------|

e:|-----------------------------------------------------------------|
B:|-------------8-8-8-8-9-9-9-8h9p8-8-8-8-8-8-8-8-8-8---------------|
G:|-10-10-10-10---------------------------------------10-10-8-8-7-7-|
D:|-----------------------------------------------------------------|
A:|-----------------------------------------------------------------|
E:|-----------------------------------------------------------------|

e:|-------------------------------------------------------------------------|
B:|-/9-9-9-9-11-11-11-11-15-15-15-15-16-16-16-15-16-16-16-16-16-16-16-16-16-|
G:|-------------------------------------------------------------------------|
D:|-------------------------------------------------------------------------|
A:|-------------------------------------------------------------------------|
E:|-------------------------------------------------------------------------|

e:|-------------------------------------13-13-13-13-15-15-15-15-16-16-16-15h16p15-|
B:|-16-16-15-15-13-13-15-15-16-16-16-16-------------------------------------------|
G:|-------------------------------------------------------------------------------|
D:|-------------------------------------------------------------------------------|
A:|-------------------------------------------------------------------------------|
E:|-------------------------------------------------------------------------------|

Feedback

e:|---------------------------------------------------------------------|
B:|-9-9-9-9-11-11-11-11-15-15-15-15-16-16-16-15-16-16-16-16-16-16-16-16-|
G:|---------------------------------------------------------------------|
D:|---------------------------------------------------------------------|
A:|---------------------------------------------------------------------|
E:|---------------------------------------------------------------------|

e:|----------------------------------------------------------------------|
B:|-16-16-15-15-13-13-11-11-13-13-13-13-9-9-9-9--11--11--9-9-9-8h9p8-8-8-|
G:|----------------------------------------------------------------------|
D:|----------------------------------------------------------------------|
A:|----------------------------------------------------------------------|
E:|----------------------------------------------------------------------|

e:|---------------|
B:|---------------|
G:|-5-5--5-5---7\-|
D:|---------------|
A:|-3-3--3-3---5\-|
E:|---------------|

End solo

Guitar 1
e:|-------------------------------------------------------------|
B:|-------------------------------------------------------------|
G:|---------------------------------------------------5-5-------|x4
D:|-6-6-6-6-6-6-6-6-8-8-8-8-8-8-6-6-5-5-5-5-5-5-5-5---5-5---5-5-|
A:|-6-6-6-6-6-6-6-6-8-8-8-8-8-8-6-6-5-5-5-5-5-5-5-5---3-3---5-5-|
E:|-4-4-4-4-4-4-4-4-6-6-6-6-6-6-4-4-3-3-3-3-3-3-3-3---------3-3-|

Guitar 2
e:|----------------------------------------------------|
B:|----------------------------------------------------|
G:|-13-13-13-13-13-13-13-13-13-13-13-13-13-13-13-13-13-|
D:|----------------------------------------------------|
A:|-11-11-11-11-11-11-11-11-11-11-11-11-11-11-11-11-11-|
E:|----------------------------------------------------|

e:|---------------------------------|
B:|---------------------------------|
G:|-8-8-8-8-8-8-8-8---13-13---12-12-|x2
D:|---------------------------------|
A:|-6-6-6-6-6-6-6-6---11-11---10-10-|
E:|---------------------------------|

e:|-----------------------------------------------|
B:|-----------------------------------------------|
G:|-----------------------------------------------|x2
D:|-----------------------------------------------|
A:|----6-----3-----------------2--3--5--6---6h8p5-|
E:|-4-----4-----6--4--3--1--3---------------------|

Guitar 1
e:|---------------------------------------------------------------------|
B:|---------------------------------------------------------------------|
G:|---------------------------------------------------------------------|
D:|-6-6-6-6-6-6-6-6-8-8-8-8-8-8-8-8-9-9-9-9-9-9-9-9-10-10-10-10-8-8-8-8-|
A:|-6-6-6-6-6-6-6-6-8-8-8-8-8-8-8-8-9-9-9-9-9-9-9-9-10-10-10-10-8-8-8-8-|
E:|-4-4-4-4-4-4-4-4-6-6-6-6-6-6-6-6-7-7-7-7-7-7-7-7--8--8--8--8-6-6-6-6-|

Guitar 2
e:|-----------------------------------------|
B:|-----------------------------------------|
G:|-13-13-13-13-12-12-10-10-8-8-8-8-7-7-8-8-|
D:|-----------------------------------------|
A:|-11-11-11-11-10-10--8--8-6-6-6-6-5-5-6-6-|
E:|-----------------------------------------|

e:|-----------------------------------------|
B:|-----------------------------------------|
G:|-13-13-13-13-12-12-10-10-8-8-8-8-7-7-7-7-|
D:|-----------------------------------------|
A:|-11-11-11-11-10-10--8--8-6-6-6-6-5-5-5-5-|
E:|-----------------------------------------|

e:|-----------------------------------------|
B:|-----------------------------------------|
G:|-13-13-13-13-12-12-10-10-8-8-8-8-7-7-8-8-|
D:|-----------------------------------------|
A:|-11-11-11-11-10-10--8--8-6-6-6-6-5-5-6-6-|
E:|-----------------------------------------|

e:|-------------------------------------------------|
B:|-------------------------------------------------|
G:|-13-13-13-13-12-12-13-13-12-12-12-12-10-10-10-10-|
D:|-------------------------------------------------|
A:|-11-11-11-11-10-10-11-11-10-10-10-10--8--8--8--8-|
E:|-------------------------------------------------|

e:|-----------------------------------------|
B:|-----------------------------------------|
G:|-13-13-13-13-12-12-10-10-8-8-8-8-7-7-8-8-|
D:|-----------------------------------------|
A:|-11-11-11-11-10-10--8--8-6-6-6-6-5-5-6-6-|
E:|-----------------------------------------|

e:|-----------------------------------------|
B:|-----------------------------------------|
G:|-13-13-13-13-12-12-10-10-8-8-8-8-7-7-7-7-|
D:|-----------------------------------------|
A:|-11-11-11-11-10-10--8--8-6-6-6-6-5-5-5-5-|
E:|-----------------------------------------|

e:|-----------------------------------------|
B:|-----------------------------------------|
G:|-13-13-13-13-12-12-10-10-8-8-8-8-7-7-8-8-|
D:|-----------------------------------------|
A:|-11-11-11-11-10-10--8--8-6-6-6-6-5-5-6-6-|
E:|-----------------------------------------|
end
comments
print report bad tab
18 comments total. Showing first comments. show 1 bad comment
+3 reply
mcr_01_fan wrote on November 3 2005, 02:28 pm

Hey dude.
Yeah this may have been made from some other peoples tabs even a few of mine (headfirst,some of vampires,cubicles) but this is awesome. 5 stars *****

0 reply
fox69 wrote on November 3 2005, 06:11 pm

hey man, good tabs. ive wanted to see a decent tab fer a few of those songs fer a while.good joB!!!!!*****

I want to post or [tab]
guest
You may want to rate the tab now too:
select rating
Please do not post tabs as comments. Select "correction" instead!