Oops, an error
Loading. Please wait.

I Brought You My Bullets You Brought Me Your Love Tab

ver2
ver2

Album

More versions @911Tabs.com
3,522 views 1 this week
4 commentsread comments
1 2 3 4 5
accurate
x 5
add to favorites launch autoscroll
font size
0
reset
Autoscroll
+/-
esc
set tempo
stop
Contributor
WARNING: You are trying to view
                                    content from Ultimate-Guitar.com
                                    in an unauthorized application,
                                    which is prohibited.

                                    Please use an official Ultimate
                                    Guitar Tabs application for iPhone,
                                    iPad or Android to access legitimate
                                    chords, guitar, bass, and drum tabs
                                    from Ultimate-Guitar.com database.

                                    Type "ultimate guitar tabs" in Apple
                                    App Store's or Android Market's
                                    search to find the application.
this is all of it...plzz enjoy...

Track 1:
Romance

finger picked

||-7-----7-----7-----|-7-----5-----3-----|-3-----2-----0-----|
||---0-----0-----0---|---0-----0-----0---|---0-----0-----0---|
||-----0-----0-----0-|-----0-----0-----0-|-----0-----0-----0-|
||-------------------|-------------------|-------------------|
||-------------------|-------------------|-------------------|
||-0-----------------|-0-----------------|-0-----------------|

|-0-----3-----7-----|-12----12----12----|-12----10----8-----|
|---0-----0-----0---|---0-----0-----0---|---0-----0-----0---|
|-----0-----0-----0-|-----0-----0-----0-|-----0-----0-----0-|
|-------------------|-------------------|-------------------|
|-------------------|-------------------|-------------------|
|-0-----------------|-0-----------------|-0-----------------|

|-8-----7-----5-----|-5-----7-----8-----|-7-----8-----7-----|
|---5-----5-----5---|---5-----5-----5---|---7-----7-----8---|
|-----5-----5-----5-|-----5-----5-----5-|-----8-----8-----7-|
|-------------------|-------------------|-------------------|
|-0-----------------|-0-----------------|-------------------|
|-------------------|-------------------|-7-----------------|

|-11----8-----7-----|-7-----5-----3-----|-3-----2-----0-----|
|---7-----7-----7---|---0-----0-----0---|---0-----0-----0---|
|-----7-----7-----7-|-----0-----0-----0-|-----0-----0-----0-|
|-------------------|-------------------|-------------------|
|-------------------|-------------------|-------------------|
|-7-----------------|-0-----------------|-0-----------------|

|-2-----2-----2-----|-2-----3-----2-----|-0-----0-----0-----|-0------------|
|---1-----1-----1---|---0-----0-----0---|---0-----0-----0---|-0------------|
|-----2-----2-----2-|-----2-----2-----2-|-----0-----0-----0-|-0------------|
|-------------------|-------------------|-2-----------------|--------------|
|-0-----------------|-2-----------------|-------2-----------|--------------|
|-------------------|-------------------|-------------3-----|-0------------|


Track 2:
Honey This Mirror Isn’t Big Enough For The Two Of Us

Gtr I: Ray Toro: Standard Tuning (e,B,G,D,A,E)
Gtr II: Frank Iero: Standard Tuning (e,B,G,D,A,E)
Bass Gtr: Mikey Way: Standard Tuning (G,D,A,E)

Intro


Gtr I  (This is all Gtr I plays until verse)

e:|-----------------------------------|
B:|-----------------------------------|
G:|-----------------------------------|  
D:|-----------------------------------|
A:|---4---4---4---4---6---6---7---7---|
E:|-4---4---4---4---4---4---4---4-----|
PM  *   *   *   *   *   *   *   *

e:|-----------------------------------|
B:|-----------------------------------|
G:|-----------------------------------|  
D:|-----------------------------------|
A:|---4---4---4---4---6---6---7---7---|
E:|-5---5---5---5---5---5---5---5-----|
PM  *   *   *   *   *   *   *   *


e:|-----------------------------------|
B:|-----------------------------------|
G:|-----------------------------------|
D:|-----------------------------------|
A:|---3---3---3---3---4---4---6---6---|
E:|-4---4---4---4---4---4---4---4-----|
PM  *   *   *   *   *   *   *   *

e:|-----------------------------------|
B:|-----------------------------------|
G:|-----------------------------------|
D:|-----------------------------------|
A:|---6---6---6---6---4---4---4---4---|
E:|-4---4---4---4---4---4---4---4-----|
PM  *   *   *   *   *   *   *   *


After Gtr I has played intro once:


Gtr II 


e:|-----------------------------|
B:|-----------------------------|
G:|-6-~~----5~~-----------------|
D:|-6~~-----5~~-----6~~----7~~--| x2
A:|-4~~-----3~~-----6~~----7~~--|
E:|-----------------4~~----5~~--|

e:|-----------------------|
B:|-----------------------|
G:|-----------------------|
D:|-----------------------|
A:|-----------------------|
E:|-/////Pick-Scrape\\\\\-|

e:|-----------------------------------|
B:|-----------------------------------|
G:|-666666-8888-9999-555555-8888-9999-|
D:|-xxxxxx-xxxx-xxxx-xxxxxx-xxxx-xxxx-|
A:|-444444-6666-7777-333333-6666-7777-|
E:|-----------------------------------|

e:|--------------------------------------------|
B:|--------------------------------------------|
G:|----------8888-9999-11111111-9999-8888-9999-|
D:|-66666666-xxxx-xxxx-x-x-x-x--xxxx-xxxx-xxxx-|
A:|-xxxxxxxx-6666-7777-9-9-9-9--7777-6666-7777-|
E:|-44444444-----------------------------------|


Verse

Both Gtr's

e:|---------------------------------------------------|
B:|---------------------------------------------------|
G:|--6-------------------------6----------------------|
D:|--6-6666666--6-7----------6-6-6666666--6-7---------|
A:|--4-4444444--6-7-7777777--6-4-4444444--6-7-7777777-|
E:|-------------4-5-5555555--4------------4-5-5555555-|
PM     *******      *******      *******      *******

Pre Chorus

Gtr I


e:|--------------------------------------------|
B:|--------------------------------------------|
G:|--------------------------------------------|
D:|-1111111111111111-99999999-7777777777777777-|
A:|-1111111111111111-99999999-7777777777777777-|
E:|-9-9-9-9-9-9-9-9--77777777-5555555555555555-|

Gtr II

e:|-----------------------------------|
B:|-----------------------------------|
G:|-66666666-999999999999999999999999-|
D:|-xxxxxxxx-xxxxxxxxxxxxxxxxxxxxxxxx-|
A:|-44444444-777777777777777777777777-|
E:|-----------------------------------|


Repeat Verse

Repeat Pre-Chorus

Chorus

   Gtr II  (Clean)

e:|---------------------------------------|
B:|--5-5-4----------------------------5---|
G:|-------------4-4/6~------------------6-|
D:|--------6-7----------------------------|
A:|---------------------------------------|
E:|---------------------------------------|
  |
  |Gtr I 
  |
e:|--------------------------<12>~-------|
B:|----------------------<12>------------|
G:|--------------------------------------|
D:|--------------------------------------|
A:|--------------------------------------|
E:|--------------------------------------|

Both Gtr's

e:|--------------------------------------|
B:|--------------------------------------|
G:|--------------------------------------|
D:|-----------77777777-22222222-66666666-|
A:|-666666666-77777777-22222222-66666666-|
E:|-444444444-55555555-00000000-44444444-|
PM  *********

e:|----------------|
B:|----------------|
G:|----------------|
D:|-4-2-4-2-4-2-42-|
A:|-4-2-4-2-4-2-42-|
E:|-2-0-2-0-2-0-20-|


Gtr I 

e:|-------------------------------------------------|
B:|----55-44-------55-44-------55-44-------44-55-77-|
G:|-66-------44-66-------44-66-------44-66----------| (x2)
D:|-------------------------------------------------|
A:|-------------------------------------------------|
E:|-------------------------------------------------|

Gtr II

e:|--------------------------------------------|
B:|--------------------------------------------|
G:|--------------------------------------------| (x2)
D:|-1111111111111111-99999999-7777777777777777-|
A:|-1111111111111111-99999999-7777777777777777-|
E:|-9-9-9-9-9-9-9-9--77777777-5555555555555555-|


Pre Verse

Both Gtr's

e:|-------------------|
B:|-------------------|
G:|-------------------|
D:|-------------------|
A:|-66666666-77777777-|
E:|-44444444-55555555-|
PM  ******** ********


Verse II


Gtr II

e:|-----------------------------------|
B:|-5~-5-4-4h5p4----------------------|
G:|--------------------4/6-4----------|
D:|---------------6h7--------7-6h7p6~-|
A:|-----------------------------------|
E:|-----------------------------------|

e:|-------------------------|
B:|-4h5-4--5-5/7--5--7-7/9~-|
G:|-------------------------|
D:|-------------------------|
A:|-------------------------|
E:|-------------------------|


Repeat Pre Chorus

Verse III

Gtr I (Keep repeating until Pre Chorus) (Play Palm Muted)

e:|-----4---------|
B:|---5---7p5-7p5-|
G:|-6-------------|
D:|---------------|
A:|---------------|
E:|---------------|
PM  * * * *   *

e:|--------------------------------------------|
B:|--------------------------------------------|
G:|--------------------------------------------|
D:|-66666666--------------66666666-------------|
A:|-44444444-6-77777777-6-44444444-6-7-7777777-|
E:|----------4-55555555-4----------4-5-5555555-|
PM  ******** * ******** * ******** * * *******


Repeat Pre Chorus

Repeat Chorus

Bridge

Both Gtrs

e:|----------|
B:|----------|
G:|-6~~~~~~~-|
D:|-6~~~~~~~-|
A:|-4~~~~~~~-|
E:|----------|

Bass Solo

G:|-----------------------|
D:|-----------------------|
A:|-4-4-4444--------------| (x2)
E:|----------4-5-5-5555-4-|

G:|---------------------------------------------|
D:|---------------------------------------------|
A:|-4-4-444444-2-2-222222-----------------------|
E:|-----------------------6-6-666666-5-5-5555/0-|

Both Gtr's

e:|-----------------------|
B:|-----------------------|
G:|-6~~~~~~~\---/8~~-9~~~-|
D:|-x------------x---x----|
A:|-4~~~~~~~\---/6~~-7~~~-|
E:|-----------------------|

Gtr I

e:|-----------------------------------|
B:|-----------------------------------|
G:|-----------------------------------|  
D:|-----------------------------------|
A:|---4---4---4---4---6---6---7---7---|
E:|-4---4---4---4---4---4---4---4-----|
PM  * * * * * * * * * * * * * * * *

e:|-----------------------------------|
B:|-----------------------------------|
G:|-----------------------------------|  
D:|-----------------------------------|
A:|---4---4---4---4---6---6---7---7---|
E:|-5---5---5---5---5---5---5---5-----|
PM  * * * * * * * * * * * * * * * *


e:|-----------------------------------|
B:|-----------------------------------|
G:|-----------------------------------|
D:|-----------------------------------|
A:|---3---3---3---3---4---4---6---6---|
E:|-5---5---5---5---5---5---5---5-----|
PM  * * * * * * * * * * * * * * * *

e:|-----------------------------------|
B:|-----------------------------------|
G:|-----------------------------------|
D:|-----------------------------------|
A:|---6---6---6---6---4---4---4---4---|
E:|-4---4---4---4---4---4---4---4-----|
PM  * * * * * * * * * * * * * * * *

Gtr II

e:|-------------------------------------------------|
B:|-1-----1------------------2-----2------5-----5---|
G:|---2-----2----4-----4-------4-----4------6-----6-|
D:|----------------6-----6--------------------------|
A:|-------------------------------------------------|
E:|-------------------------------------------------|

Outro 

Gtr I Plays Intro

Gtr II

e:|-----------------------------------------------------------------|
B:|-----------------------------------------------------------------|
G:|-6-6-6-6-6-6-6-6-5-5-5-5-5-5-5-5---------------------------------|
D:|-6-6-6-6-6-6-6-6-5-5-5-5-5-5-5-5-6-6-6-6-6-6-6-6-7-7-7-7-7-7-7-7-|
A:|-4-4-4-4-4-4-4-4-3-3-3-3-3-3-3-3-6-6-6-6-6-6-6-6-7-7-7-7-7-7-7-7-|
E:|---------------------------------4-4-4-4-4-4-4-4-5-5-5-5-5-5-5-5-|


Both Gtr's End on

e:|---|
B:|---|
G:|-6-|
D:|-6-|
A:|-4-|
E:|---|


Track 3:
Vampires Will Never Hurt You


------ PART 1 ------
GUITAR ONE
Main riff - very light distortion

e||--------------------------|---------------------------|
B||--------------------------|-----------8---------------|
G||-9--9-11-9----------------|-9-11-9-11-9---------------|
D||----0-0--0--9-10/13-10-9--|-------------9-10/13-10-9--|
A||-7------------------------|-7-7--7-7--7---------------|
E||------------8-8-/11-11-11-|-------------8-8-/11-11-11-|


------ PART 2 ------
GUITAR ONE & TWO
Pick Slide then Main riff (with heavier distortion)
Second guitar under Main riff - distortion:

e||-----------------------|-----------------|
B||-----------------------|-----------------|
G||-9--7--5--8--xx-5-xx-4-|-9--7--5--8--5/4-|
D||-9--7--5--8--xx-5-xx-4-|-9--7--5--8--5/4-|
A||-7--5--3--6--xx-3-xx-2-|-7--5--3--6--3/2-|
E||-----------------------|-----------------|

Then the chord played aftwerwards (first time round only) - distortion

e||---|
B||---|
G||-9-|
D||-9-|
A||-7-|
E||---|


------ PART 3 ------
GUITAR ONE
Palm mute the 0's - distortion
slightly bend each note for a better sound (apart from the 0's, of course)

e||-------------------------------------------------|--------|
B||-------------------------------------------------|--------|
G||-------------------------------------------------|-4--5/8-|
D||-----2-----2-----3-----2-------------------------|-4--5/8-|
A||-----------------------------2-----2-----3-2-3-0-|-2--3/6-|
E||-0-0---0-0---0-0---0-0---0-0---0-0---0-0---------|--------|
    . .   . .   . .   . .   . .   . .   . .  

------ PART 4 ------
GUITAR TWO
Same as PART 2, but instead the second guitar plays this - distortion

e||------------------------------|
B||------------------------------|
G||-9-11-12-14/17/16-14-12-14/17-|
D||------------------------------|
A||-7-9--10-12/15/14-12-10-12/15-|
E||------------------------------|

------ PART 5 ------
GUITAR ONE & TWO
First time round the first chord is played three times before the others
The second bit is played during the last chord by guitar 2 - both distortion

e||----|-------------|-----------------|
B||----|-------------|-----------------|
G||-44-|-44-22-------|-------------4-3-|
D||-44-|-44-22-55-22-|-5p4h5-5p4h5-----|
A||-22-|-22-00-55-22-|-----------------|
E||----|-------33-00-|-----------------|
     .    .  .  .  .

------ PART 6 ------
GUITAR ONE - distortion

e||------------------------|
B||------------------------|
G||-4-6-7-9/12-11/12-14-16-|
D||-4-6-7-9/12-11/12-14-16-|
A||-2-4-5-7/10-9 /10-12-14-|
E||------------------------|

------ PART 7 ------
GUITAR ONE - distortion

e||-------------|
B||-------------|
G||-13-13-11-11-|
D||-15-14-13-11-|
A||-------------|
E||-------------|


Track 4:
Drowning Lessons

Tuning:Standard

Guitar 1:Intro [pt 1]
e|---------------------------|                  |---------------|
B|---------------------------|                  |---------------|
G|-14-14-14-14-14-13-9-9-9-9-|                  |-9-9-11-11-11--|
D|---------------------------|3x then after 3x  |---------------|
A|-12-12-12-12-12-11-7-7-7-7-|                  |-7-7--9--9--9--|
E|---------------------------|                  |---------------|

Guitar2:Intro [pt1 & 2]
e|--------------------------------------------------------------|
B|--------------------------------------------------------------|
G|-7~~~-9~~~-11~~~~-xx-9-xx-9-7~~~-9~~~-6~~~-7-7-x-7-7-x-7------|
D|-7~~~-9~~~-11~~~~-xx-9-xx-9-7~~~-9~~~-6~~~-7-7-x-7-7-x-7------|
A|-5~~~-7~~~--9~~~~-xx-7-xx-7-5~~~-7~~~-4~~~-5-5-x-5-5-x-5------|
E|--------------------------------------------------------------|

Guitar 1:Intro [pt 2]
e|---------------------------|  |------------------------------------------|
B|---------------------------|  |------------------------------------------|
G|-14-14-14-14-14-13-9-9-9-9-|  |-13-13-13-13-13-11-13-13-13-13-13-13-11---|
D|---------------------------|2x|------------------------------------------|
A|-12-12-12-12-12-11-7-7-7-7-|  |-11-11-11-11-11--9-11-11-11-11-11-11--9---|
E|---------------------------|  |------------------------------------------|

Verse: Both guitars repeat intro

Guitar 1: After Verse
e|------------------------------------------|
B|------------------------------------------|
G|-7-7-7-7-6-7-7-7-7-7/9-7-7-7-7-6-7-6-7-6--|
D|-7-7-7-7-6-7-7-7-7-7/9-7-7-7-7-6-7-6-7-6--| 2x
A|-5-5-5-5-4-5-5-5-5-5/7-5-5-5-5-4-5-4-5-4--|
E|------------------------------------------|

Guitar 2: After Verse [palm muted] 2x
e|-------------------------------------------------------------------------|
B|-------------------------------------------------------------------------|
G|-7-7---7-7--7-7--7-7-9-9---9-9--9-9--9-9-6-6---6-6--6-6--6-6-------------|
D|-7-7---7-7--7-7--7-7-9-9---9-9--9-9--9-9-6-6---6-6--6-6--6-6-7-7-7-7-6-6-|
A|-5-5---5-5--5-5--5-5-7-7---7-7--7-7--7-7-4-4---4-4--4-4--4-4-7-7-7-7-6-6-|
E|-------------------------------------------------------------5-5-5-5-4-4-|
   . .   . .  . .  . . . .   . .  . .  . . . .   . .  . .  . . . . . . . .
Verse: Both Guitars repeat intro

After Verse: Both guitars repeat after verse

Guitar 1: Solo
e|----------------------------------|  |-----------------------------------|
B|----------------------------------|  |-----------------------------------|
G|-19-19-19-19-19-18-18-18-18-18-18-|  |-19-18-16-14-14-13-19-19-18-21-----|
D|----------------------------------|3x|-----------------------------------|
A|-17-17-17-17-17-16-16-16-16-16-16-|  |-17-16-14-12-12-11-17-17-16-19-----|
E|----------------------------------|  |-----------------------------------|

e|--------------------------------------------------------17-17-17-17-17-|
B|-------------------17-19-19-19-19-19-17-21-21-21-21-21-----------------|
G|-xx-19-xx-18-xx-21--------------------------------------13-13-13-13-13-|
D|-xx----xx----xx----14-16-16-16-16-16-14-18-18-18-18-18-----------------|
A|-xx-17-xx-16-xx-19-----------------------------------------------------|
E|-----------------------------------------------------------------------|

e|-17-17-17-17-17-16-12-12-12-12-xx-17-xx-16-xx-19-19-21-21-21-21-21-19-21-|
B|-------------------------------xx----xx----xx----------------------------|
G|-13-13-13-13-13-12--9--9--9--9-xx-13-xx-12-xx-16-16-18-18-18-18-18-16-18-|
D|-------------------------------------------------------------------------|
A|-------------------------------------------------------------------------|
E|-------------------------------------------------------------------------|


e|-22-21-19-17-16-17-17-17-17-17-16-12-12-xx-17-xx-16-xx-12-14-12-16-17----|
B|----------------------------------------xx----xx----xx-------------------|
G|-19-18-16-13-12-13-13-13-13-13-12--9--9-xx-13-xx-12-xx--9-11--9-12-13----|
D|-------------------------------------------------------------------------|
A|-------------------------------------------------------------------------|
E|-------------------------------------------------------------------------|

Guitar 2: Solo
e|-------------------------------------------------|play over and over
B|-------xx-9-xx-10-xx-12-xx-9---------------------|again until solo
G|-------xx---xx----xx----xx-----------------------|ends.
D|-6-7-7-xx-6-xx-7--xx--9-xx-6-6-7-7~-6-7-6-9-7-6--|
A|-------------------------------------------------|
E|-------------------------------------------------|


Guitar 1: Bridge
e|-------------------------------------------------------------------------|
B|-------------------------------------------------------------------------|
G|-------------------------------------------------------------------------|
D|-4-4-2-2--2-2--2-7-7-----------4-4-2-2--2--2-7-7-2-3-play 2 then-2-2-3-3-|
A|-4-4-2-2--2-2--2-7-7-4-5-4-5-4-4-4-2-2--2--2-7-7-2-3-------------2-2-3-3-|
E|-2-2-0-0--0-0--0-5-5-----------2-2-0-0--0--0-5-5-0-1-------------0-0-1-1-|
       . .  . .  .                   . .  .  .                     . . . .

Guitar 2: Bridge
e|-------------------------------------------------|2nd part similar to
B|-------------------------------------------------|guitar 1/ first part
G|-------------------------------------------------|of guitar 2
D|-4-4--------------7-7-----------4-4-2h4-2h4-2h4--|
A|-4-4--3h4-3h4-3h4-7-7-4-5-4-5-4~4-4--------------|
E|-2-2--------------5-5-----------2-2--------------|

both guitars play intro


Track 5:
Our Lady Of Sorrows

Intro
Gtr I
e:|--------------------------------------------------------|
B:|--------------------------------------------------------|
G:|--------------------------------------------------------|
D:|11-----------1110-----------7------------710------------|
A:|11-----------1110-----------7------------710------------|
E:|9 999-999-99-9 8 888-888-88-5 555-555-55-5 8 888-888-88-|
PM * *** *** ** * * *** *** ** * *** *** ** * * *** *** **

Then
Both Grt I and Grt II
e:|-------------------------------------------------------|
B:|-------------------------------------------------------|
G:|-------------------------------------------------------|
D:|11-----------10-----------7 -----------1010101010101010|
A:|11-----------10-----------7 -----------1010101010101010|
E:|9 999-999-99-8 888-888-88-5 555-555-55-8 8 8 8 8 8 8 8 |
PM                                        * * * * * * * *


Verse
Grt I
e:|--------------------------------------------------------|x4
B:|--------------------------------------------------------|
G:|--------------------------------------------------------|
D:|11111111111111111010101010101010777777771010101010101010|
A:|11111111111111111010101010101010777777771010101010101010|
E:| 9 9 9 9 9 9 9 9 8 8 8 8 8 8 8 855555555 8 8 8 8 8 8 8 8|
"We could perfect..."

GrtII
e:|-------------------|
B:|-------------------|
G:|-------------------|
D:|9-8-9-11---9-8-9-11|
A:|x-x-x-x ---x-x-x-x |
E:|7-6-7-9 ---7-6-7-9 |
"Laciration gravity..."

e:|----------------|
B:|----------------|
G:|----------------|
D:|9-8-9-11---9-8-9|
A:|x-x-x-x ---x-x-x|
E:|7-6-7-9 ---7-6-7|
"Understand it has to be this way"


Chorus I
Both Grt I and Grt II
e:|----------------|x2
B:|----------------|
G:|66------66----55|
D:|6666774466667755|
A:|4466774444667733|
E:|--445522--4455--|
"Stand"


Repeat Verse


Chorus II
Both Grt I amd Grt II
e:|----------------------------|
B:|----------------------------|
G:|66------66----5566------66--|
D:|6666774466667755666677446666|
A:|4466774444667733446677444466|
E:|--445522--4455----445522--44|
PM                         ****
"Stand..."             "...And never"


Bridge
Grt I
e:|----------------|x2
B:|----------------|
G:|666-222-----4455|
D:|666-222-444-4455|
A:|444-000-444-2233|
E:|--------222-----|
"Trust"

then
e:|----------------------------------|
B:|----------------------------------|
G:|222-444-666-66---222-444-666------|
D:|222-444-666-6666-222-444-666-6-6-6|
A:|000-222-444-4466-000-222-444-6-6-6|
E:|--------------44-------------4-4-4|
"Stand"

Grt2
e:|-------------------------------------|x2
B:|-------------------------------------|
G:|9-8-9~9--9-8-9~9--9-8-9~9--9-8-9~9-86|
D:|-------------------------------------|
A:|-------------------------------------|
E:|-------------------------------------|
"Trust"

then
e:|---------|x3
B:|9-8-9-999|
G:|---------|
D:|---------|
A:|---------|
E:|---------|
"stand"

then
e:|-----------10-------------|
B:|----9h11h12--12p11p9------|
G:|9h11----------------11p9p8|
D:|--------------------------|
A:|--------------------------|
E:|--------------------------|
"Take my fucking...

then
e:|---------|x3
B:|9-8-9-999|
G:|---------|
D:|---------|
A:|---------|
E:|---------|
"...hand"


Chorus III
Both Grt I and Grt II
e:|----------------|x4
B:|----------------|
G:|66------66----55|
D:|6666774466667755|
A:|4466774444667733|
E:|--445522--4455--|
"Stand"


Outro
Both Grt I and Grt II
e:|-------------------|
B:|-------------------|
G:|6-------6-----5-666|
D:|6-6-7-4-6-6-7-5-666|
A:|4-6-7-4-4-6-7-3-444|
E:|--4-5-2---4-5------|
"Just because my hands around your throat"


Track 6:
Headfirst For Halos

Intro Pt I (Repeat whole thing twice)

Gtr I (Slightly palm mute this)

e:|---------------------------------------------------------|
B:|-7p10---7p10---7p10---7p10---7p10---7p10---7p10---7p10---|
G:|------7------7------7------7------7------7------7------7-|
D:|---------------------------------------------------------|
A:|---------------------------------------------------------|
E:|---------------------------------------------------------|

e:|-------------------------------------------------|
B:|-8p7---8p7---8p7---8p7---8p7---8p7---8p7---8p7---|
G:|-----9-----9-----9-----9-----9-----9-----9-----9-|
D:|-------------------------------------------------|
A:|-------------------------------------------------|
E:|-------------------------------------------------|

e:|-------------------------------------------------|
B:|-7p5---7p5---7p5---7p5---7p5---7p5---7p5---7p5---|
G:|-----7-----7-----7-----7-----7-----7-----7-----7-|
D:|-------------------------------------------------|
A:|-------------------------------------------------|
E:|-------------------------------------------------|

e:|-------------------------------------------------|
B:|-8p7---8p7---8p7---8p7---8p7---8p7---8p7---8p7---|
G:|-----7-----7-----7-----7-----7-----7-----7-----7-|
D:|-------------------------------------------------|
A:|-------------------------------------------------|
E:|-------------------------------------------------|

Intro Pt II

e:|--------------------------------------------------------|
B:|---------7---------7------------------------------------|
G:|-7~--7-9---------9---7--7-9-11-12-11-9--11--9h11p9h11p9-|
D:|-----------9~--9----------------------------------------|
A:|--------------------------------------------------------|
E:|--------------------------------------------------------|

e:|--------------------------------------12-14/15-15~-|
B:|----------------------12-14/15-15--15--------------|
G:|-7~--7-9-11/12-12--12------------------------------|
D:|---------------------------------------------------|
A:|---------------------------------------------------|
E:|---------------------------------------------------|

Intro Pt's I & II

Gtr II

e:|--------------------------------------|
B:|--------------------------------------|
G:|-7~--4~----------7~--4~---------------|
D:|-7~--4~--4~--5~--7~--4~--4~--555-5-55-|
A:|-5~--2~--5~--5~--5~--2~--5~--555-5-55-|
E:|---------2~--3~----------2~--333-3-33-|
PM                              *** * **

e:|--------------------------------|
B:|--------------------------------|
G:|-7~--4~----------7~--4~---------|
D:|-7~--4~--4~--5~--7~--4~--4~--5~-|
A:|-5~--2~--5~--5~--5~--2~--5~--5~-|
E:|---------2~--3~----------2~--3~-|

Verse

Gtr I

e:|-------------------------------------------------------------|
B:|-------------------------------------------------------------|
G:|-11-11-11111111-11-11-11111111-11-11-11111111-11-11-11111111-|
D:|-x--x--x-x-x-x--x--x--x-x-x-x--x--x--x-x-x-x--x--x--x-x-x-x--|
A:|-9--9--9-9-9-9--9--9--9-9-9-9--9--9--9-9-9-9--9--9--9-9-9-9--|
E:|-------------------------------------------------------------|

e:|------------------------------------------------------|
B:|------------------------------------------------------|
G:|-12-12-12121212-12-12-12121212-12-12-12121212--12--12-|
D:|-x--x--x-x-x-x--x--x--x-x-x-x--x--x--x-x-x-x---x---x--|
A:|-10-10-10101010-10-10-10101010-10-10-10101010--10--10-|
E:|------------------------------------------------------|

Gtr II

e:|-------------------------------------|
B:|-------------------------------------|
G:|-7-7-7777-6-6-6666-4-4-4444-4-4-4444-|
D:|-7-7-7777-7-7-7777-4-4-4444-4-4-4444-|
A:|-5-5-5555-5-5-5555-2-2-2222-2-2-2222-|
E:|-------------------------------------|

e:|----------------------------------|
B:|----------------------------------|
G:|-9-9-9999-8-8-8888-7-7-7777--7--7-|
D:|-9-9-9999-9-9-9999-7-7-7777--7--7-|
A:|-7-7-7777-7-7-7777-5-5-5555--5--5-|
E:|----------------------------------|

Chorus

Gtr I

e:|-----------------------------------------------------------------|
B:|-------------------------------------------8-7-------------------|
G:|--------------------------/4-----------7-9-----9-7-6-9~-7~-9~-6~-| (x2)
D:|---4-7-4---4-7-4---4-7-4-----7-5-4--/9---------------------------|
A:|-5-------4-------------------------------------------------------|
E:|-----------------7-----------------------------------------------|

Gtr II

e:|---------------------------------------------------------------|
B:|---------------------------------------------------------------|
G:|-7~-77--6~-66--4~-44-4~-44--9-9-9999-8-8-8888-7-7-7777-7-7-7-6-| (x2)
D:|-7~-77--7~-77--4~-44-4~-44--9-9-9999-9-9-9999-7-7-7777-7-7-7-7-|
A:|-5~-55--4~-44--2~-22-2~-22--7-7-7777-6-6-6666-5-5-5555-5-5-5-5-|
E:|---------------------------------------------------------------|
PM                                                        *   *

Post Chorus

Gtr I

e:|---------------------------------------------------------------------|
B:|---------------------------------------------------------------------|
G:|--------111111111--------11111111---------111111111--------111111111-|
D:|---------x-x-x-x----------x-x-x-x----------x-x-x-x----------x-x-x-x--|
A:|-9-9-9-9-9-9-9-9--9-9-9-9-9-9-9-9--9-9-9-9-9-9-9-9--9-9-9-9-9-9-9-9--|
E:|---------------------------------------------------------------------|
PM  * * * *          * * * *          * * * *          * * * *

e:|---------------------------------------------------------------------|
B:|---------------------------------------------------------------------|
G:|---------12121212---------12121212---------12121212---------12121212-|
D:|---------x-x-x-x----------x-x-x-x----------x-x-x-x----------x-x-x-x--|
A:|-1010101010101010-1010101010101010-1010101010101010-1010101010101010-|
E:|---------------------------------------------------------------------|
PM  * * * *          * * * *          * * * *          * * * *

Gtr II

e:|------------------------------------------------------------------------|
B:|------------------------------------------------------------------------|
G:|------------------------------------------------------------------------|
D:|-77777777-77777777-44444444-44444444-99999999-99999999-7777777777777777-|
A:|-55555555-44444444-22222222-22222222-77777777-66666666-5555555555555555-|
E:|------------------------------------------------------------------------|
PM  ******** ******** ******** ******** ******** ******** ****************

Repeat Verse

Repeat Chorus



Before Solo Both Gtr's

e:|----------------------|
B:|-------------------0~-|
G:|-4-444444444444444-2~-|
D:|-4-444444444444444-2~-|
A:|-2-222222222222222-0~-|
E:|----------------------|
PM    ***************

Solo 

Gtr I

e:|--------------------------------------------------------------------|
B:|--------------------------------------------------------------------|
G:|-11-11-11-11-11-11-11-11-11-11-11-11-11-11-9-11-11-11-11-9-7-9-11-9-|
D:|-x--x--x--x--x--x--x--x--x--x--x--x--x--x--x-x--x--x--x--x-x-x-x--x-|
A:|-9--9--9--9--9--9--9--9--9--9--9--9--9--9--7-9--9--9--9--7-5-7-9--7-|
E:|--------------------------------------------------------------------|

e:|--------------------------------------------------|
B:|--------------------------------------------------|
G:|-12-11-12\11/9/11-12-11-12-14-9-7-9-11-12-11-9-11-|
D:|-x--x--x--x--x-x--x--x--x--x--x-x-x-x--x--x--x-x--|
A:|-10-9--10\9-/7/9--10-9--10-12-7-5-7-9--10-9--7-9--|
E:|--------------------------------------------------|

e:|-10-9-10\9/10/12-14-12-10-9--10-9-10-12-14-12-10-9-|
B:|-x--x-x--x-x--x--x--x--x--x--x--x-x--x--x--x--x--x-|
G:|-7--6-7-\6/7/-9--11-9--7--6--7--6-7--9--11-9--7--6-|
D:|---------------------------------------------------|
A:|---------------------------------------------------|
E:|---------------------------------------------------|

e:|-15-14-15\14\12/14--15-14-15-17--12-10-12-14-15-14-12-14-10-|
B:|-x--x--x--x--x--x---x--x--x--x---x--x--x--x--x--x--x--x--x--|
G:|-12-11-12\11\9-/11--12-11-12-14--9--7--9--11-12-11-9--11-7--|
D:|------------------------------------------------------------|
A:|------------------------------------------------------------|
E:|------------------------------------------------------------|

Gtr II

e:|-------------------------------------|
B:|-------------------------------------|
G:|-7-7-7777-6-6-6666-4-4-4444-4-4-4444-|
D:|-7-7-7777-7-7-7777-4-4-4444-4-4-4444-|
A:|-5-5-5555-5-5-5555-2-2-2222-2-2-2222-|
E:|-------------------------------------|

e:|---------------------------------|
B:|---------------------------------|
G:|-9-9-9999-8-8-8888-7-7-7777-7--7-|
D:|-9-9-9999-9-9-9999-7-7-7777-7--7-|
A:|-7-7-7777-7-7-7777-5-5-5555-5--5-|
E:|---------------------------------|

e:|----|
B:|----|
G:|-7~-|
D:|-7~-|
A:|-5~-|
E:|----|

Gtr I

e:|--------10-------------------------|
B:|-----------------------------------|
G:|---7--7----------------------------|
D:|-------------/9-7\5\4--4-----------|
A:|-5-----------------------7\5-5---4-|
E:|-----------------------------------|

Outro

Gtr I

e:|-------------------------------------------------|
B:|-------------------------------------------------|
G:|-19-19-19-19-18-18-18-18-19-19-19-19-21-21-21-21-|
D:|-x--x--x--x--x--x--x--x--x--x--x--x--x--x--x--x--|
A:|-17-17-17-17-16-16-16-16-17-17-17-17-19-19-19-19-|
E:|-------------------------------------------------|

e:|-------------------------------------------------|
B:|-------------------------------------------------|
G:|-19-19-19-19-21-21-21-21-19-19-19-19-18-18-18-18-|
D:|-x--x--x--x--x--x--x--x--x--x--x--x--x--x--x--x--|
A:|-17-17-17-17-19-19-19-19-17-17-17-17-16-16-16-16-|
E:|-------------------------------------------------|

Gtr II

e:|---------------------------------|
B:|---------------------------------|
G:|-7-7-7-7-6-6-6-6-7-7-7-7-9-9-9-9-|
D:|-x-x-x-x-x-x-x-x-x-x-x-x-x-x-x-x-|
A:|-5-5-5-5-4-4-4-4-5-5-5-5-7-7-7-7-|
E:|---------------------------------|

e:|---------------------------------|
B:|---------------------------------|
G:|-7-7-7-7-9-9-9-9-7-7-7-7-6-6-6-6-|
D:|-x-x-x-x-x-x-x-x-x-x-x-x-x-x-x-x-|
A:|-5-5-5-5-7-7-7-7-5-5-5-5-4-4-4-4-|
E:|---------------------------------|

End on

Both Gtr's

e:|-----------|
B:|-----------|
G:|-7~~~---7/-|
D:|-7~~~---7/-|
A:|-5~~~---5/-|
E:|-----------|


Track 7:
Skylines and Turnstiles

[1]
e|:|-------------|-------------|
B|:|-------------|-------------|
G|:|-5---7---9---|-5---7---12--|
D|:|-------------|-------------|
A|:|-3---5---7---|-3---5---10--|
E|:|-------------|-------------|
 | | x8  x8  x16   x8  x8  x16
 | |
[2]| Use Alternate Picking for guitar [2]
e|:|-------------------------------|--|-------------------------------|
B|:|-------------------------------|--|--------888--------------------|
G|:|-101010-999-777----------------|--|-101010-----777----------------|
D|:|----------------101010-99-1010-|--|----------------101010-99-1010-|
A|:|-------------------------------|x2|-------------------------------|
E|:|-------------------------------|--|-------------------------------|
   |
   |-------------------------------|
   |-------------------------------|
   |-101010-999-777----------------|
   |----------------101010-9h10p9~-|
   |-------------------------------|
   |-------------------------------| 
    play all once, then repeat first 2 parts only (guitar[2])

[1+2]
e|:|-----------|
B|:|-----------|
G|:|-----------|
D|:|-6666666-6-|
A|:|-6666666-6-|
E|:|-4444444-4-|
     .......
             "You're not in this alone..."


---------------------------------|---------|---------------------------------
---------------------------------|-Verse 1-|---------------------------------
---------------------------------|---------|---------------------------------



[1+2]
e|:|--------------------------------------------|--|
B|:|--------------------------------------------|--|
G|:|--------------------------------------------|--|
D|:|-77777777/55555555-44444444-xx3-xx3-xx3-xx3-|--|
A|:|-77777777/55555555-55555555-xx3-xx3-xx3-xx3-|x2|
E|:|-55555555/33333333-22222222-xx1-xx1-xx1-xx1-|--|
     
     "... let me break this awkward..."

[1]
e|:|--------------------------------------------|--|
B|:|--------------------------------------------|--|
G|:|--------------------------------------------|--|
D|:|-77777777/55555555-44444444-xx3-xx3-xx3-xx3-|--|
A|:|-77777777/55555555-55555555-xx3-xx3-xx3-xx3-|x2|
E|:|-55555555/33333333-22222222-xx1-xx1-xx1-xx1-|--|
 | |
[2]|
e|:|-------------------------------------------------------|--|
B|:|-------------------------------------------------------|--|
G|:|-------------------------------------------------------|--|
D|:|-77777777/101010101010/9/101010101010--xx3-xx3-xx3-xx3-|--|
A|:|---------------------------------------xx3-xx3-xx3-xx3-|x2|
E|:|-55555555/8 8 8 8 8 8 /7/8 8 8 8 8 8 --xx1-xx1-xx1-xx1-|--|
 
     "and if you take me down..."


--------------------------------|------------|-------------------------------
--------------------------------|-Pre Chorus-|-------------------------------
--------------------------------|------------|-------------------------------



[1]
e|:|---------------------------------------------------|
B|:|---------------------------------------------------|
G|:|---------------------------------------------------|
D|:|-77777777/9999999/1010101010101010-xx6-xx6-xx6-xx6-|
A|:|-77777777/9999999/1010101010101010-xx6-xx6-xx6-xx6-|
E|:|-55555555/7777777/8 8 8 8 8 8 8 8 -xx4-xx4-xx4-xx4-|
 | |
[2]|
e|:|--------------------------------------------|
B|:|--------------------------------------------|
G|:|-55555555/77777777/99999999-xx9-xx9-xx9-xx9-|
D|:|----------------------------xx--xx--xx--xx--|
A|:|-33333333/55555555/77777777-xx7-xx7-xx7-xx7-|
E|:|--------------------------------------------|

     "... we walk in single file..."

[1]
e|:|-----------------------------------------------|
B|:|-----------------------------------------------|
G|:|-----------------------------------------------|
D|:|-77777777/9999999/1010101010101010-666666666-6-|
A|:|-77777777/9999999/1010101010101010-666666666-6-|
E|:|-55555555/7777777/8 8 8 8 8 8 8 8 -444444444-4-|
 | |                                   .........
[2]|
e|:|-----------------------------------------------|
B|:|-----------------------------------------------|
G|:|-55555555/77777777/1212121212121212------------|
D|:|------------------------------------66666666-6-|
A|:|-33333333/55555555/1010101010101010-66666666-6-|
E|:|------------------------------------44444444-4-|
                                        ........

     "... ride escolators colder than..."



---------------------------------|----------|--------------------------------
---------------------------------|- Chorus -|--------------------------------
---------------------------------|----------|--------------------------------



[1+2]
e|:|------------------------------------------------------------------------|
B|:|------------------------------------------------------------------------|
G|:|-------------------2222222----------------------------22222222-55555555-|
D|:|-33333333-22222222-2222222-55555555--33333333-2222222-22222222-55555555-|
A|:|-33333333-22222222-0000000-55555555--33333333-2222222-00000000-33333333-|
E|:|-11111111-00000000---------33333333--11111111-0000000-------------------|

     "this broken city sky, like butane on..."

[1]
e|:|------------------------------------------------------------------------|
B|:|------------------------------------------------------------------------|
G|:|-------------------2222222----------------------------22222222-55555555-|
D|:|-33333333-22222222-2222222-55555555--33333333-2222222-22222222-55555555-|
A|:|-33333333-22222222-0000000-55555555--33333333-2222222-00000000-33333333-|
E|:|-11111111-00000000---------33333333--11111111-0000000-------------------|
 | |
[2]|
e|:|------------------------------------------------------------------------|
B|:|------------------------------------------------------------------------|
G|:|-----4/5------5/7----7/9----------------4/5------5/7----7/9-------------|
D|:|------------------------------------------------------------------------|
A|:|-----2/3------3/5----5/7----------------2/3------3/5----5/7-------------|
E|:|------------------------------------------------------------------------|

     "this broken city sky..."



---------------------------------|---------|---------------------------------
---------------------------------|-Verse 2-|---------------------------------
---------------------------------|---------|---------------------------------



[1]
e|:|------------------------------|--|
B|:|------------------------------|--|
G|:|-33-33-3--33-33-3--3-----3----|--|
D|:|-33-33-3--33-33-3--3-3>--3-3>-|--|
A|:|-11-11-1--11-11-1--1-3>--1-3>-|x4|
E|:|---------------------1>----1>-|--|
 | |
[2]|
e|:|------66-------55-------------|--|
B|:|------66-------66-------------|--|
G|:|-------------------7-----7----|--|
D|:|---------------------7>----7>-|--|
A|:|-------------------5-----5----|x2|
E|:|---------------------5>----5>-|--|
   |
   |-----33-------55------------|-----------------------------|
   |-----33-------55------------|-----------------------------|
   |-----------------7-----7----|-----4------4>---7-----7-----|
   |-------------------7>----7>-|-------------------7>-----7>-|
   |-----------------5-----5----|---2---2----2>---5-----5-----|
   |-------------------5>----5>-|-------------------5>----5>--|

     "and in this moment we can..."


--------------------------------|------------|-------------------------------
--------------------------------|-Break down-|-------------------------------
--------------------------------|------------|-------------------------------



[1]
e|:|------|--------------------------------------------|
B|:|------|--------------------------------------------|
G|:|------|-------------------------------------/55555-|
D|:|-6666-|--------------------------------------------|
A|:|-6666-|-------------------------------------/33333-|
E|:|-4444-|--------------------------------------------|
 | | .... |
[2]|      |
e|:|------|-1212121212121212/1010101010101010/88888888-|
B|:|------|--------------------------------------------|
G|:|------|-9 9 9 9 9 9 9 9 /7 7 7 7 7 7 7 7 /55555555-|
D|:|------|--------------------------------------------|
A|:|------|--------------------------------------------|
E|:|------|--------------------------------------------|

            "...thats if you've still got one..."

[1]
e|:|------------------------------------------------|--|--------|
B|:|------------------------------------------------|--|--------|
G|:|-5 5 5 5 5 5 5 5 /4 4 4 4 4 4 4 4---------------|--|--------|
D|:|----------------------------------/777-7-7-7-7>-|--|-6-6-66-|
A|:|-3 3 3 3 3 3 3 3 /2 2 2 2 2 2 2 2------7-7-7-7>-|x2|-6-6-66-|
E|:|----------------------------------/555-5-5-5-5>-|--|-4-4-44-|
 | |                                                   |
[2]|                                                   |
e|:|-1212121212121212/1010101010101010/88888888888--|--|--------|
B|:|------------------------------------------------|--|--------|
G|:|-9 9 9 9 9 9 9 9 /7 7 7 7 7 7 7 7 /55555555555--|--|--------|
D|:|------------------------------------------------|--|-6-6-66-|
A|:|------------------------------------------------|x2|-6-6-66-|
E|:|------------------------------------------------|--|-4-4-44-|
                                                         
     "... and after seeing what we saw..."



--------------------------------|-----------|--------------------------------
--------------------------------|---Outro---|--------------------------------
--------------------------------|-----------|--------------------------------
   

    
[1+2]
e|:|------------------------------------------------------------------------|
B|:|------------------------------------------------------------------------|
G|:|-------------------2222222----------------------------22222222-55555555-|
D|:|-33333333-22222222-2222222-55555555--33333333-2222222-22222222-55555555-|
A|:|-33333333-22222222-0000000-55555555--33333333-2222222-00000000-33333333-|
E|:|-11111111-00000000---------33333333--11111111-0000000-------------------|

     "this broken city sky..."

[1] play only downward "thumping" strums for guitar [1]
e|:|------------------------------------------------------------------------|
B|:|------------------------------------------------------------------------|
G|:|-------------------2222222----------------------------22222222-55555555-|
D|:|-33333333-22222222-2222222-55555555--33333333-2222222-22222222-55555555-|
A|:|-33333333-22222222-0000000-55555555--33333333-2222222-00000000-33333333-|
E|:|-11111111-00000000---------33333333--11111111-0000000-------------------|
 | |
[2]|
e|:|------------------------------------------------------------------------|
B|:|------------------------------------------------------------------------|
G|:|-----4/5------5/7----7/9----------------4/5------5/7----7/9-------------|
D|:|------------------------------------------------------------------------|
A|:|-----2/3------3/5----5/7----------------2/3------3/5----5/7-------------|
E|:|------------------------------------------------------------------------|
    
     "this broken city sky..."


[1]
e|:|--------|
B|:|--------|
G|:|--------|
D|:|-2>-----|
A|:|-2>-----|
E|:|-0>-----|
 | |
[2]|
e|:|--------|
B|:|--------|
G|:|------5-|
D|:|-2>-----|
A|:|-2>---3-|
E|:|-0>-0---|
   
 
... End

Track 8:
Early Sunsets Over Monroeville

these are the chords mainly...

    D    Bm7    F#   Am7    A     G
e|--2-----2-----2-----0-----0-----3--|
B|--3-----3-----2-----0-----2-----0--|
G|--2-----4-----2-----2-----2-----0--|
D|--0-----4-----4-----2-----2-----0--|
A|--x-----2-----4-----0-----0-----2--|
E|--x-----x-----2-----x-----x-----3--|

Verse 1:

  Guitar 2:

   
e|----0--0--02-0--|
B|--3--3--3-------|
G|----------------|
D|----------------|
A|----------------|
E|----------------|
after playing that intro twice, play this.

  Guitar 2:
e|--235---5-235---5-2222222222222222-2222222222222222------------------020|
B|-----3-3-----3-3------------------------------------233-33233-33233-3---|
G|------------------------------------------------------------------------|
D|------------------------------------------------------------------------|
A|------------------------------------------------------------------------|
E|------------------------------------------------------------------------|

  (Guitar 2 continued)
e|----5---5---5--57-5-15-13|
B|--23--23--23-23----------|
G|-------------------------|
D|-------------------------|
A|-------------------------|
E|-------------------------|

Verse 2:

  Guitar 2:
e|---5-235---5-2222222222222222-2222222222222222------------------02-0--|
B|--3-----3-3------------------------------------233-33233-33233-3------|
G|----------------------------------------------------------------------|
D|----------------------------------------------------------------------|
A|----------------------------------------------------------------------|
E|----------------------------------------------------------------------|

(Guitar 2 continued)

e|-------------------02-0------------------02-------5---5---5--5--5---|
B|--233-33233-33233-3-----233-33233-33233-3---5\2-23--23--23-23-23-3--|
G|--------------------------------------------------------------------|
D|--------------------------------------------------------------------|
A|--------------------------------------------------------------------|
E|--------------------------------------------------------------------|

(Guitar 2 still continued)

e|----5---5---5--5753232-----|
B|--23--23--23-23-------3h5--|
G|---------------------------|
D|---------------------------|
A|---------------------------|
E|---------------------------|

  Bridge/Ending
e|-----0---02320--|
B|--023-323-------|
G|----------------|
D|----------------|
A|----------------|
E|----------------|

  Bridge/Ending Part 2

when he first says "there's no room in this hell" then you switch to this.

e|-------------------------------------------------|
B|--233233233233233233233233233233233233233233233--|
G|-------------------------------------------------|
D|-------------------------------------------------|
A|-------------------------------------------------|
E|-------------------------------------------------|

do that once and then this untill he stops saying "there's no room in the next"
for the last time.

e|--------------------------------------------------|
B|--3--3-2-0--0-2-3--3-2-0--0-2-3--3-5-0--0-5-2-3---|
G|--------------------------------------------------|
D|--------------------------------------------------|
A|--------------------------------------------------|
E|--------------------------------------------------|

then finish with this once.
e|-----0---02320------|
B|--023-323-----02/3--|
G|--------------------|
D|--------------------|
A|--------------------|
E|--------------------|
Lyrics/Chords

Verse 1:

D                Bm7   F#       Am7 A D               Bm7       F#     Am7 A
Late  dawns  and  early  sunsets,     just  like  my  favorite  scenes.

D              Bm7         F#         Am7 A
Then  holding  hands  and  life  was  perfect.  

D               Bm7      F#     Am7 A
just  like  up  on  the  screen.

D               Bm7           F#      Am7 A
And  the  whole  time  while  always  giving.

D              Bm7     F#         Am7 A
Counting  your  face  among  the  living.

Verse 2:

D             Bm7  F#     Am7 A D            Bm7      F#        Am7 A    
Up  and  down  escalaters,      pennies  and  colder  fountains. 

D   Bm7         F#                  Am7 A
Elavaters  and  half  priced  sales.

D               Bm7          F#        Am7 A
Trapped  in  by  all  these  mountains.

D       Bm7         F#      Am7   A
Running  away  and  hiding  with  you.

D        Bm7               F#       Am7 A
I  never  thought  they'd  get  me  here.

D                 Bm7             F#        Am7  A 
Not  knowing  you  changed  from  just  one  bite.

D               Bm7        F#       Am7    A               Bm7
I  fought  them  all  off  just  to  hold  you  close  and  tight.

                   G                           A
But  does  anyone  notice,  But  does  anyone  care.

                      F#                              G
And  if  i  had  the  guts,  to  put  this  to  your  head.

                     Bm7                          G
But  would  anything  matter,  if  your  already  dead.

                    A                                         F#
And  should  i  be  shocked  now,  by  the  last  thing  you  said.

                       G                                 Bm7
Before  i  pull  this  trigger,  your  eyes  vacant  and  staind.

                   G                           A
But  does  anyone  notice,  but  does  anyone  care.

                      F#                   G           
And  if  i  had  the  guts,  to  put  this  through  your  head.

                     Bm7                  G
And  would  anything  matter,  if  your  already  dead.

                       A                                    F#
And  now  should  i be shocked,  by  the  last  thing  you  said.

                       G                                 Bm7
Before  i  pull  this  trigger,  your  eyes  vacant  and  staind.

                      G                                     A
And  in  saying  you  loved  me,  made  things  harder  at  best.

                             F#                        G
And  these  words  changing  nothing,  as  your  body  remains.

                           Bm7                                        G
And  there's  no  room  in  this  hell,  there's  no  room  in  the  next.

                    A                                 F#
And  our  memories  defeat  us,  and  i'll  end  this  direst.

                   G                        Bm7
But  does  anyone  notice,  but  does  anyone  care.

                       G                   A
When  if  i  had  the  guts,  to  put  this  to  your  head.

                     F#                    G
But  does  anything  matter,  if  your  already  dead.

                   Bm7                                          G
And  should  i  be  shocked  now,  by  the  last  thing  your  said.

                       A                                 F#
Before  i  pull  this  trigger,  your  eyes  vacant  and  staind.

                      G                                    Bm7
And  in  saying  you  loved  me,  made  things  harder  at  best.

                           G                           A
And  these  words  changing  nothing,  as  your  body  remains.

                            F#                                       G
And  there's  no  room  in  this  hell,  there's  no  room  in  the  next.

                  Bm7
But  does  anyone  notice,  there's  corps  in  this  bed.


Track 9:
This Is The Best Day Ever

Intro

   Gtr I Frank

e:|-----------------------------------|
B:|-----------------------------------|
G:|-1111111111111111-1212121212121212-|
D:|-----------------------------------|
A:|-9-9-9-9-9-9-9-9--1010101010101010-|
E:|-----------------------------------|
  |
  |Gtr II Ray
  |
e:|----------------------------------|
B:|----------------------------------|
G:|----------------------------------|
D:|----------------------------------|
A:|-9-9-9-9-9-9-9-9-1010101010101010-|
E:|----------------------------------|
PM  * * * * * * * * * * * * * * * *

   Gtr I Frank

e:|-------------------------------------|
B:|---------------------------15151515--|
G:|-1414141414141414-16161616-----------|
D:|---------------------------12121212--|
A:|-1212121212121212-14141414-----------|
E:|-------------------------------------|
  |
  |Gtr II Ray
  |
e:|------------------------------------|
B:|------------------------------------|
G:|------------------------------------|
D:|------------------------------------|
A:|-1212121212121212-14141414-19191919-|
E:|------------------------------------|
PM  * * * * * * * *  * * * *  * * * *

   Gtr I Frank

e:|-----------------------------------|
B:|-----------------------------------|
G:|-1111111111111111-1212121212121212-|
D:|-----------------------------------|
A:|-9-9-9-9-9-9-9-9--1010101010101010-|
E:|-----------------------------------|
  |
  |Gtr II Ray 
  |
e:|----------------------------------|
B:|----------------------------------|
G:|----------------------------------|
D:|----------------------------------|
A:|-9-9-9-9-9-9-9-9-1010101010101010-|
E:|----------------------------------|
PM  * * * * * * * * * * * * * * * *

   Gtr I Frank

e:|-----------------------------|
B:|-----------------------------|
G:|-1414141414141414-1111111111-|
D:|-----------------------------|
A:|-1212121212121212-9-9-9-9-9--|
E:|-----------------------------|
  |
  |Gtr II Ray
  |
e:|----------------------------|
B:|----------------------------|
G:|----------------------------|
D:|----------------------------|
A:|-1212121212121212-9-9-9-9-9-|
E:|----------------------------|
PM  * * * * * * * *  * * * * *


Verse I


    Gtr I Frank

e:|-----------------------------------|
B:|-----------------------------------|
G:|-1111111111111111-1212121212121212-|
D:|-----------------------------------|
A:|-9-9-9-9-9-9-9-9--1010101010101010-|
E:|-----------------------------------|
  |
  | Gtr II Ray
  |
e:|---------------------------|
B:|---------------------------|
G:|---------------------------|
D:|---------------------------|
A:|-99999999-1010101010101010-|
E:|-77777777--8-8-8-8-8-8-8-8-|

    Gtr I Frank

e:|-------------------------------------|
B:|----------------------------15151515-|
G:|-1414141414141414-16161616-----------|
D:|----------------------------12121212-|
A:|-1212121212121212-14141414-----------|
E:|-------------------------------------|  
  |
  | Gtr II Ray
  |
e:|------------------------------------|
B:|------------------------------------|
G:|------------------------------------|
D:|------------------------------------|
A:|-1212121212121212-14141414-19191919-|
E:|-1010101010101010-12121212-17171717-|

    Gtr I Frank
                                          
e:|-----------------------------------|          
B:|-----------------------------------|       
G:|-1111111111111111-1212121212121212-|
D:|-----------------------------------|
A:|-9-9-9-9-9-9-9-9--1010101010101010-|
E:|-----------------------------------|
  | 
  | Gtr II Ray
  |
e:|---------------------------|
B:|---------------------------|
G:|---------------------------|
D:|---------------------------|
A:|-99999999-1010101010101010-|
E:|-77777777--8-8-8-8-8-8-8-8-|
 
    Gtr I Frank

e:|-----------------------------|
B:|-----------------------------|
G:|-1414141414141414-1111111111-|
D:|-----------------------------|
A:|-1212121212121212-9-9-9-9-9--|
E:|-----------------------------|
  |
  | Gtr II Ray
  |
e:|-----------------------|
B:|-----------------------|
G:|-----------------------|
D:|-----------------------|
A:|-1212121212121212-9999-|
E:|-1010101010101010-7777-|


At (Every hour) Gtr I plays this (Not very sure about this)

e:|---------------------------------|
B:|---------7h9p7--14h15p14--9h11p9-|
G:|-9h11p9--------------------------| x2
D:|---------------------------------|
A:|---------------------------------|
E:|---------------------------------|

e:|---------------------------------|
B:|-9h11p9--14h15p14--9h11p9--14h15-|
G:|---------------------------------|
D:|---------------------------------|
A:|---------------------------------|
E:|---------------------------------|


Verse II

e:|-----------------------------------|
B:|-----------------------------------|
G:|-1111111111111111-1212121212121212-|
D:|-----------------------------------|
A:|-9-9-9-9-9-9-9-9--1010101010101010-|
E:|-----------------------------------|

e:|--------------------------------------|
B:|----------------------------15151515--|
G:|-1414141414141414-16161616------------|
D:|----------------------------12121212--|
A:|-1212121212121212-14141414------------|
E:|--------------------------------------|


Pre Chorus

e:|-----------------------------------------|
B:|-----------------------------------------|
G:|-----------------------------------------|
D:|-12-12-12-12-11-11-11-11-9-9-9-9---------|
A:|-10-10-10-10--9--9--9--9-7-7-7-7-9-9-9-9-|
E:|---------------------------------7-7-7-7-|

e:|---------------------------------|
B:|---------------------------------|
G:|---------------------------------|
D:|-12-12-12-12-11-11-11-11-7-9-5~-|
A:|-10-10-10-10--9--9--9--9-5-7-3~-|
E:|---------------------------------|


Chorus (I only have the rhythm for this)

Gtr II Frank

e:|-----------------------------------------------|
B:|-----------------------------------------------|
G:|------------------------5555/7777-5555-444-222-|
D:|-55555555-4444-22222222-5555-xxxx-5555-444-222-|
A:|-55555555-5555-22222222-3333/5555-3333-222-000-|
E:|-33333333-2222-00000000------------------------|

e:|-------------------|
B:|-------------------|
G:|-------------------|
D:|-2--44--55--5-4--2-|
A:|-2--55--55--5-5--2-|
E:|-0--22--33--3-2--0-|

e:|---------------------|
B:|---------------------|
G:|-5555/7777/5555/7777-|
D:|---------------------|
A:|-3333/5555/3333/5555-|
E:|---------------------|

Outro

Gtr I Ray

e:|---------------|
B:|---------------|
G:|-5---5---5---5-|
D:|---------------|
A:|-3---3---3---3-|
E:|---------------|

Gtr II Frank

e:|------------------|
B:|------------------|
G:|------------------|
D:|-2---22---22---22-|
A:|-2---22---22---22-|
E:|-0---00---00---00-|

Gtr I Ray

e:|-------------------|
B:|-------------------|
G:|-5555/7777/9/7/5~~-|
D:|-------------------|
A:|-3333/5555/7/5/3~~-|
E:|-------------------|

e:|-----|
B:|-----|
G:|-----|
D:|-555-|
A:|-555-| 
E:|-333-|


Track 10:
Cubicles

Intro

Gtr I

e:|-----------------------------------|
B:|-----------------------------------|
G:|---6666-44--666666-888888--999-888-|
D:|---xxxx-xx--xxxxxx-xxxxxx--xxx-xxx-|
A:|-0-4444-22--444444-666666--777-666-|
E:|-----------------------------------|
PM  *

e:|--------------------------------|
B:|--------------------------------|
G:|-6666-44--666666--4444--555-666-|
D:|-xxxx-xx--xxxxxx--xxxx--xxx-xxx-|
A:|-4444-22--444444--2222--333-444-|
E:|--------------------------------|


Verses (Repeat whole thing twice)

Both Gtr's

e:|---------------------------------|
B:|---------------------------------|
G:|-6666-44--666666-888888--999-888-|
D:|-xxxx-xx--xxxxxx-xxxxxx--xxx-xxx-|
A:|-4444-22--444444-666666--777-666-|
E:|---------------------------------|


e:|---------------------------------|
B:|---------------------------------|
G:|-6666-44--666666-11111111--66-88-|  
D:|-xxxx-xx--xxxxxx-x-x-x-x---xx-xx-|
A:|-4444-22--444444-9-9-9-9---44-66-|
E:|---------------------------------|


Pre-Chorus
e:|-----------------------|
B:|-----------------------|
G:|-----------------------|
D:|-2~-2-2222--8~-8-88-88-|
A:|-2~-2-2222--8~-8-88-88-|
E:|-0~-0-0000--6~-6-66-66-|
PM                     **


Chorus (Both Gtr's)
e:|---------------------------------------|
B:|---------------------------------------|
G:|---------------------------------------|    
D:|-999999999-777777777-66666666666666666-|    
A:|-999999999-777777777-66666666666666666-|
E:|-777777777-555555555-44444444444444444-|


e:|-----------------------|
B:|-----------------------|
G:|-----------------------|
D:|-2~-2-2222--8~-8-88-88-|
A:|-2~-2-2222--8~-8-88-88-|
E:|-0~-0-0000--6~-6-66-66-|
PM                     **

e:|-----------------------------------------------|
B:|-----------------------------------------------|
G:|-----------999999999-------------------666-888-|    
D:|-999999999-xxxxxxxxx-66666666666666666-xxx-xxx-|    
A:|-999999999-777777777-66666666666666666-444-666-|
E:|-777777777-----------44444444444444444---------|

e:|-----------------------|
B:|-----------------------|
G:|-----------------------|
D:|-2~-2-2222--8~-8-88-88-|
A:|-2~-2-2222--8~-8-88-88-|
E:|-0~-0-0000--6~-6-66-66-|
PM                     **

e:|---------------------------------------|
B:|---------------------------------------|
G:|---------------------------------------|    
D:|-999999999-777777777-66666666666666666-|    
A:|-999999999-777777777-66666666666666666-|
E:|-777777777-555555555-44444444444444444-|

Repeat Verses

Repeat Pre-Chorus

Repeat Chorus


Bridge

Gtr I

e:|------------------------------------|
B:|------------------------------------|
G:|------------------------------------|        
D:|-99999999-44444444-6666666666666666-| 
A:|------------------------------------|
E:|------------------------------------|
PM  ******** ******** ****************

After Gtr I Has played the above once

Gtr II

e:|-------------------------------------|
B:|-------------------------------------|
G:|-------------------------------------|
D:|-------------------------------------|
A:|-77777777-22222222-44444444444444444-|
E:|-------------------------------------|  
PM  ******** ******** *****************

Gtr I

e:|-----------------------------------------------|
B:|-----------------------------------------8h9p8-|
G:|-99999-8--99999-8--99999-8--99999-8--999-------|
D:|-xxxxx-x--xxxxx-x--xxxxx-x--xxxxx-x--xxx-------|   
A:|-77777-6--77777-6--77777-6--77777-6--777-------|
E:|-----------------------------------------------|

Gtr II

e:|------------------------------------|
B:|------------------------------------|
G:|-99999999-44444444-6666666666666666-|
D:|-99999999-44444444-6666666666666666-|
A:|-77777777-22222222-4444444444444444-|
E:|------------------------------------|

Outro

Gtr I

e:|-----------------------------|
B:|-----------------------------|
G:|---------------------------8-|
D:|-2222-2-4444-4-6666-6-9999-9-|
A:|-2222-2-4444-4-6666-6-6666-6-|
E:|-0000-0-2222-2-4444-4--------|
PM  ****   ****   ****   ****


Gtr II

e:|--------------------------------------|
B:|-----------------------------9h11p9/8-|
G:|--------------------------------------|
D:|-2222-2-4444-4-6666-6-99-9-9----------|
A:|-2222-2-4444-4-6666-6-66-6-6----------|
E:|-0000-0-2222-2-4444-4-----------------|
PM  ****   ****   ****   **   *
                                      
After Gtr II Has played the above twice it changes to this

e:|-12---12---11---11----|
B:|---10---10----12---12-|
G:|----------------------|
D:|----------------------| (x8)
A:|----------------------|
E:|----------------------|

Last part of outro

Gtr I

e:|-----------------------------|
B:|-----------------------------|
G:|---------------------------8-|
D:|-2222-2-4444-4-6666-6-9999-9-|
A:|-2222-2-4444-4-6666-6-6666-6-|
E:|-0000-0-2222-2-4444-4--------|
PM  ****   ****   ****   ****

e:|---------------|
B:|---------------|
G:|---------------|
D:|-2222-2-4444-4-|
A:|-2222-2-4444-4-|
E:|-0000-0-2222-2-|
PM  ****   ****

End with

Both Gtr's

e:|-----------------|
B:|-----------------|
G:|-----------------|
D:|-66-66-666-2~~~~-|
A:|-66-66-666-2~~~~-|
E:|-44-44-444-0~~~~-|
PM        ***


Track 11:
Demolition Lovers


intro/verse
|-----------------------------------------------------------------------------|
|-----------------------------------------------------------------------------|
|------0-------0--------0------0----------------5-5-5-5---4-4-4-4-------------|
|----1---1---1---1----6--6---6---6---0-----0----5-5-5-5---4-4-4-4-------------|
|--3-------3-------3/8------8-------3--3--3-3---3-3-3-3---2-2-2-2-------------|
|----------------------------------4-----4------3-3-3-3---3-3-3-3-------------|
hand in my hand, into your icy blues.....

|-----------------------------------------------------------------------------|
|-----------------------------------------------------------------------------|
|-----------------------------------------------------------------------------|
|-10-10-10-10-10-10-10-10-12-12-12-12-12-12-12-12-12-12-12-12-12-12-12-12-----|
|--x-x--x--x--x--x--x--x--x--x--x--x--x--x--x--x--x--x--x--x---x--x--x-x------|
|--8--8-8--8--8--8--8--8--10-10-10-10-10-10-10-10-10-10-10-10-10-10-10-10-----|
im trying to let you know..

|-------------------------------|
|-------------------------------|
|-------------------------------|
|-13-13-13-13--15-15-15-15------|
|-x--x--x--x---x--x--x--x-------|
|-11-11-11-11--13-13-13-13------|
just how much you mean to me..

|-------------------------------------------|
|-------------------------------------------|
|-------------------------------------------|
|-10-10-10-10-10-10-10-10-8-8-8-8-8-8-8-8---|
|-x---x-x--x--x--x--x--x--x-x-x-x-x-x-x-x---|
|--8--8-8--8--8--8--8--8--6-6-6-6-6-6-6-----|
and after all the things...

|------------------------------------------------------|
|------------------------------------------------------|
|------------------------------------------------------|
|--9-9-9-9-9-9-9-9-15-15-15-9-9-9----------------------|
|--x-x-x-x-x-x-x-x-x--x--x--x-x-x----------------------|
|--7-7-7-7-7-7-7-7-13-13-13-7-7-7----------------------|
we put each other through

play intro again, or:
|------------------------------------------------------|
|------------6\3~----3-3b4r3---1------3----------------|
|-5/8~ --------------------------------------3-1-0-----|
|------------------------------------------------------|
|------------------------------------------------------|
|------------------------------------------------------|
and i would drive on to the end with you...

guitar 1: palm muted. .  .  .
|----------------------------------------------------------------------------|
|----------------------------------------------------------------------------|
|----------------------------------------------------------------------------|
|-6-6-6-6-6-6-6-6-8-8-8-8-8-8-8-8-9-9-9-9-9-9-9-9-10-10-10-10-8-8-8-8--------|
|-6-6-6-6-6-6-6-6-8-8-8-8-8-8-8-8-9-9-9-9-9-9-9-9-10-10-10-10-8-8-8-8--------|
|-4-4-4-4-4-4-4-4-6-6-6-6-6-6-6-6-7-7-7-7-7-7-7-7--8--8-8--8--6-6-6-6--------|
  . . . . . . . . . . . . . . . . . . . . . . . .  .  . .  .  . . . .
but this time...

guitar 2:
|----------------------------------------------|
|--4----4-----4-4-4-4---4-----4-----4-4-4-4-6--|
|-7-7-7-7-7------------7--7-7--7-7-------------|
|----------------------------------------------|
|----------------------------------------------|
|----------------------------------------------|
but this time...

guitar 1: palm mute . . .
|----------------------------------------------------------------------------|
|----------------------------------------------------------------------------|
|----------------------------------------------------------------------------|
|-6-6-6-6-6-6-6-6-8-8-8-8-8-8-8-8-9-9-9-9-9-9-9-9-1010---10-10-8-8-8-8-------|
|-6-6-6-6-6-6-6-6-8-8-8-8-8-8-8-8-9-9-9-9-9-9-9-9-1010---10-10-8-8-8-8-------|
|-4-4-4-4-4-4-4-4-6-6-6-6-6-6-6-6-7-7-7-7-7-7-7-7-8-8----8--8--6-6-6-6-------|
  . . . . . . . . . . . . . . . . . . . . . . . .
as snow falls
~~~~~~
CHORUS
guitar 1:
|----------------------------------------------------------------------|
|----------------------------------------------------------------------|
|----------------------------------------------------------------------|
|-6-6-6-6-6-6-6-6-8-8-8-8-8-8-8-8-9-9-9-9-9-9-9-9-10-10-10-10-8-8-8-8--|  {x2}
|-6-6-6-6-6-6-6-6-8-8-8-8-8-8-8-8-9-9-9-9-9-9-9-9-10-10-10-10-8-8-8-8--|
|-4-4-4-4-4-4-4-4-6-6-6-6-6-6-6-6-7-7-7-7-7-7-7-7--8--8-8--8--6-6-6-6--|
im trying, im trying to let you know...

guitar 2:

|---------------------------------------------------------------------------|
|---------------------------------------------------------------------------|
|-12-12-12-12-12-12-12-12-10-10-10-10-13-12-8-7-8888888887-7-7-7-7-7-7-7----|
|-x--x--x--x--x--x--x--x--x--x--x--x--x---x-x-x-xxxxxxxxxx-x-x-x-x-x-x-x----|
|10-10-10-10-10-10-10-10--8-8-8-8--11-10-6--5-6-6666666665-5-5-5-5-5-5-5----|
|---------------------------------------------------------------------------|
im trying, im trying to let you know...
~~~~~~

|--------------------------------|
|--------------------------------|
|-8-8--------10-10---------------|
|-x-x--------x--x----------------|
|-6-6--5-66--8-8----5-66---------|
|--------------------------------|
and we go cold...

|--------------------------34----------------------------|
|-----------------------------4--------------------------|
|-----------787------------------------------------------|
|-10-10----------6-6---------8-8-------99-9--------------|
|-10-10----------6-6---------8-8--655--99-9--------------|
|--8--8----------4-4---------6-6-------77-7--------------|
                                       ..
guitar 1:
|------------------------------------------------|
|------------------------------------------------|
|------------------------------------------------|
|-6-6--64-4--45-5--------------------------------|
|-6-6--64-4--45-5--------------------------------|
|-4-4--42-2--23-3--------------------------------|
until the end. until this pool of blood...

guitar 2:
|-----------------------------------------------|
|-----------------------------------------------|
|-8-8-85-5--5-5-4-------------------------------|
|-x-x-xx-x--x-x-x-------------------------------|
|-6-6-63-3--3-3-2-------------------------------|
|-----------------------------------------------|

{repeat part after "as we go cold"}
{repeat chorus x3}

[pause]


|------6-------6-------6----------------4-------4---------3-4-6--------------|
|-------------------------------9----------3--------3------------------------|
|-8--------8-------8--------7------5/7-5--5--5----5---5----------------------|
|---8----8---8---8---8----8---8---8------------------------------------------|
|----------------------------------------------------------------------------|
|----------------------------------------------------------------------------|
all we are....

|---------------------------------------|
|---------------------------------------|
|---------------------------------------|
|--10-10----10-10-----5-6---------------|
|--10-10----10-10-----5-6---------------|
|---8--8----8---8-----3-4---------------|
all we are is bullets, i mean this

guitar 1 during solo:
|--------------------------------------------------------------|
|--------------------------------------------------------------|
|---------------------------------5-5-5-5-5-5-5-5--------------|
|-6-6-6-6-6-6-6-6-6-6-6-6-6-6-6-6-5-5-5-5-5-5-5-5-5--5--5--5---| {x2}
|-6-6-6-6-6-6-6-6-6-6-6-6-6-6-6-6-3-3-3-3-3-3-3-3-5--5--5--5---|
|-4-4-4-4-4-4-4-4-4-4-4-4-4-4-4-4-----------------3--3--3--3---|

|------------------------------------------|
|------------------------------------------|
|------------------------------------------|
|-6-6-6-6-88-88-88-88-8-10--5--5--5--5-----| {x2}
|-6-6-6-6-88-88-88-88-8-10--5--5--5--5-----|
|-4-4-4-4-66-66-66-66-6--8--3--3--3--3-----|

|---------------------------------------------------|
|---------------------------------------------------|
|-----------------------------5~-5555--5555---------|
|-6-6-6-6-6-6-6-6-8-8-6-6-6-6-5--xxxx--xxxx-55-6----|
|-6-6-6-6-6-6-6-6-8-8-6-6-6-6-3--3333--3333-55-6----|
|-4-4-4-4-4-4-4-4-6-6-4-4-4-4---------------33-4----|
  . . . . . . . . . . . . . .
guitar 2 solo:
|-------------------------------------------------------------------------------|
|-------------------------------------------------------------------------------|
|-88888887-8-8-8-8-8-8-8-8--10-10-10-8-8-8-8-8-8-8-8-7-7-7-7-7-7-7-7-5-5-5-7----|
|-------------------------------------------------------------------------------|
|-------------------------------------------------------------------------------|
|-------------------------------------------------------------------------------|

|--------------------------------------------------------------------------------------|
|-------------------------------------8-9-8h9-8~----------------8/9--11-11-11-11-11-11-|
|-8-8-8-8-8-8-8-8--10-10-10-8-10-10-10----------10-10-8-8-8-8\7------------------------|
|--------------------------------------------------------------------------------------|
|--------------------------------------------------------------------------------------|
|--------------------------------------------------------------------------------------|

|-10-11-10-11~-11-10-10-10-888/10-11-11-11-13-13-13-10/11-16-16-16-15-16-15---|
|-----------------------------------------------------------------------------|
|-----------------------------------------------------------------------------|
|-----------------------------------------------------------------------------|
|-----------------------------------------------------------------------------|
|-----------------------------------------------------------------------------|

|-{feedbackish}--------------------------------------------------------|
|------------------9-9-9-11-11-11-11/16~-16-15-15-15-15-15-13-13-13-11-|
|----------------------------------------------------------------------|
|----------------------------------------------------------------------|
|---------------11\----------------------------------------------------|
|----------------------------------------------------------------------|

|---------------------------------------------------------------|
|-11/13--9-9-9999-11-11-9-9-9-8h9p8-8-8-8-----------------------|
|---------------------------------------------------------------|
|---------------------------------------------------------------|
|---------------------------------------------------------------|
|---------------------------------------------------------------|

|--------------------------------------------------|guitar1|--guitar2--|
|--------------------------------------------------|-------|--99-------|
|--------------------------------------------------|-55-55-|--88-77----|
|-6-6-6-6-6-6-6-6-8-8-8-8-8-8-8-8-6-5-5-5-5-5-5-5-5|-55-55-|-----77----|
|-6-6-6-6-6-6-6-6-8-8-8-8-8-8-8-8-6-5-5-5-5-5-5-5-5|-33-55-|-----------|
|-4-4-4-4-4-4-4-4-6-6-6-6-6-6-6-6-4-3-3-3-3-3-3-3-3|----33-|-----------|
as lead rains pass on through....


|------------------------------------------------|guitar 1|-guitar 2---|
|------------------------------------------------|--------|-99---------|
|------------------------------------------------|-55-----|-88-77------|
|-6-6-6-6-6-6-6-6-8-8-8-8-8-8-8-8-9-9-9-9-9-9-9-9|-55-55--|----77------|
|-6-6-6-6-6-6-6-6-8-8-8-8-8-8-8-8-9-9-9-9-9-9-9-9|-33-55--|------------|
|-4-4-4-4-4-4-4-4-6-6-6-6-6-6-6-6-7-7-7-7-7-7-7-7|----33--|------------|
like scarecrows  that fuel this flame.....

guitar 1:
|-------------------------------------------------------------|
|-------------------------------------------------------------|
|-------------------------------------------------5555-5555---|
|-6-6-6-6-6-6-6-6-8-8-8-8-8-8-8-8-9-9-9-9-9-9-9-9-5555-5555---|  {x2}
|-6-6-6-6-6-6-6-6-8-8-8-8-8-8-8-8-9-9-9-9-9-9-9-9-3333-5555---|
|-4-4-4-4-4-4-4-4-6-6-6-6-6-6-6-6-7-7-7-7-7-7-7-7------3333---|
know how much i want to show you......


guitar 2:
|------------------------------------|
|------------------------------------|
|------------------------------------|
|------------------------------------| {x2}
|---6--3---------2-3-5-6~-5~---------|
|-4--4--6-4-3-1/3--------------------|
know how much i want to show you

guitar 1:
|--------------------------------------------------------------------------|
|--------------------------------------------------------------------------|
|--------------------------------------------------------------------------|
|-6-6-6-6-6-6-6-6-8-8-8-8-8-8-8-8-6-6-6-6-6-6-6-6-10-10-10-10-10-10-10-10--|repeat until end}
|-6-6-6-6-6-6-6-6-8-8-8-8-8-8-8-8-6-6-6-6-6-6-6-6-10-10-10-10-10-10-10-10--|
|-4-4-4-4-4-4-4-4-6-6-6-6-6-6-6-6-4-4-4-4-4-4-4-4-8--8--8--8--8--8--8--8---|
and as we're falling down...........i mean this, forever.

guitar 2:
|--------------------------------------------|
|--------------------------------------------|
|-12/13-13-13-13\12-12-12\10\8-8-8-8\7-7/----| {x3}
|-x--x--x--x--x--x--x--x---x-x-x-x-x-x-x-----|
|-10/11-11-11-11\10-10-10\-8\6-6-6-6\5-7/----|
|--------------------------------------------|
and as we're falling down....

|----------------------|
|----------------------|
|-13-13\12/13\12\10/---|
|-x--x--x--x--x--x-----|
|-11-11\10/11\10\-8-/--|
|----------------------|
and as we're touching hands...

|--------------------------------------------|
|--------------------------------------------|
|-12/13-13-13-13\12-12-12\10\8-8-8-8\7-7/----| {x3}
|-x--x--x--x--x--x--x--x---x-x-x-x-x-x-x-----|
|-10/11-11-11-11\10-10-10\-8\6-6-6-6\5-7/----|
|--------------------------------------------|
and as we're falling down....i mean this forever

FINNALY...PLZZZ enjoy ;)

Thanx 2:
Unregistered
mcr_01_fan
Mathamology
dan the sweet 

SRRY I didnt give u credit the first time...:(
comments
print report bad tab
4 comments total. Showing first comments.
0 reply
Guitarmaster12 wrote on February 27 2007, 04:28 pm

did u ask all these people who submitted these tabs if u could use them?

0 reply
Palooka42 wrote on February 27 2007, 08:00 pm

ya you might wanna give credit to them huh

0 reply
SimpleFlame wrote on February 27 2007, 09:13 pm

yeah i will...gimme a while

I want to post or [tab]
guest
You may want to rate the tab now too:
select rating
Please do not post tabs as comments. Select "correction" instead!