Oops, an error
Loading. Please wait.

The Black Parade Bass Tab

ver1
ver1

Album

Whole song

More versions @911Tabs.com
26,629 views 36 this week
13 commentsread comments
1 2 3 4 5
excellent!
x 19
add to favorites launch autoscroll
font size
0
reset
Autoscroll
+/-
esc
set tempo
stop
Contributor
Difficulty
intermediate
WARNING: You are trying to view
                                    content from Ultimate-Guitar.com
                                    in an unauthorized application,
                                    which is prohibited.

                                    Please use an official Ultimate
                                    Guitar Tabs application for iPhone,
                                    iPad or Android to access legitimate
                                    chords, guitar, bass, and drum tabs
                                    from Ultimate-Guitar.com database.

                                    Type "ultimate guitar tabs" in Apple
                                    App Store's or Android Market's
                                    search to find the application.
My Chemical Romance
The Black Parade

[Thankyou for all your work, i just wanted to have the album as a tab..sorry i didnt ask 
first for your work!]

1.The End [Tabbed By Lewismasonx]
2.Dead! [Tabbed By GdRocks2230]
3.This Is How I Disappear [Tabbed By AdamV]
4.The Sharpest Lives [Tabbed By Eric Olsen]
5.Welcome To The Black Parade [Tabbed By AdamV]
6.I Don't Love You [Tabbed By Lewismasonx]
7.House Of Wolves [GDrocks2230]
8.Cancer [Andyp15]
9.Mama [girltarist]
10.Sleep [xperimet_666]
11.Teenagers [iheart_a7x]
12.Disenchanted [Findingneema]
13.Famous Last Words [AdamV]
------------------------------

1.The End

Verse One:
("Now come on, come all, to this tragic affair" ... "You might wake up and notice you're
you're not")
G|---------------REST---------------|
D|---------------REST---------------|
A|---------------REST---------------|
E|---------------REST---------------|

Verse Two:
("If you look in the mirror and don't like what you see" ... "I'd encourage your smiles,
expect you won't cry")

Chorus:
("Yeah, yeah")
G|---------------------------------------------------------|
D|---------------------------------------------------------|
A|---------------------------------------------------------|
E|-3--3--3-5-7-5--3-0--0--2--0--9--9--9--9/11-8-8--8--8/10-|

Verse Three:
("Another contusion, my funeral jag" ... "When I grow up I want to be nothing at all")

Chorus:
("I said yeah, yeah!")
G|---------------------------------------------------------|
D|---------------------------------------------------------|
A|---------------------------------------------------------|
E|-3--3--3-5-7-5--3-0--0--2--0--9--9--9--9/11-8-8--8--8/10-|

Outro:
("Come on, come on" ... "Take me!")
G|---------------------------------------------------------|
D|---------------------------------------------------------|
A|---------------------------------------------------------|
E|-3--3--3-5-7-5--3-0--0--2--0--9--9--9--9/11-8-8--8--8/10-|

G|---------------------------------------------------------|
D|---------------------------------------------------------|
A|---------------------------------------------------------|
E|-3--3--3-5-7-5--3-0--0--2--0--9--9--9--9/11-8-8--8--8/10-|
____________________________________________________________

2. Dead!

Intro-
G|--rest------|
D|--for-------|
A|--four------|
E|--measures--|

G|-----------------------------------------------------------------------|
D|-----------------------------------------------------------------------|
A|----------------------------2-2-2-2-------------------3-3-3-3-3-3-3-3--|
E|--3-3-3-3-3-3-3-3--2-2-2-2-----------0-0-0-0-0-0-0-0-------------------|


Verse 1-
G|-----------------------------------------------------------------------|
D|-----------------------------------------------------------------------|
A|----------------------------2-2-2-2-------------------3-3-3-3-3-3-3-3--|
E|--3-3-3-3-3-3-3-3--2-2-2-2-----------0-0-0-0-0-0-0-0-------------------|
pm  . . . . . . . .  . . . .  . . . .  . . . . . . . .  . . . . . . . .

G|-----------------------------------------------------------------------|
D|-----------------------------------------------------------------------|
A|----------------------------2-2-2-2-------------------3-3-3-3-3-3-3-3--|
E|--3-3-3-3-3-3-3-3--2-2-2-2-----------0-0-0-0-0-0-0-0-------------------|
pm  .   .   .   .    . . . .  . . . .  . . . . . . . .  . . . . . . . .


Pre-Chorus
G|-------------------|
D|---------------0~--|
A|--0~-------3~------|
E|-------------------|


Chorus  x2
G|----------------------------------------------------------------------|
D|-----------------------------------------------------0-0-0-0-0-0-0-0--|
A|-------------------2-2-2-2-2-2-2-2--3-3-3-3-3-3-3-3-------------------|
E|--3-3-3-3-3-3-3-3-----------------------------------------------------|


Pre-Verse
G|------------------------|
D|------------------------|
A|------------------------|
E|----------3--------15/--|


Verse 2-
G|-----------------------------------------------------------------------|
D|-----------------------------------------------------------------------|
A|----------------------------2-2-2-2-------------------3-3-3-3-3-3-3-3--|
E|--3-3-3-3-3-3-3-3--2-2-2-2-----------0-0-0-0-0-0-0-0-------------------|
pm  .   .   .   .    . . . .  . . . .  .   .   .   .    . . . . . . . .

G|-----------------------------------------------------------------------|
D|-----------------------------------------------------------------------|
A|----------------------------2-2-2-2-------------------3-3-3-3-3-3-3-3--|
E|--3-3-3-3-3-3-3-3--2-2-2-2-----------0-0-0-0-0-0-0-0-------------------|
pm  .   .   .   .    . . . .  . . . .  .   .   .   .    . . . . . . . .


Pre-Chorus
G|-------------------|
D|---------------0~--|
A|--0~-------3~------|
E|-------------------|


Chorus  x2
G|----------------------------------------------------------------------|
D|-----------------------------------------------------0-0-0-0-0-0-0-0--|
A|-------------------2-2-2-2-2-2-2-2--3-3-3-3-3-3-3-3-------------------|
E|--3-3-3-3-3-3-3-3-----------------------------------------------------|


Bridge-
G|-------------------------------------------------------------------|
D|------------------------------------------1-1-1-1-2-2-2-2-0-0-0-0--|
A|--0-0-0-0-0-0-0-0-5-5-5-5-3-3-3-3-2-2-2-2--------------------------|
E|-------------------------------------------------------------------|
pm  . . . . . . . . . . . . . . . . . . . . . . . . . . . . . . . .

G|-------------------------------------------------------------------|
D|-------------------------------------------------------------------|
A|--3-3-3-3-2-2-2-2-0-0-0-0---------3-3-3-3-3-3-3-3-3-3-3-3-3-3-3-3--|
E|--------------------------3-3-3-3----------------------------------|
pm  . . . . . . . . . . . . . . . . . . . . . . . . . . . . . . . .
                                                     ^slowly lift pm


Solo
G|-----------------------------------------------------------------------|
D|-----------------------------------------------------------------------|
A|----------------------------2-2-2-2-------------------3-3-3-3-3-3-3-3--|
E|--3-3-3-3-3-3-3-3--2-2-2-2-----------0-0-0-0-0-0-0-0-------------------|
    repeat line above, then play line below.

G|-----|
D|-----|
A|-----|
E|--3--|


End

(rest)....

1!   2!   1! 2! 3! 4!

G|----------------------------------------------------------------------|
D|-----------------------------------------------------0-0-0-0-0-0-0-0--|
A|-------------------2-2-2-2-2-2-2-2--3-3-3-3-3-3-3-3-------------------|
E|--3-3-3-3-3-3-3-3-----------------------------------------------------|

  play line above 4 times then play line below

G|-------------|
D|-------------|
A|-------------|
E|--3-------3--|
__________________________________________________________

3. This Is how I Disappear

Intro
|--------------------|
|--------------------| X2
|-5~-----------------|
|------5~---3----1-5-|

|--------------------------------------|
|--------------------------------------|
|-55555555-----------------------------|
|----------55555555-33333333-1111-5555-|

Verse
|-----------------------------------------------------------------|
|-----------------------------------------------------------------|
|-5-5-5-5---------3-3-3-3---------1-1-1-1-------------------------|
|---------3-3-3-3---------1-1-1-1---------0-0-0-0-5-5-5-5-5-5-5-5-|

|------------------------------------------------------------------|
|------------------------------------------------------------------|
|-5-5-5-5---------3-3-3-3---------1-1-1-1--------------------------|
|---------3-3-3-3---------1-1-1-1---------0-0-0-0-5555555555555555-|

|-------------|
|---3-2---555-|
|-5-----4-----|
|-------------|

Chorus
|--------------------------------------|
|--------------------------------------|
|-55555555----------33333333-----------|
|----------33333333----------1111-0000-|

|-------------------------------------|
|-------------------------------------|
|-55555555----------33333333----------|
|----------33333333----------55555555-|

|--------------------------------------|
|--------------------------------------|
|-55555555----------33333333-----------|
|----------33333333----------1111-0000-|

|------------------------------------|
|------------------------------------|
|-55555555---------------------------|
|----------33333333-5555555555555555-|

Verse
|------------------------------------------------------------------------|
|------------------------------------------------------------------------| X2
|-55555555----------33333333----------11111111---------------------------|
|----------33333333----------11111111----------00000000-5555555555555555-|

|-------------|
|---3-2---555-|
|-5-----4-----|
|-------------|

Chorus
|--------------------------------------|
|--------------------------------------|
|-55555555----------33333333-----------|
|----------33333333----------1111-0000-|

|-------------------------------------|
|-------------------------------------|
|-55555555----------33333333----------|
|----------33333333----------55555555-|

|--------------------------------------|
|--------------------------------------|
|-55555555----------33333333-----------|
|----------33333333----------1111-0000-|

|------------------------------------|
|------------------------------------|
|-55555555---------------------------|
|----------33333333-5555555555555555-|

Bridge
|--------------------------------------------------------------------------------|
|--------------------------------------------------------------------------------|
|-5~------5h7-3---3h5-----4---5---15\-55555555------------------3333333333333333-|
|---------------------5------------------------3333333333333333------------------|

|--------------------------------------------------------------------------------------|
|--------------------3-2---555----3-2---555----3-2--------3-2-----------3-2--------3-2-|
|------------------5-----4------5-----4------5-----4----5-----4-xxxx--5-----4----5-----|
|-5555555555555555-----------------------------------3------------------------3--------|

|--------------------------------------------------------------|
|--------------------------------------------------------------|
|-5555555555555555------------------3333333333333333-----------|
|------------------3333333333333333------------------1111-0000-|

|---------------------------------------------------------------------|
|---------------------------------------------------------------------|
|-5555555555555555------------------3333333333333333------------------|
|------------------3333333333333333------------------5555555555555555-|

Chorus
|--------------------------------------|
|--------------------------------------|
|-55555555----------33333333-----------|
|----------33333333----------1111-0000-|

|-------------------------------------|
|-------------------------------------|
|-55555555----------33333333----------|
|----------33333333----------55555555-|

|--------------------------------------|
|--------------------------------------|
|-55555555----------33333333-----------|
|----------33333333----------1111-0000-|

|-------------------------------------------------------|
|-------------------------------------------------------|
|-55555555-------------------------------------------5~-|
|----------33333333-55555555555555555555555555555555----|

__________________________________________________________

4. The Sharpest Lives

Verse x1
G|--------------|--------------|--------------|----------------|
D|--------------|--------------|--------------|----------------|
A|-444444444444-|--------------|--------------|----------------|
E|--------------|-555555555555-|-222222222222-|-44444444444444-|

Pre-Chorus x1
G|----------------|----------------|--------------|--------------|
D|----------------|----------------|--------------|--------------|
A|----------------|-------44442222-|--------------|--------------|
E|--555555777777--|-444444---------|-555555555555-|-444444444444-|

Chorus x2
G|-------------------|------------------|
D|-------------------|------------------|
A|-44444444----------|------------------|
E|----------55555555-|-2222222244444444-|

Variation (After the chorus when Gerard says something like (oh, so close)
G|---REST---|
D|---ESTR---|
A|---STRE---|
E|---TRES---|

Verse x1
G|--------------|--------------|--------------|----------------|
D|--------------|--------------|--------------|----------------|
A|-444444444444-|--------------|--------------|----------------|
E|--------------|-555555555555-|-222222222222-|-44444444444444-|

Pre-Chorus x1
G|----------------|----------------|--------------|--------------|
D|----------------|----------------|--------------|--------------|
A|----------------|-------44442222-|--------------|--------------|
E|--555555777777--|-444444---------|-555555555555-|-444444444444-|

Chorus x2
G|-------------------|------------------|
D|-------------------|------------------|
A|-44444444----------|------------------|
E|----------55555555-|-2222222244444444-|

Solo (I think you must play this until it's over, but i'm not sure.)
G|-------------------------------------------|
D|-------------------------------------------|
A|-44444444444444444444444444444444444444444-|
E|-------------------------------------------|

Chorus x2
G|-------------------|------------------|
D|-------------------|------------------|
A|-44444444----------|------------------|
E|----------55555555-|-2222222244444444-|

Outro
G|-------------------|------------------|
D|-------------------|------------------|  x2
A|-44444444----------|------------------|
E|----------55555555-|-2222222244444444-|

G|-------|
D|-------|
A|--4~~--|
E|-------|
____________________________________________

5. Welcome To The Black Parade

Intro 0.38
|-------------------------------------------|
|-12/-17---16---14-----------------------12-| X2
|--------------------17---15---14---12------|
|-------------------------------------------|

|-------------------------------|
|-------------------------------| X2
|-------------5---3---2---0---5-|
|-3---2---0---------------------|

|-----------------------------------|
|-----------------------------------|
|-------------5---3---2---0---5-----|
|-3---2---0-----------------------3-|

Verse
|---------------------------------------------------------------|
|---------------------------------------------------------------|
|----------------------------55555555-333333333333-555555555555-|
|-33333333-22222222-00000000------------------------------------|

|-----------------------------------------------------------------------|
|-----------------------------------------------------------------------| X2
|----------------------------3333333333333333----------5555555555555555-|
|-33333333-22222222-11111111------------------33333333------------------|

Chorus
|---------------------------------------------------------------|
|---------------------------------------------------------------| X2
|----------------------------55555555-333333333333-555555555555-|
|-33333333-22222222-00000000------------------------------------|

Verse
|-----------------------------------------------------------------------|
|-----------------------------------------------------------------------| X2
|----------------------------3333333333333333----------5555555555555555-|
|-33333333-22222222-11111111------------------33333333------------------|

Chorus
|---------------------------------------------------------------|
|---------------------------------------------------------------|
|----------------------------55555555-333333333333-555555555555-|
|-33333333-22222222-00000000------------------------------------|

|---------------------------------------------------------------------|
|---------------------------------------------------------------------|
|----------------------------55555555-333333333333-555555555555-5---3-|
|-33333333-22222222-00000000------------------------------------------|

Bridge
|-------------------|
|-------------------| X2
|-22222222----------|
|----------00000000-|

|--------------------------|
|--------------------------|
|-3333333333333333-6-5-3-2-|
|--------------------------|

|-----------------|
|-----------------| X2
|-------5-3---3-5-|
|-3-2-0-----3-----|

|-----------------------------------|
|-----------------------------------|
|---------5-------------------------|
|-5-4-2-0---5-000000000000000000000-|

Chorus
|-------------------------------------------------------------------|
|-------------------------------------------------------------------| X2
|-------------------------------------55555555555555----------------|
|-55555555-44444444-22222222-00000000----------------00000000000000-|

Outro
|----------------|
|----------------| X2
|---------5------|
|-5-4-2-0------0-|

|----|
|----|
|----|
|-5~-|
___________________________________________________

6. I Dont Love You

Intro:
G|-------------REST-------------|
D|-------------REST-------------|
A|-------------REST-------------|
E|-------------REST-------------|

Preverse:
G|---------------------------------------------------------------------|
D|---------------------------------------------------------------------|
A|-3333333333333333----------------------------------------------------|
E|------------------5555555555555555-3333333333333333-1111111133333333-|

Verse One:
("Well when you go" ... "I'll be off to find another way")
G|---------------------------------------------------------------------|
D|---------------------------------------------------------------------|
A|-3333333333333333----------------------------------------------------|
E|------------------5555555555555555-3333333333333333-1111111133333333-|

Pre-Chorus:
("And after all this time" ... "Get out, while you can")
G|---------------------------------------------------------------------|
D|---------------------------------------------------------------------|
A|-3333333333333333-----------------------------------3333333333333333-|
E|------------------5555555555555555-3333333333333333------------------|

Chorus:
("When you go" ... "I don't love you, like I did, yesterday")
G|---------------------------------------------------------------------|
D|---------------------------------------------------------------------|
A|----------------------------------------------------3~---------------|
E|-1111111133334444-5555555511111111-1111111133333333------------------|

Verse Two:
("Sometimes I cry so hard" ... "It's where you oughta stay")
G|---------------------------------------------------------------------|
D|---------------------------------------------------------------------|
A|-3333333333333333----------------------------------------------------|
E|------------------5555555555555555-3333333333333333-1111111133333333-|

Pre-Chorus:
("And after all the blood" ... "Get up, while you can")
G|---------------------------------------------------------------------|
D|---------------------------------------------------------------------|
A|-3333333333333333-----------------------------------3333333333333333-|
E|------------------5555555555555555-3333333333333333------------------|

Chorus:
("When you go" ... "I don't love you, like I did, yesterday")
G|---------------------------------------------------------------------|
D|---------------------------------------------------------------------|
A|----------------------------------------------------3~---------------|
E|-1111111133334444-5555555511111111-1111111133333333------------------|

Solo:
G|---------------------------------------------------------------------|
D|---------------------------------------------------------------------|
A|------------------3-332220-------------------------------------------|
E|-5555555533333333---------55555555-3333333333333333-1111111133333333-|

Interlude:
("When you go" ... "I don't love you, like I loved you, yesterday")
G|-------------REST-------------|
D|-------------REST-------------|
A|-------------REST-------------|
E|-------------REST-------------|

Final Chorus: [x2]
[Note: Hold the ringing notes for four beats]
G|--------------------------------|
D|--------------------------------|
A|-3~-2~--------------------------|
E|------55553333-1111111133333333-|

End:
G|----|
D|----|
A|-3~-|
E|----|
____________________________________________

7.House Of Wolves

Intro (after the pickslides)\
G|--------------------------------------|
D|--------------------------------------|
A|--7--x--x--5--x--x--3--x--2--2--2--2--|
E|--------------------------------------|

G|--------------------------------------|
D|--------------------------------------|
A|--7--x--x--5--x--x--3--x--2--2--2--2--|
E|--------------------------------------|

G|----------------------------------------|
D|----------------------------------------|
A|--7--x--x--9--x--x--10--10--9--9--9--9--|
E|----------------------------------------|

G|--------------------------------------|
D|--------------------------------------|
A|--7--x--x--5--x--x--3--x--2--2--2--2--|
E|--------------------------------------|


Verse 1
G|--------------------------------------------------|
D|--------------------------------------------------|
A|--------------3-3-3--3-3--------------2-2-2--2-2--|
E|--0-0-0--0-0--------------3-3-3--3-3--------------|

G|--------------------------------------------------|
D|--------------------------------------------------|
A|--------------3-3-3--3-3--------------2-2-2--2-2--|
E|--0-0-0--0-0--------------3-3-3--3-3--------------|

G|--------------------------------------------------------------|
D|--------------------------------------------------------------|
A|---------------3-3-2-2-0-0-0--3-3-2-2-0-0-0--2-2-2-0-0-0------|
E|--0-0-2-0-0-0--------------------------------------------3-2--|

G|---------------------------------------------|
D|---------------------------------------------|
A|---------------3-3-2-2-0-0-0--3-3-2-2-0-0-0--|
E|--0-0-2-0-0-0--------------------------------|


Pre-Chorus
G|------------------------------------------|
D|------------------------------------------|
A|--2-2-2-2-2---2-3~-------3-5~-----5-6~----|
E|------------------------------------------|


Chorus
G|----------------------------------------------------------------------|
D|--2-2-2-2-2-2-2-0-----------------------------------------------------|
A|-------------------3-3-3-3-3-3-3-3-------------------2-2-2-2-2-2-2-2--|
E|------------------------------------3-3-3-3-3-3-3-3-------------------|

G|----------------------------------------------------------------------|
D|--2-2-2-2-2-2-2-0-----------------------------------------------------|
A|-------------------3-3-3-3-3-3-3-3-------------------2-2-2-2-2-2-2-2--|
E|------------------------------------3-3-3-3-3-3-3-3-------------------|


Post-Chorus
G|--------------------------------------|
D|--------------------------------------|
A|--7--x--x--5--x--x--3--x--2--2--2--2--|
E|--------------------------------------|

G|--------------------------------------|
D|--------------------------------------|
A|--7--x--x--5--x--x--3--x--2--2--2--2--|
E|--------------------------------------|

G|----------------------------------------|
D|----------------------------------------|
A|--7--x--x--9--x--x--10--10--9--9--9--9--|
E|----------------------------------------|

G|--------------------------------------|
D|--------------------------------------|
A|--7--x--x--5--x--x--3--x--2--2--2--2--|
E|--------------------------------------|


Verse 2
G|--------------------------------------------------|
D|--------------------------------------------------|
A|--------------3-3-3--3-3--------------2-2-2--2-2--|
E|--0-0-0--0-0--------------3-3-3--3-3--------------|

G|--------------------------------------------------|
D|--------------------------------------------------|
A|--------------3-3-3--3-3--------------2-2-2--2-2--|
E|--0-0-0--0-0--------------3-3-3--3-3--------------|

G|----------------------------------------------------------------------|
D|----------------------------------------------------------------------|
A|-------------------3-3-3-2-2-0-0-0--3-3-3-2-2-0-0-0--0-0-0-2-2-0------|
E|--0-0-0-2-0-0-0-0------------------------------------------------3-2--|

G|-----------------------------------------------------|
D|-----------------------------------------------------|
A|-------------------3-3-3-2-2-0-0-0--3-3-3-2-2-0-0-0--|
E|--0-0-0-2-0-0-0-0------------------------------------|

Pre-Chorus
G|------------------------------------------|
D|------------------------------------------|
A|--2-2-2-2-2---2-3~-------3-5~-----5-6~----|
E|------------------------------------------|


Chorus
G|----------------------------------------------------------------------|
D|--2-2-2-2-2-2-2-0-----------------------------------------------------|
A|-------------------3-3-3-3-3-3-3-3-------------------2-2-2-2-2-2-2-2--|
E|------------------------------------3-3-3-3-3-3-3-3-------------------|

G|----------------------------------------------------------------------|
D|--2-2-2-2-2-2-2-0-----------------------------------------------------|
A|-------------------3-3-3-3-3-3-3-3-------------------2-2-2-2-2-2-2-2--|
E|------------------------------------3-3-3-3-3-3-3-3-------------------|


Bridge
G|-------------------------------------------------------------|
D|-------------------------------------------------------------|
A|-------------------------------------------------------------|
E|--0-0-0-0--3-5--0-0-0-0--3-5--0-0-0-0--3-5--0-0-0-0--3-5--0--|

G|---------------------------------|
D|---------------------------------|
A|---------------------------------|
E|--0-0-0-0--3-5--0-0-0-0--3-5--0--|

G|------------------------------|
D|-----------0-2-----------0-2--|
A|--2-2-2-2-------2-2-2-2-------|
E|------------------------------|

G|-------------------------------------------|
D|--2~---------------------------------------|
A|----------0~------2~--3~--0-2-0-2-0-2-0-2--|
E|-------------------------------------------|


Chorus
G|----------------------------------------------------------------------|
D|--2-2-2-2-2-2-2-0-----------------------------------------------------|
A|-------------------3-3-3-3-3-3-3-3-------------------2-2-2-2-2-2-2-2--|
E|------------------------------------3-3-3-3-3-3-3-3-------------------|

G|----------------------------------------------------------------------|
D|--2-2-2-2-2-2-2-0-----------------------------------------------------|
A|-------------------3-3-3-3-3-3-3-3-------------------2-2-2-2-2-2-2-2--|
E|------------------------------------3-3-3-3-3-3-3-3-------------------|


End
G|----------------------------------------------------------------------|
D|--2-2-2-2-2-2-2-0-----------------------------------------------------|
A|-------------------3-3-3-3-3-3-3-3-------------------2-2-2-2-2-2-2-2--|
E|------------------------------------3-3-3-3-3-3-3-3-------------------|

G|----------------------------------------------------------------------|
D|--2-2-2-2-2-2-2-0-----------------------------------------------------|
A|-------------------3-3-3-3-3-3-3-3-------------------2-2-2-2-2-2-2-2--|
E|------------------------------------3-3-3-3-3-3-3-3-------------------|

G|--------------------------------------|
D|--------------------------------------|
A|--7--x--x--5--x--x--3--x--2--2--2--2--|
E|--------------------------------------|

G|--------------------------------------|
D|--------------------------------------|
A|--7--x--x--5--x--x--3--x--2--2--2--2--|
E|--------------------------------------|

G|----------------------------------------|
D|----------------------------------------|
A|--7--x--x--9--x--x--10--10--9--9--9--9--|
E|----------------------------------------|

G|--------------------------------------|
D|--------------------------------------|
A|--7--x--x--5--x--x--3--5--3--2--------|
E|-----------------------------------0--|
____________________________________________

8.Cancer

Intro
G|---------------------------------------------------------------------------|
D|---------------------------------------------------------------------------|
A|-7-7-7-7-7-7-7-7-----------------7-7-7-7-7-7-7-7---------------------------|
E|-----------------7-7-7-7-7-7-7-7------------------7-7-7-7-7-7-7-7----------|

Verse 1 - Play Twice
G|-----------------------------------------------------------------------------|
D|-----------------------------------------------------------------------------|
A|-----------------2-2-2-2-2-2-2-2--4-4-4-4-4-4-320-0-0-0-0-0-0-0-0------------|
E|-0-0-0-0-0-0-0-0-------------------------------------------------------------|

Chorus
G|---------------------------------------------------------------------------|
D|---------------------------------------------------------------------------|
A|-0-0-0-0---------2-2-2-2-3-3-3-3-4-4-4-4-4-4-4-4---------------------------|
E|---------2-2-2-2----------------------------------5-5-5-5-5-5-5------------|

G|---------------------------------------------------------------------------|
D|---------------------------------------------------------------------------|
A|-----------------2-2-2-2-2-2-2-2/--7-7-7-7-7-7-7-7-7-7-7-7-7-7-7-7---------|
E|-2-2-2-2-2-2-2-2-----------------------------------------------------------|

Verse 2- Play Once
G|-----------------------------------------------------------------------------|
D|-----------------------------------------------------------------------------|
A|-7-7-7-7-7-7-7-7--2-2-2-2-2-2-2-2--4-4-4-4-4-4-320-0-0-0-0-0-0-0-0-----------|
E|-----------------------------------------------------------------------------|

G|-----------------------------------------------------------------------------|
D|-----------------------------------------------------------------------------|
A|-----------------2-2-2-2-2-2-2-2--4-4-4-4-4-4-320-0-0-0-0-0-0-0-0------------|
E|-0-0-0-0-0-0-0-0-------------------------------------------------------------|

Chorus
G|---------------------------------------------------------------------------|
D|---------------------------------------------------------------------------|
A|-0-0-0-0---------2-2-2-2-3-3-3-3-4-4-4-4-4-4-4-4---------------------------|
E|---------2-2-2-2----------------------------------5-5-5-5-5-5-5------------|

Bridge

G|---------------------------------------------------------------------------|
D|---------------------------------------------------------------------------|
A|-7-7-7-7-7-7-7-7------------------4-4-4-4-4-4-4-4-2-2-2--------------------|
E|------------------8-8-8-8-8-8-8-8------------------------5-5-5-4-4-4-4-4---|

G|---------------------------------------------------------------------------|
D|---------------------------------------------------------------------------|
A|-----------------2-2-2-2-2-2-2-2-4-4-4-4-4-3-3-3-3-3-2-2-2-2-2-0-0-0-0-0---|
E|-2-2-2-2-2-2-2-2-----------------------------------------------------------|

G|---------------------------------------------------------------------------|
D|---------------------------------------------------------------------------|
A|-----------------2-2-2-2-2-2-2-2-------------------------------------------|
E|-2-2-2-2-2-2-2-2------------------0----------------------------------------|
_________________________________________________________________________

10.Mama

Verse 1: begin at “Oh well now, Mama, we’re all going to die...”
G|--------|--------|--------|--------|--------|--------|--------|--------|
D|--------|--------|--------|--------|--------|--------|--------|--------|
A|--------|--------|--------|----2---|--------|------2-|--------|--------|
E|0-7-0-7-|0-7-0-7-|0-7-0-7-|7-2---2-|5-0-7-7-|-3-320--|0-7-7-7-|0.------|

Chorus 1: “And we go, don’t blame us...”
G|--------|--------|--------|--------|--------|--------|--------|--------|
D|--------|--------|--------|--------|--------|--------|--------|--------|
A|33333333|55555753|--------|33333530|------3-|22222222|--------|-------2|
E|--------|--------|33333333|--------|111111--|--------|0~--2~--|3~--023-|

Chorus 1 (continued):
G|--------|--------|
D|--------|--------|
A|3~--6~--|7~------|
E|--------|--------|

Verse 2: begin at “Well, Mother, what the war did to my legs...”
G|--------|--------|--------|--------|--------|--------|--------|--------|
D|--------|--------|--------|--------|--------|--------|--------|--------|
A|--------|--------|--------|----2---|--------|------2-|--------|--------|
E|0-7-0-7-|0-7-0-7-|0-7-0-7-|7-2---2-|5-0-7-7-|-3-320--|0-7-7-7-|0.------|

Chorus 2: “And we go, don’t blame us...”
G|--------|--------|--------|--------|--------|--------|--------|--------|
D|--------|--------|--------|--------|--------|--------|--------|--------|
A|33333333|55555753|--------|33333530|------3-|22222222|--------|-------2|
E|--------|--------|33333333|--------|111111--|--------|0~--2~--|3---023-|

Chorus 2 (continued): “She said, ‘You ain’t no son of mine’...”
G|--------|--------|--------|--------|--------|--------|--------|--------|
D|--------|--------|--------|--------|--------|--------|--------|--------|
A|33333333|55555753|--------|33333530|------3-|22222222|--------|-------2|
E|--------|--------|33333333|--------|111111--|--------|0~--2~--|3~--023-|

Chorus 2 (continued):
G|--------|--------|
D|--------|--------|
A|3~--6~--|7~------|
E|--------|--------|


Bridge 1: “Mama, we all go to hell...”
G|--------|--------|--------|--------|--------|--------|--------|--------|
D|--------|--------|--------|--------|--------|--------|--------|--------|
A|--------|--------|--------|----2---|--------|------2-|--------|--------|
E|0-7-0-7-|0-7-0-7-|0-7-0-7-|7-2---2-|5-0-7-7-|-3-320--|0-7-7-7-|0~------|

- Half speed

Interlude:                            “Mama... Mama...”
G|--------|--------|--------|--------|--------|--------|--------|--------|
D|--------|--------|--------|--------|--------|--------|--------|--------|
A|--------|--------|--------|--------|--------|--------|--------|--------|
E|0-0-5-7-|0-0-5-7-|0-0-5-7-|0-0-5-7-|7-8-5---|7-8-6---|7-8-5---|7-5-3-2-|

Interlude (continued):
G|--------|--------|--------|--------|--------|--------|--------|
D|--------|--------|--------|--------|--------|--------|--------|
A|--------|--------|--------|--------|--------|--------|--------|
E|0-0-5-7-|0-0-5-7-|0-0-5-7-|0-0-5-7-|7-8-5---|7-8-6---|7-8-5---|

Interlude (continued):
G|--------|--------|
D|--------|--------|
A|--------|--------|
E|7~--5~--|3~--2~--|

- Time change to 3/4 Time
- 2nd Guitar plays first part

Bridge 2: begin at “But the shit that I’ve done...”
G|------|------|------|------|------|------|------|------|
D|------|------|------|------|------|------|------|------|
A|------|------|------|------|------|------|------|------|
E|5-5-5-|7-7-7-|3-3-3-|0-0-0-|0-0-0-|5-5-5-|7-7-7-|7-7-7-|

Ending Part 1: “We’re damned after all...”
G|------|------|------|------|------|------|------|------|
D|------|------|------|------|------|------|------|------|
A|------|------|------|------|------|------|------|------|
E|0-0-0-|0-0-0-|0-0-0-|0-0-0-|0-0-0-|5-5-5-|7-7-7-|7-7-7-|

Ending Part 1 (continued):
G|------|------|------|------|------|------|------|------|
D|------|------|------|------|------|------|------|------|
A|------|------|------|------|------|------|------|------|
E|5-5-5-|7-7-7-|3-3-3-|0-0-0-|0-0-0-|5-5-5-|7-7-7-|7-7-7-|

Ending Part 2: “We’ll all carry on when our brothers in arms are gone...”
G|------|------|------|------|------|------|------|------|
D|------|------|------|------|------|------|------|------|
A|------|------|------|------|------|------|------|------|
E|0-0-0-|0-0-0-|0-0-0-|0-0-0-|0-0-0-|5-5-5-|7-7-7-|7-7-7-|

Ending Part 2 (continued):
G|------|------|------|------|------|------|------|------|------|------|
D|------|------|------|------|------|------|------|------|------|------|
A|------|------|------|------|------|------|------|------|------|------|
E|5-5-5-|7-7-7-|3-3-3-|0-0-0-|0-0-0-|5-5-5-|0~----|0~----|0~----|0.----|
____________________________________________________________

10.Sleep

!INTRO!

G|---------------------------------|---------------------------------|
D|---------------------------------|---------------------------------|
A|-3-3-3-3-3-3-3-3-----------------|---------------------------------|
E|-----------------1-1-1-1-1-1-1-1-|-3-3-3-3-3-3-3-3-3-3-3-3-3-3-3-3-|

continued

G|---------------------------------|---------------------------------|
D|---------------------------------|---------------------------------|
A|---------------------------------|---------------------------------|
E|-0-0-0-0-0-0-0-0-1-1-1-1-1-1-1-1-|-3-3-3-3-3-3-3-3-3-3-3-3-3-3-3-3-|

!VERSE!

G|--------|
D|--------|
A|-3~~~~--|
E|--------|

!REFRAIN!

G|---------------------------------|---------------------------------|
D|---------------------------------|---------------------------------|
A|---------------------------------|---------------------------------|
E|-4-4-4-4-4-4-4-4-4-4-4-4-4-4-4-4-|-1-1-1-1-1-1-1-1-1-1-1-1-1-1-1-1-|

continued

G|---------------------------------|---------------------------------|
D|---------------------------------|---------------------------------|
A|-3-3-3-3-3-3-3-3-3-3-3-3-3-3-3-3-|-1-1-1-1-1-1-1-1-1-1-1-1-1-1-1-1-|
E|---------------------------------|---------------------------------|

continued

G|---------------------------------|---------------------------------|
D|---------------------------------|---------------------------------|
A|---------------------------------|---------------------------------|
E|-4-4-4-4-4-4-4-4-4-4-4-4-4-4-4-4-|-1-1-1-1-1-1-1-1-1-1-1-1-1-1-1-1-|

!CHORUS!

G|---------------------------------|---------------------------------|
D|---------------------------------|---------------------------------| 2x
A|-3-3-3-3-3-3-3-3-3-3-3-3-3-3-3-3-|---------------------------------|
E|---------------------------------|-0-0-0-0-0-0-0-0-0-0-0-0-0-0-0-0-|

then,

G|---------------------------------|-------------------|
D|---------------------------------|-------------------|
A|---------------------------------|-------------------|
E|-1---1---1---1---1---1---1---1---|-4-4-4-4-4-4-4-4-3-|

Repeat !REFRAIN! and !CHORUS!

Then some weird effects comes in with the drums...

!INTRO! 4x

then,

G|---------------------------------|
D|---------------------------------|
A|---------------------------------|
E|-3---3---3---3---3---3---3---3---|

!CHORUS 4x!

G|--------|
D|--------|
A|-3~~~~--|
E|--------|
____________________________________________

11.Teenagers

Verse. Bass doesn't come in until "Because the drugs never work."
G|----------------------------------|
D|----------------------------------|
A|-7\--7\--7\---2--0-----22222222---|
E|--------------------0-----------0-|

Chorus
G|------------------------------------------------------------------------------------------|
D|------------------------------------------------------------------------------------------|
A|----------------------------------------22-5-2-2-5-2-00-4-0-0-4-0---------------22222222--|
E|-00-4-0-0-4-0-00-4-0-0-4-0-00-4-0-0-4-0----------------------------00-4-0-0-4-0---------0-|

Verse x1
Chorus x1

Bridge:
G|-------------------22------------------------------------|
D|-------------22-44---44-22-------------------------------|
A|-------00-44----------------44--------22-44-55-44-22-00--|
E|-0-2-4--------------------------00-22--------------------|

G|---------------22----------------------------|
D|---------22-44---44-22-----------------------|
A|--00-44----------------44---2222222222222222-|
E|---------------------------------------------|

Chorus x2
______________________________________

12.Disenchanted

Verse One
"Well I was there..."
G|7-------|7-------|--------|--------|--------|--------|--------|--------|
D|--------|--------|9-------|9-------|5-------|5-------|7-------|7-------|
A|--------|--------|--------|--------|--------|--------|--------|--------|
E|--------|--------|--------|--------|--------|--------|--------|--------|

"It was the roar..."
G|--------|--------|--------|--------|--------|--------|--------|--------|
D|--------|--------|--------|--------|--------|--------|--------|--------|
A|55555555|55555555|--------|--------|--------|--------|--------|--------|
E|--------|--------|77777777|77777777|33333333|33333333|55555555|55556666|

Pre-Chorus:
"If I'm so wrong..."
G|--------|--------|--------|--------|--------|--------|--------|--------|
D|--------|--------|--------|--------|--------|--------|--------|--------|
A|--------|--------|--------|55-544-4|--------|--------|--------|--------|
E|77777777|00000000|55555555|--------|77777777|33333333|55555555|55555555|

Chorus:
"You're just a sad song..."
G|--------|--------|--------|--------|--------|--------|--------|--------|
D|--------|--------|--------|--------|--------|--------|--------|--------|
A|55555555|55555555|--------|--------|--------|--------|--------|--------|
E|--------|--------|77777777|77777777|00000000|00000000|55555555|55555555|

Verse Two:
"I spent my high school career..."
G|--------|--------|--------|--------|--------|--------|--------|--------|
D|--------|--------|--------|--------|--------|--------|--------|--------|
A|55555555|55555555|--------|--------|--------|--------|--------|--------|
E|--------|--------|77777777|77777777|33333333|33333333|55555555|55556666|

Pre-Chorus:
"If I'm so wrong..."
G|--------|--------|--------|--------|--------|--------|--------|--------|
D|--------|--------|--------|--------|--------|--------|--------|--------|
A|--------|--------|--------|55-544-4|--------|--------|--------|--------|
E|77777777|00000000|55555555|--------|77777777|33333333|55555555|55555555|

Chorus:
"You're just a sad song..."
G|--------|--------|--------|--------|--------|--------|--------|--------|
D|--------|--------|--------|--------|--------|--------|--------|--------|
A|55555555|55555555|--------|--------|--------|--------|--------|--------|
E|--------|--------|77777777|77777777|00000000|00000000|55555555|55555555|

Interlude:
"So go..."
G|--------|--------|--------|--------|--------|--------|--------|--------|
D|--------|--------|--------|--------|--------|--------|--------|--------|
A|5--55---|1-------|5--55---|1-------|55-544-4|--------|--------|--------|
E|--------|--------|--------|--------|--------|77-755-5|33333333|55555555|

Instrumental
G|--------|--------|--------|--------|--------|--------|--------|--------|
D|--------|--------|--------|--------|--------|--------|--------|--------|
A|55555555|55555555|--------|--------|--------|--------|--------|--------|
E|--------|--------|77777777|77777777|33333333|33333333|55555555|55555555|

Chorus:
"You're just a sad song..."
G|--------|--------|--------|--------|--------|--------|--------|--------|
D|--------|--------|--------|--------|--------|--------|--------|--------|
A|55555555|55555555|--------|--------|--------|--------|--------|--------|
E|--------|--------|77777777|77777777|00000000|00000000|55555555|55555555|

"You're just a sad song..."
G|--------|--------|--------|--------|--------|--------|--------|--------|
D|--------|--------|--------|--------|--------|--------|--------|--------|
A|55555555|55555555|--------|--------|--------|--------|--------|--------|
E|--------|--------|77777777|77777777|00-000-0|00-000-0|55555555|55555555|

Outro:
("At all" ... "At all")
G|--------|
D|--------|
A|5-------|
E|--------|
________________________________

13. Famous Last Words

Intro 0.15
|---------------------------------------------------|
|---------------------------------------------------|
|-55---------11-------------------11111111-33333333-|
|-------------------------33------------------------|

|----------------------------|
|----------------------------|
|-55---55---5555555555555555-|
|----------------------------|

Verse
|-------------------------------------------------------------------------|
|-------------------------------------------------------------------------|
|-555555555555-3333-111111111111------------------------11111111-33333333-|
|--------------------------------5555-33333333-55555555-------------------|

|----------------------------------------------------------------------|
|----------------------------------------------------------------------|
|-555555555555-3333-111111111111------------------------11111111-33333-|
|--------------------------------5555-33333333-55555555----------------|

Chorus
|-------------------------------------------------------------------------|
|-------------------------------------------------------------------------|
|-888888888888-7777-555555555555------11111111-33333333----------33333333-|
|--------------------------------5555-------------------33333333----------|

Post Chorus
|----------------------------|
|----------------------------|
|-55---55---5555555555555555-|
|----------------------------|

Verse
|-------------------------------------------------------------------------|
|-------------------------------------------------------------------------|
|-555555555555-3333-111111111111------------------------11111111-33333333-|
|--------------------------------5555-33333333-55555555-------------------|

|----------------------------------------------------------------------|
|----------------------------------------------------------------------|
|-555555555555-3333-111111111111------------------------11111111-33333-|
|--------------------------------5555-33333333-55555555----------------|

Chorus
|-------------------------------------------------------------------------|
|-------------------------------------------------------------------------|X2
|-888888888888-7777-555555555555------11111111-33333333----------33333333-|
|--------------------------------5555-------------------33333333----------|

Bridge
|-----------------------------------------|
|-----------------------------------------| X3
|-555-333-111-----------------------------|
|-------------555-33-11-33333333-55555555-|

|---------------------------------------------|
|---------------------------------------------|
|-555-333-111--------------------33333333-/88-|
|-------------555-33-11-33333333--------------|

Outro 3.23 (Repeat to end, on the last time get quieter)
|------------------------------------------------------------------------|
|------------------------------------------------------------------------|
|--------------3333-555555555555-3333-11111111-3333333----------33333333-|
|-555555555555-----------------------------------------33333333----------|

|--------------------------------------------------------------------------|
|--------------------------------------------------------------------------|
|-888888888888-7777-555555555555------11111111-33333333--------------------|
|--------------------------------5555-------------------33333333/8888-6666-|
______________________________________________________

The End!
comments
print report bad tab
13 comments total. Showing first comments. show 1 bad comment
0 reply
xperiment_666 wrote on April 28 2007, 07:57 am

ei!! its ok u ddn't ask snce u gave the credit that i made sleep... wat u did s actually a gud idea... but 4 stars since u [only?] compyld it...

0 reply
f1f2 wrote on April 28 2007, 08:12 am

in sleep, the verse i think is wrong
there's a bit more happening in the verse

I want to post or [tab]
guest
You may want to rate the tab now too:
select rating
Please do not post tabs as comments. Select "correction" instead!