Oops, an error
Loading. Please wait.

The Black Parade Tab

ver1
ver1

Intro

Album

More versions @911Tabs.com
147,888 views 151 this week
197 commentsread comments
1 2 3 4 5
excellent!
x 152
Autoscroll
+/-
esc
set tempo
stop
Contributor
WARNING: You are trying to view
                                    content from Ultimate-Guitar.com
                                    in an unauthorized application,
                                    which is prohibited.

                                    Please use an official Ultimate
                                    Guitar Tabs application for iPhone,
                                    iPad or Android to access legitimate
                                    chords, guitar, bass, and drum tabs
                                    from Ultimate-Guitar.com database.

                                    Type "ultimate guitar tabs" in Apple
                                    App Store's or Android Market's
                                    search to find the application.
Album: The Black Parade
Band: My Chemical Romance
Tabbed by: f1f2
Email: ???

I want to say hello to Mang Dhen and Mang Totskie of Shalom!!!
Immasenso met ti Shalom'n!
hahahaha...

Tuning: Standard (all guitars)

TRACK NO. 1 – THE END

Ins.:
	Gtr 1 – Frank Iero
	Gtr 2 – Ray Toro

I. INTRO

Gtr 1
e|-------------------------------|
B|--<5>--------------------------|
G|--just keep repeating this ;p--|
D|-------------------------------|
A|-------------------------------|
E|-------------------------------|
Gtr 2
e|-----------------|
B|-----------------|
G|-----------------|
D|--x-xxxx-x-xxxx--|
A|--x-xxxx-x-xxxx--|
E|--x-xxxx-x-xxxx--|


II. VERSE 1

Gtr 2
e|---------------------------|---------------------------|
B|---------------------------|---------------------------|
G|---------------------------|---------------------------|
D|--5-----5-----5-----5------|--2-----2-----2-----2------|
A|--5-55555-55555-55555------|--2-22222-22222-22222-2-2--|
E|--3-33333-33333-33333-3-2--|--0-00000-00000-00000-0-0--|
(continued)
e|----------------------------|----------------------------|2x
B|----------------------------|----------------------------|
G|--6-----6-----6-----6-------|--5-----5-----5-----5-------|
D|--6-66666-66666-66666-6666--|--5-55555-55555-55555-5555--|
A|--4-44444-44444-44444-4444--|--3-33333-33333-33333-3333--|
E|----------------------------|----------------------------|


III. INTERLUDE

Gtr 1
e|----------------|----------------|----------------|--------------|
B|----------------|----------------|----------------|--------------|
G|----------------|----------------|--6--6--6--6-6--|--5--5--5--5--|
D|--5--5--5--5-5--|--2--2--2--2-2--|--6--6--6--6-6--|--5--5--5--5--|
A|--5--5--5--5-5--|--2--2--2--2-2--|--4--4--4--4-4--|--3--3--3--3--|
E|--3--3--3--3-3--|--0--0--0--0-0--|----------------|--------------|
Gtr 2
e|--------------------|--------------|------------------|--------------|
B|--------------------|--------------|------------------|--------------|
G|--------------------|--------------|--6--6--6--6-7-6--|--5--5--7--5--|
D|--5--5--5-7-9-7--5--|--2--2--4--2--|--6--6--6--x-x-x--|--5--5--7--5--|
A|--5--5--x-x-x-x--5--|--2--2--4--2--|--4--4--4--4-5-4--|--3--3--5--3--|
E|--3--3--3-5-7-5--3--|--0--0--2--0--|------------------|--------------|


For verse 2, just play VERSE 1 tab once.
While,
Gtr 1 (seeks in somewhere in the verse)
e|-----------|-----------|-----------|-----------|
B|-----------|-----------|-----------|-----------|
G|-----------|-----------|------4~~--|------2~~--|
D|------0~~--|------2~~--|----6------|----1------|
A|----2------|----2------|--4--------|--3--------|
E|--3--------|--0--------|-----------|-----------|

Repeat INTERLUDE, but another may play this alternatively (not sure):
Gtr ?
e|---------------------|------------|-------------------------------|
B|---------------------|------------|--14-14-14-141514-13-13-15-13--|
G|--12-12-12141614-12--|--9-9-11-9--|---x--x--x--x-x-x--x--x--x--x--|
D|---x--x--x-x-x-x--x--|--x-x--x-x--|--11-11-11-111211-10-10-12-10--|
A|--10-10-10121412-10--|--7-7--9-7--|-------------------------------|
E|---------------------|------------|-------------------------------|

Then for the final play:
Gtr 1
e|----------------|----------------|----------------|
B|----------------|----------------|----------------|
G|----------------|----------------|--6--6--6--6-6--|
D|--5--5--5--5-5--|--2--2--2--2-2--|--6--6--6--6-6--|
A|--5--5--5--5-5--|--2--2--2--2-2--|--4--4--4--4-4--|
E|--3--3--3--3-3--|--0--0--0--0-0--|----------------|
Gtr 2
e|--------------------|--------------|------------------|
B|--------------------|--------------|------------------|
G|--------------------|--------------|--6--6--6--6-7-6--|
D|--5--5--5-7-9-7--5--|--2--2--4--2--|--6--6--6--x-x-x--|
A|--5--5--x-x-x-x--5--|--2--2--4--2--|--4--4--4--4-5-4--|
E|--3--3--3-5-7-5--3--|--0--0--2--0--|------------------|

Gtr 1
e|---------------|---------|
B|---------------|---------|
G|--5--7--8--10--|---------|
D|--5--7--8--10--|--5~~~~--|
A|--3--5--6---8--|--5~~~~--|
E|---------------|--3~~~~--|
Gtr 2
e|------------------------------|----------|
B|------------------------------|----------|
G|--5-5-5-7-7-7-8-8-8-10-10-10--|--12~~~~--|
D|--5-5-5-x-x-x-x-x-x--x--x--x--|---x~~~~--|
A|--3-3-3-5-5-5-6-6-6--8--8--8--|--10~~~~--|
E|------------------------------|----------|


TRACK NO. 2 – DEAD!

Ins.:
	Gtr 1 – Frank Iero (right speaker)
	Gtr 2 – Ray Toro (left speaker)

I. INTRO

Gtr 1
e|---------|
B|--<5>~~--|
G|---------|
D|---------|
A|---------|
E|---------|
Gtr 2
e|-------------------------------------|
B|-------------------------------------|
G|-------------------------------------|
D|--5-5-5-5-5-5-5\44--5-5-5-5-5-5-5-5--|
A|--5-5-5-5-5-5-5\44--5-5-5-5-5-5-5-5--|
E|--3-3-3-3-3-3-3\22--3-3-3-3-3-3-3-3--|

Gtr 1
e|-----------------------------------|-----------------------------------|
B|-----------------------------------|-----------------------------------|
G|--------------------------4-4-4-4--|------------------5-5-5-5/7-8-7-5--|
D|--5-5-5-5-5-5-5-5-4-4-4-4-4-4-4-4--|--2-2-2-2-2-2-2-2-5-5-5-5----------|
A|--5-5-5-5-5-5-5-5-5-5-5-5-2-2-2-2--|--2-2-2-2-2-2-2-2-3-3-3-3----------|
E|--3-3-3-3-3-3-3-3-2-2-2-2----------|--0-0-0-0-0-0-0-0------------------|
Gtr 2
e|-----------------------------------------------------------------------|
B|--13^(15)-13^(15)-13^(15)-13^(15)-13^(15)-13^(15)-13^(15)-13^(15)--12--|
G|-----------------------------------------------------------------------|
D|-----------------------------------------------------------------------|
A|-----------------------------------------------------------------------|
E|-----------------------------------------------------------------------|
(continued)
e|-----10^(12)r10----15^(17)~---------------|
B|----------------12----------15-17-17-17~--|
G|--12--------------------------------------|
D|------------------------------------------|
A|------------------------------------------|
E|------------------------------------------|
(continued)
e|-----------------12-12~-14^(15)-14^(15)---------------------------|
B|--12h13h15-12h15------------------------15-17-15-15^(17)-15^(17)--|
G|------------------------------------------------------------------|
D|------------------------------------------------------------------|
A|------------------------------------------------------------------|
E|------------------------------------------------------------------|
(continued)
e|------------------------------------------------------------------------|
B|--12h15-15^(17)-15^(17)-15^(17)-15^(17)-12h15p12-15p12p10-8p7p8---------|
G|----------------------------------------------------------------11p9p7--|
D|------------------------------------------------------------------------|
A|------------------------------------------------------------------------|
E|------------------------------------------------------------------------|
(continued)
e|-------|
B|--8~~--|
G|-------|
D|-------|
A|-------|
E|-------|


II. VERSE 1

Gtr 1
e|-----------------------------------|-----------------------------------|
B|-----------------------------------|-----------------------------------|
G|--------------------------4-4-4-4--|------------------5-5-5-5-5-5-5-5--|
D|--5-5-5-5-5-5-5-5-4-4-4-4-4-4-4-4--|--2-2-2-2-2-2-2-2-5-5-5-5-5-5-5-5--|
A|--5-5-5-5-5-5-5-5-4-4-4-4-2-2-2-2--|--2-2-2-2-2-2-2-2-3-3-3-3-3-3-3-3--|
E|--3-3-3-3-3-3-3-3-2-2-2-2----------|--0-0-0-0-0-0-0-0------------------|
(continued)
e|-----------------------------------|-----------------------------------|
B|-----------------------------------|-----------------------------------|
G|--------------------------4-4-4-4--|------------------5-5-5-5-5-5-5-5--|
D|----5---5---5---5\4-4-4-4-4-4-4-4--|--2-2-2-2-2-2-2-2-5-5-5-5-5-5-5-5--|
A|----5---5---5---5\4-4-4-4-2-2-2-2--|--2-2-2-2-2-2-2-2-3-3-3-3-3-3-3-3--|
E|--3-3-3-3-3-3-3-3\2-2-2-2----------|--0-0-0-0-0-0-0-0------------------|

Gtr 2
e|---------------------------------|------------------------------|
B|---------------------------------|------------------------------|
G|--12~-----12/14~-----12-11-9-11--|--------9-9------12-14/16\14--|
D|---x-------x--x-------x--x-x--x--|--------x-x-------x--x--x--x--|
A|--10~-----10/12~-----10--9-7--9--|--------7-7------10—12/14\12--|
E|---------------------------------|------------------------------|
(continued)
e|---------------------------------|------------------------------|
B|---------------------------------|------------------------------|
G|--12~-----12/14~-----12-11-9-11--|--------9-9----7-7-9-9-11-12--|
D|---x-------x--x-------x--x-x--x--|--------x-x----x-x-x-x--x--x--|
A|--10~-----10/12~-----10--9-7--9--|--------7-7----5-5-7-7--9-10--|
E|---------------------------------|------------------------------|


III. PRE-CHORUS

Gtr 1
e|-------------------------------|
B|-------------------------------|
G|------------------5~--7~-------|
D|--7~~-------------5~--7~-------|
A|--7~~-------------3~--5~-------|
E|--5~~--------------------------|
Gtr 2
e|-----------------------------------|
B|-----------------------------------|
G|------------------5-4-7-4----------|
D|--7-9-7-5-7-9-7-5---------7-4-5-0--|
A|-----------------------------------|
E|-----------------------------------|


IV. CHORUS

Gtr 1
e|------------------------------------|------------------------------------|
B|------------------------------------|------------------------------------|
G|--12121212121212121212121212121212--|--11111111111111111111111111111111--|
D|---x-x-x-x-x-x-x-x-x-x-x-x-x-x-x-x--|---x-x-x-x-x-x-x-x-x-x-x-x-x-x-x-x--|
A|--10101010101010101010101010101010--|---9-9-9-9-9-9-9-9-9-9-9-9-9-9-9-9--|
E|------------------------------------|------------------------------------|
(continued)
e|------------------------------------|-------------------------------------|2x
B|------------------------------------|-------------------------------------|
G|--14141414141414121212121212121212--|--16161616161616\141414141414141414--|
D|---x-x-x-x-x-x-x-x-x-x-x-x-x-x-x-x--|---x-x-x-x-x-x-x--x-x-x-x-x-x-x-x-x--|
A|--12121212121212101010101010101010--|--14141414141414\121212121212121212--|
E|------------------------------------|-------------------------------------|
Gtr 2
e|-----------------------------------|-----------------------------------|
B|-----------------------------------|-----------------------------------|
G|-----------------------------------|--4-4-4-4-4-4-4-4-4-4-4-4-4-4-4-4--|
D|--5-5-5-5-5-5-5-5-5-5-5-5-5-5-5-5--|--4-4-4-4-4-4-4-4-4-4-4-4-4-4-4-4--|
A|--5-5-5-5-5-5-5-5-5-5-5-5-5-5-5-5--|--2-2-2-2-2-2-2-2-2-2-2-2-2-2-2-2--|
E|--3-3-3-3-3-3-3-3-3-3-3-3-3-3-3-3--|-----------------------------------|
(continued)
e|-----------------------------------|-----------------------------------|2x
B|-----------------------------------|-----------------------------------|
G|--5-5-5-5-5-5-5-5-5-5-5-5-5-5-5-5--|--8-8-8-8-8-8-8-8-7-7-7-7-7-7-7-7--|
D|--5-5-5-5-5-5-5-5-5-5-5-5-5-5-5-5--|--x-x-x-x-x-x-x-x-7-7-7-7-7-7-7-7--|
A|--3-3-3-3-3-3-3-3-3-3-3-3-3-3-3-3--|--6-6-6-6-6-6-6-6-5-5-5-5-5-5-5-5--|
E|-----------------------------------|-----------------------------------|


V. PRE-VERSE

Gtr 1
e|-------------------------------------|
B|-------------------------------------|
G|-------------------------------------|
D|--5---------------5~~~~~~------------|
A|--5---------------5------------------|
E|--3---------------3------------------|
Gtr 2
e|--------------------------------<5>--|
B|-------------------------------------|
G|-------------------------------------|
D|--5-5-5-5-5-5-5-5-5-5-5-5-5-5-5------|
A|--5-5-5-5-5-5-5-5-5-5-5-5-5-5-5------|
E|--3-3-3-3-3-3-3-3-3-3-3-3-3-3-3------|


VI. VERSE 2

Gtr 1
e|--7--7--7--7------------------|--7--7--7--7-------------------|
B|--8--8--8--8---7-7-7-7-7-7-7--|--8--8--8--8---13131313131313--|
G|--7--7--7--7---7-7-7-7-7-7-7--|--7--7--7--7---12121212121212--|
D|------------------------------|-------------------------------|
A|------------------------------|-------------------------------|
E|------------------------------|-------------------------------|
(continued)
e|--7--7--7--7--------------------|--12--12--12--12--------------------|
B|--8--8--8--8---7-7-7-1010-1212--|--13--13--13--13-----8-10---8-10~~--|
G|--7--7--7--7---7-7-7--9-9-1111--|-------------------7------7---------|
D|--------------------------------|------------------------------------|
A|--------------------------------|------------------------------------|
E|--------------------------------|------------------------------------|

Gtr 2 - Repeat Gtr 1 Verse 1

[REPEAT CHORUS]

VII. BRIDGE

Both Guitars
e|-----|
B|-----|
G|-----|
D|--7--|
A|--7--|
E|--5--|

Effects
e|----------------------------------------------------------|
B|----8-7-8---8-7-8---12~-10~-8~---13-12-13-12-13--8~-10~~--|
G|--7-------7-----------------------------------------------|
D|----------------------------------------------------------|
A|----------------------------------------------------------|
E|----------------------------------------------------------|


Then,
Gtr 1
e|--------------------|------------------------------------|
B|--------------------|------------------------------------|
G|--1617161716171617--|--19191919191919192121212123232323--|
D|---x-x-x-x-x-x-x-x--|---x-x-x-x-x-x-x-x-x-x-x-x-x-x-x-x--|
A|--1415141514151415--|--17171717171717171919191921212121--|
E|--------------------|------------------------------------|
Gtr 2
e|--------------------|------------------------------------|
B|--------------------|------------------------------------|
G|--------------------|------------------------------------|
D|--------------------|--\\\pickslide\\\-------------------|
A|--------------------|-------------------\\\pickslide\\\--|
E|--------------------|------------------------------------|


VIII. SOLO

Gtr 1
e|-----------------------------------|-----------------------------------|
B|-----------------------------------|-----------------------------------|
G|-----------------------------------|--4-4-4-4-4-4-4-4-4-4-4-4-4-4-4-4--|
D|--5-5-5-5-5-5-5-5-5-5-5-5-5-5-5-5--|--4-4-4-4-4-4-4-4-4-4-4-4-4-4-4-4--|
A|--5-5-5-5-5-5-5-5-5-5-5-5-5-5-5-5--|--2-2-2-2-2-2-2-2-2-2-2-2-2-2-2-2--|
E|--3-3-3-3-3-3-3-3-3-3-3-3-3-3-3-3--|-----------------------------------|
(continued)
e|-----------------------------------|-----------------------------------|2x
B|-----------------------------------|-----------------------------------|
G|--5-5-5-5-5-5-5-5-5-5-5-5-5-5-5-5--|--7-7-7-7-7-7-7-7-7-7-7-7-7-7-7-7--|
D|--5-5-5-5-5-5-5-5-5-5-5-5-5-5-5-5--|--7-7-7-7-7-7-7-7-7-7-7-7-7-7-7-7--|
A|--3-3-3-3-3-3-3-3-3-3-3-3-3-3-3-3--|--5-5-5-5-5-5-5-5-5-5-5-5-5-5-5-5--|
E|-----------------------------------|-----------------------------------|

Gtr 2
e|-------------------------------------------------------------------|
B|------------------------------------8-8~---------------------------|
G|----------4-5-5-7-7^(9)~-7p5-7~---7-------4h5p4-2h4p2-0h2p0--------|
D|--5~-5~-5---------------------------------------------------2------|
A|--------------------------------------------------------------3~~--|
E|-------------------------------------------------------------------|
(continued)
e|-------------------------5----------------|
B|---------------------------7--------------|
G|--2p0------------------------7-5----------|
D|------2h4p2-0h2p0----------------7-5-4~~--|
A|------------------2-0~~-------------------|
E|------------------------------------------|
(continued)
e|------------------------------------------------------------|
B|--3-----3-----3-----3-----3-----3-----3-----3---------------|
G|--5^(7)-5^(7)-5^(7)-5^(7)-5^(7)-5^(7)-5^(7)-5^(7)~--5-4-2~--|
D|------------------------------------------------------------|
A|------------------------------------------------------------|
E|------------------------------------------------------------|
(continued)
e|--------7------------7----------|
B|------8---8~-------8---8~~--15--|
G|--7h9--------5h7h9--------------|
D|--------------------------------|
A|--------------------------------|
E|--------------------------------|
(continued)
e|--17p15----19p15----17p15----19p15----17p15----19p15----17p15----19p15-----|
B|--------15-------15-------15-------15-------15-------15-------15-------15--|
G|---------------------------------------------------------------------------|
D|---------------------------------------------------------------------------|
A|---------------------------------------------------------------------------|
E|---------------------------------------------------------------------------|
(continued)
e|--20p15----19p15----17p15----19p15-----19-17-15-15------15------15-------|
B|--------15-------15-------15-------15-----------19^(20)-19^(20)-19^(20)--|
G|-------------------------------------------------------------------------|
D|-------------------------------------------------------------------------|
A|-------------------------------------------------------------------------|
E|-------------------------------------------------------------------------|

End the solo on:
Gtr 1
e|-------------|---------------------------------|
B|-------------|---------------------------------|
G|-------------|--((whistle))---\\\pickslide\\\--|
D|--5----------|---------------------------------|
A|--5----------|---------------------------------|
E|--3----------|---------------------------------|
Gtr 2
e|--15---------|---------------------------------|
B|--19^(20)~~--|---------------------------------|
G|-------------|---------------------------------|
D|-------------|----------------\\\pickslide\\\--|
A|-------------|---------------------------------|
E|-------------|---------------------------------|


IX. OUTRO

Gtr 1
e|------------------|------------------|------------------|----------------|4x
B|------------------|------------------|------------------|----------------|
G|--12-9-7-12-7--7--|--12-9-7-14-9--9--|--12-9-7-12-9--9--|--7-9-12-14-14--|
D|---x-x-x--x-x--x--|---x-x-x--x-x--x--|---x-x-x--x-x--x--|--x-x--x--x--x--|
A|--10-7-5-10-5--5--|--10-7-5-12-7--7--|--10-7-5-10-7--7--|--5-7-10-12-12--|
E|------------------|------------------|------------------|----------------|
Gtr 2
e|-----------------------------------|-----------------------------------|
B|-----------------------------------|-----------------------------------|
G|-----------------------------------|--4-4-4-4-4-4-4-4-4-4-4-4-4-4-4-4--|
D|--5-5-5-5-5-5-5-5-5-5-5-5-5-5-5-5--|--4-4-4-4-4-4-4-4-4-4-4-4-4-4-4-4--|
A|--5-5-5-5-5-5-5-5-5-5-5-5-5-5-5-5--|--2-2-2-2-2-2-2-2-2-2-2-2-2-2-2-2--|
E|--3-3-3-3-3-3-3-3-3-3-3-3-3-3-3-3--|-----------------------------------|
(continued)
e|-----------------------------------|-----------------------------------|4x
B|-----------------------------------|-----------------------------------|
G|--5-5-5-5-5-5-5-5-5-5-5-5-5-5-5-5--|--7-7-7-7-7-7-7-7-7-7-7-7-7-7-7-7--|
D|--5-5-5-5-5-5-5-5-5-5-5-5-5-5-5-5--|--7-7-7-7-7-7-7-7-7-7-7-7-7-7-7-7--|
A|--3-3-3-3-3-3-3-3-3-3-3-3-3-3-3-3--|--5-5-5-5-5-5-5-5-5-5-5-5-5-5-5-5--|
E|-----------------------------------|-----------------------------------|

End on:
Gtr 1
e|---------------------|-----|
B|---------------------|-----|
G|---------------------|-----|
D|--5------------------|--5--|
A|--5------------------|--5--|
E|--3------------------|--3--|
Gtr 2
e|----------------<5>--|-----|
B|----------------<5>--|-----|
G|---------------------|-----|
D|--5-5-5-5-5-5--------|--5--|
A|--5-5-5-5-5-5--------|--5--|
E|--3-3-3-3-3-3--------|--3--|


TRACK NO. 3 – THIS IS HOW I DISAPPEAR

Ins.:
	Gtr 1 – Frank Iero (right speaker)
	Gtr 2 – Ray Toro (left speaker)

I haven’t seen a live version, so I don’t know which guitar plays which part.
This song is the HARDEST to tab in the whole album!!! ~~,

I. INTRO

Gtr 1
e|-----------------------------------|-----------------------------------|
B|-----------------------------------|-----------------------------------|
G|--7~~~~----------------------------|-----------------------------------|
D|--7~~~~----------------------------|--7~~~~----------------------------|
A|--5~~~~----------------------------|--7~~~~----------------------------|
E|-----------------------------------|--5~~~~----------------------------|
Gtr 2
e|-----------------------------------|-----------------------------------|
B|-----------------------------------|-----------------------------------|
G|--7-7-7-7-7-7-7-7-9-9-9-910101010--|--9-9-9-9-9-9-9-91010101012121212--|
D|--x-x-x-x-x-x-x-x-x-x-x-x-x-x-x-x--|--7-7-7-7-7-7-7-7-7-7-7-7-7-7-7-7--|
A|--5-5-5-5-5-5-5-5-5-5-5-5-5-5-5-5--|-----------------------------------|
E|-----------------------------------|-----------------------------------|

Gtr 1
e|-----------------------------------|-----------------------------------|
B|-----------------------------------|-----------------------------------|
G|-----------------------------------|-----------------------------------|
D|--5~~~~----------------------------|--3~~-------------7~~--------------|
A|--5~~~~----------------------------|--3~~-------------7~~--------------|
E|--3~~~~----------------------------|--1~~-------------5~~--------------|
Gtr 2
e|--3-3-3-3-3-3-3-3------------------|-----------------------------------|
B|--x-x-x-x-x-x-x-x-6-6-6-6-5-5-5-5--|-----------------------------------|
G|--3-3-3-3-3-3-3-3-3-3-3-3-3-3-3-3--|--7-7-7-7-7-7-7-7-9-9-9-9-9-9-9-9--|
D|-----------------------------------|--3-3-3-3-3-3-3-3-7-7-7-7-7-7-7-7--|
A|-----------------------------------|-----------------------------------|
E|-----------------------------------|-----------------------------------|

Here, I don’t know what guitar will carry on playing the previous (^ ^ ^)
riff, just figure out yourself. ;p
Gtr 1
e|------------------------------------|-----------------------------------|
B|------------------------------------|-----------------------------------|
G|------------------------------------|-----------------------------------|
D|------------------------------------|-----------------------------------|
A|--5~~~----7~~~----8~~~--7~~~--8~~~--|--12~~~~----------10~~--8~~~--7~~--|
E|------------------------------------|-----------------------------------|
Gtr 2
e|-----------------------------------|-----------------------------------|
B|-----------------------------------|-----------------------------------|
G|--7-7-7-7-7-7-7-7-9-9-9-910101010--|--9-9-9-9-9-9-9-91010101012121212--|
D|--x-x-x-x-x-x-x-x-x-x-x-x-x-x-x-x--|--7-7-7-7-7-7-7-7-7-7-7-7-7-7-7-7--|
A|--5-5-5-5-5-5-5-5-5-5-5-5-5-5-5-5--|-----------------------------------|
E|-----------------------------------|-----------------------------------|

Gtr 1
e|------------------------------------|-------------------------------------|
B|------------------------------------|-------------------------------------|
G|---------------------------------~--|-----------------(1414141414141414)--|
D|------------------------------------|-------------------------------------|
A|--5~~~--7~~~--8~~~--7~~~--5~~~-4~~--|--5~~~~------------------------------|
E|------------------------------------|-------------------------------------|
Gtr 2
e|--3-3-3-3-3-3-3-3------------------|-----------------------------------|
B|--x-x-x-x-x-x-x-x-6-6-6-6-5-5-5-5--|-----------------------------------|
G|--3-3-3-3-3-3-3-3-3-3-3-3-3-3-3-3--|--7-7-7-7-7-7-7-7-9-9-9-9-9-9-9-9--|
D|-----------------------------------|--3-3-3-3-3-3-3-3-7-7-7-7-7-7-7-7--|
A|-----------------------------------|------------------(play faster)----|
E|-----------------------------------|-----------------------------------|

Gtr 1
e|-----------------------------------|-----------------------------------|
B|-----------------------------------|-----------------------------------|
G|--7-7-7-7-7-7-7-7-7-7-7-7-7-7-7-7--|-----------------------------------|
D|--7-7-7-7-7-7-7-7-7-7-7-7-7-7-7-7--|--7-7-7-7-7-7-7-7-7-7-7-7-7-7-7-7--|
A|--5-5-5-5-5-5-5-5-5-5-5-5-5-5-5-5--|--7-7-7-7-7-7-7-7-7-7-7-7-7-7-7-7--|
E|-----------------------------------|--5-5-5-5-5-5-5-5-5-5-5-5-5-5-5-5--|
Gtr 2
e|-----------------------------------|-----------------------------------|
B|-----------------------------------|-----------------------------------|
G|--7-7-7-7-7-7-7-7-9-9-9-910101010--|--9-9-9-9-9-9-9-91010101012121212--|
D|--x-x-x-x-x-x-x-x-x-x-x-x-x-x-x-x--|--7-7-7-7-7-7-7-7-7-7-7-7-7-7-7-7--|
A|--5-5-5-5-5-5-5-5-5-5-5-5-5-5-5-5--|-----------------------------------|
E|-----------------------------------|-----------------------------------|

Gtr 1
e|-----------------------------------|-----------------------------------|
B|-----------------------------------|-----------------------------------|
G|-----------------------------------|-----------------------------------|
D|--5-5-5-5-5-5-5-5-5-5-5-5-5-5-5-5--|--3-3-3-3-3-3-3-3-7-7-7-7-7-7-7-7--|
A|--5-5-5-5-5-5-5-5-5-5-5-5-5-5-5-5--|--3-3-3-3-3-3-3-3-7-7-7-7-7-7-7-7--|
E|--3-3-3-3-3-3-3-3-3-3-3-3-3-3-3-3--|--1-1-1-1-1-1-1-1-5-5-5-5-5-5-5-5--|
Gtr 2
e|--3-3-3-3-3-3-3-3------------------|-----------------------------------|
B|--x-x-x-x-x-x-x-x-6-6-6-6-5-5-5-5--|-----------------------------------|
G|--3-3-3-3-3-3-3-3-3-3-3-3-3-3-3-3--|--7-7-7-7-7-7-7-7-9-9-9-9-9-9-9-9--|
D|-----------------------------------|--3-3-3-3-3-3-3-3-7-7-7-7-7-7-7-7--|
A|-----------------------------------|-----------------------------------|
E|-----------------------------------|-----------------------------------|


II. VERSE 1

Both guitars
e|------------------------------|-------------------------------|
B|------------------------------|-------------------------------|
G|--7~~~~-----------------------|--1414--1414--1414--1414--14\--|
D|--7~~~~-----------------------|---x-x---x-x---x-x---x-x---x---|
A|--5~~~~-----------------------|--1212--1212--1212--1212--12\--|
E|------------------------------|-------------------------------|

Then,
Gtr 1
e|-----------------------------------|------------------------------------|
B|-----------------------------------|------------------------------------|
G|--77777----------------------------|--55555-----------------------------|
D|-----------------55555-------------|------------------3333333322222222--|
A|-----------------------------------|------------------------------------|
E|-----------------------------------|------------------------------------|
Gtr 2
e|-------------------------------------|-------------------------------------|
B|-------------------------------------|-------------------------------------|
G|--7---7---7---7----------------------|--5---5---5---5----------------------|
D|--7---7---7---7----5---5---5---5-----|--5---5---5---5-----3-3-3-3-2-2-2-2--|
A|--5-555-555-555-55-5---5---5---5-----|--3-333-333-333-33--x-x-x-x-x-x-x-x--|
E|-------------------3-333-333-333-33--|--------------------1-1-1-1-0-0-0-0--|
PM|   ..  ..  ..  ..   ..  ..  ..  ..  |    ..  ..  ..  ..

Gtr 1
e|-----------------------------------|----------------------------|
B|-----------------------------------|----------------------------|
G|--33333----------------------------|--14-1412-1210-10-9/10\9~~--|
D|-----------------22222-------------|---x--x-x--x-x--x-x--x-x----|
A|-----------------------------------|--12-1210-12-8--8-7/-8\7~~--|
E|-----------------------------------|----------------------------|
Gtr 2
e|-------------------------------------|-----------------------------------|
B|-------------------------------------|-----------------------------------|
G|--3---3---3---3----------------------|-----------------------------------|
D|--3---3---3---3----2---2---2---2-----|--7-7-7-7-7-7-7-7-7-7-7-7-7-7-7-7--|
A|--1-111-111-111-11-2---2---2---2-----|--7-7-7-7-7-7-7-7-7-7-7-7-7-7-7-7--|
E|-------------------0-000-000-000-00--|--5-5-5-5-5-5-5-5-5-5-5-5-5-5-5-5--|
PM|   ..  ..  ..  ..   ..  ..  ..  ..  |


III. PRE-CHORUS

Both guitars
e|---------------------------------------|
B|---------------------------------------|
G|--7-----10------9------6------121212\--|
D|--x------x------x------x-------x-x-x---|
A|--5-5555-8-8888-7-7777-4-4444-101010\--|
E|---------------------------------------|
PM|   ....   ....   ....   ....          |


IV. CHORUS
Here, I’m not 100% sure on Gtr 1 but I’m 99.9% sure on Gtr 2.

Gtr 1
e|-----------------------------------|-----------------------------------|
B|-----------------------------------|-----------------------------------|
G|--7-7-7-7-9-9-9-910101010-9-9-9-9--|--5-5-5-5-5-5-5-5-3-3-3-3-2-2-2-2--|
D|--x-x-x-x-x-x-x-x-x-x-x-x-x-x-x-x--|--x-x-x-x-x-x-x-x-x-x-x-x-x-x-x-x--|
A|--5-5-5-5-7-7-7-7-8-8-8-8-7-7-7-7--|--3-3-3-3-3-3-3-3-1-1-1-1-0-0-0-0--|
E|-----------------------------------|-----------------------------------|
Gtr 2
e|-----------------------------------|-----------------------------------|
B|-----------------------------------|-----------------------------------|
G|--7-7-7-7-7-7-7-7------------------|--5-5-5-5-5-5-5-5------------------|
D|--7-7-7-7-7-7-7-7-5-5-5-5-5-5-5-5--|--5-5-5-5-5-5-5-5-3-3-3-3-2-2-2-2--|
A|--5-5-5-5-5-5-5-5-5-5-5-5-5-5-5-5--|--3-3-3-3-3-3-3-3-3-3-3-3-2-2-2-2--|
E|------------------3-3-3-3-3-3-3-3--|------------------1-1-1-1-0-0-0-0--|

Gtr 1
e|------------------------------------|-----------------------------------|
B|------------------------------------|-----------------------------------|
G|--1010101014141414-7-7-7-7-9-9-9-9--|--7-7-7-7-7-7-7-7-5-5-5-5-5-5-5-5--|
D|---x-x-x-x-x-x-x-x-x-x-x-x-x-x-x-x--|--x-x-x-x-x-x-x-x-x-x-x-x-x-x-x-x--|
A|---8-8-8-812121212-5-5-5-5-7-7-7-7--|--5-5-5-5-5-5-5-5-3-3-3-3-3-3-3-3--|
E|------------------------------------|-----------------------------------|
Gtr 2
e|-----------------------------------|-----------------------------------|
B|-----------------------------------|-----------------------------------|
G|--7-7-7-7-7-7-7-7------------------|--5-5-5-5-5-5-5-5------------------|
D|--7-7-7-7-7-7-7-7-5-5-5-5-5-5-5-5--|--5-5-5-5-5-5-5-5-7-7-7-7-7-7-7-7--|
A|--5-5-5-5-5-5-5-5-5-5-5-5-5-5-5-5--|--3-3-3-3-3-3-3-3-7-7-7-7-7-7-7-7--|
E|------------------3-3-3-3-3-3-3-3--|------------------5-5-5-5-5-5-5-5--|

Gtr 1
e|-----------------------------------|-----------------------------------|
B|-----------------------------------|-----------------------------------|
G|--7-7-7-7-9-9-9-910101010-9-9-9-9--|--5-5-5-5-5-5-5-5-3-3-3-3-3-3-3-3--|
D|--x-x-x-x-x-x-x-x-x-x-x-x-x-x-x-x--|--x-x-x-x-x-x-x-x-x-x-x-x-x-x-x-x--|
A|--5-5-5-5-7-7-7-7-8-8-8-8-7-7-7-7--|--3-3-3-3-3-3-3-3-1-1-1-1-1-1-1-1--|
E|-----------------------------------|-----------------------------------|
Gtr 2
e|-----------------------------------|-----------------------------------|
B|-----------------------------------|-----------------------------------|
G|--7-7-7-7-7-7-7-7------------------|--5-5-5-5-5-5-5-5------------------|
D|--7-7-7-7-7-7-7-7-5-5-5-5-5-5-5-5--|--5-5-5-5-5-5-5-5-3-3-3-3-3-3-3-3--|
A|--5-5-5-5-5-5-5-5-5-5-5-5-5-5-5-5--|--3-3-3-3-3-3-3-3-3-3-3-3-3-3-3-3--|
E|------------------3-3-3-3-3-3-3-3--|------------------1-1-1-1-1-1-1-1--|

Gtr 1
e|------------------------------------|-----------------------------------|
B|------------------------------------|-----------------------------------|
G|--1010101014141414-7-7-7-7-9-9-9-9--|--7-7-7-7-7-7-7-7-5-5-5-5-5-5-5-5--|
D|---x-x-x-x-x-x-x-x-x-x-x-x-x-x-x-x--|--x-x-x-x-x-x-x-x-x-x-x-x-x-x-x-x--|
A|---8-8-8-812121212-5-5-5-5-7-7-7-7--|--5-5-5-5-5-5-5-5-3-3-3-3-3-3-3-3--|
E|------------------------------------|-----------------------------------|
Gtr 2
e|-----------------------------------|-----------------------------------|
B|-----------------------------------|-----------------------------------|
G|--7-7-7-7-7-7-7-7------------------|-----------------------------------|
D|--7-7-7-7-7-7-7-7-5-5-5-5-5-5-5-5--|--7-7-7-7-7-7-7-7-7-7-7-7-7-7-7-7--|
A|--5-5-5-5-5-5-5-5-5-5-5-5-5-5-5-5--|--7-7-7-7-7-7-7-7-7-7-7-7-7-7-7-7--|
E|------------------3-3-3-3-3-3-3-3--|--5-5-5-5-5-5-5-5-5-5-5-5-5-5-5-5--|


V. VERSE 2

Gtr 1
e|-----------------------------------|-----------------------------------|
B|-----------------------------------|-----------------------------------|
G|-----------------------------------|-----------------------------------|
D|--7-7-7-7-7-7-7-7------------------|--5-5-5-5-5-5-5-5------------------|
A|--5-5-5-5-5-5-5-5-5-5-5-5-5-5-5-5--|--3-3-3-3-3-3-3-3-3-3-3-3-3-3-3-3--|
E|------------------3-3-3-3-3-3-3-3--|------------------1-1-1-1-1-1-1-1--|
PM| . . . . . . . . . . . . . . . .  |  . . . . . . . . . . . . . . . .  |
Gtr 2
e|--10~~~~----------12~~----13~~-----|--15~~~~---------13~~-----12~~-----|
B|-----------------------------------|-----------------------------------|
G|-----------------------------------|-----------------------------------|
D|-----------------------------------|-----------------------------------|
A|-----------------------------------|-----------------------------------|
E|-----------------------------------|-----------------------------------|

Gtr 1
e|-----------------------------------|-----------------------------------|
B|-----------------------------------|-----------------------------------|
G|-----------------------------------|-----------------------------------|
D|--3-3-3-3-3-3-3-3------------------|-----------------------------------|
A|--1-1-1-1-1-1-1-1-2-2-2-2-2-2-2-2--|--7-7-7-7-7-7-7-7-7-7-7-7-7-7-7-7--|
E|------------------0-0-0-0-0-0-0-0--|--5-5-5-5-5-5-5-5-5-5-5-5-5-5-5-5--|
PM| . . . . . . . . . . . . . . . .  |  . . . . . . . . . . . . . . . .  |
Gtr 2
e|--13~~----10~~----12~~----10~~-----|--9~~~~----------------------------|
B|-----------------------------------|-----------------------------------|
G|-----------------------------------|-----------------------------------|
D|-----------------------------------|-----------------------------------|
A|-----------------------------------|-----------------------------------|
E|-----------------------------------|-----------------------------------|

Then,
Gtr 1	
e|-----------------------------------|-------------------------------------|
B|-----------------------------------|-------------------------------------|
G|------------7---7----------10--10--|------12-----12--10-----7-----9--10--|
D|------------x---x-----------x---x--|-------x------x---x-----x-----x---x--|
A|--x-x-x-x-x-5-x-5-x-x-x-x-x-8-x-8--|--x-x-10-x-x-10-x-8-x-x-5-x-x-7-x-8--|
E|-----------------------------------|-------------------------------------|
Gtr 2
e|-----------------------------------|-----------------------------------|
B|-----------------------------------|-----------------------------------|
G|------------7---7------------------|------5-----5---5------------------|
D|------------7---7-----------5---5--|------5-----5---5-----3-----3---3--|
A|--5-5-5-5-5-5-5-5-----------5---5--|--3-3-3-3-3-3-3-3-----3-----3---3--|
E|------------------3-3-3-3-3-3-3-3--|------------------1-1-1-1-1-1-1-1--|
PM| . . . . .   .   . . . . .   .    |  . .   . .   .   . .   . .   .    | 

Gtr 1
e|------------------------------------|----------------------------|
B|------------------------------------|----------------------------|
G|------7----10---12-----9----10---9--|--14-1412-1210-10-9/10\9~~--|
D|------x-----x----x-----x-----x---x--|---x--x-x--x-x--x-x--x-x----|
A|--x-x-5-x-x-8-x-10-x-x-7-x-x-8-x-7--|--12-1210-10-8--8-7--8-7~~--|
E|------------------------------------|----------------------------|
Gtr 2	
e|-----------------------------------|-----------------------------------|
B|-----------------------------------|-----------------------------------|
G|------3-----3---3------------------|-----------------------------------|
D|------3-----3---3-----2-----2---2--|--7-7-7-7-7-7-7-7-7-7-7-7-7-7-7-7--|
A|--1-1-1-1-1-1-1-1-----2-----2---2--|--7-7-7-7-7-7-7-7-7-7-7-7-7-7-7-7--|
E|------------------0-0-0-0-0-0-0-0--|--5-5-5-5-5-5-5-5-5-5-5-5-5-5-5-5--|
PM| . .   . .   .   . .   . .   .    |

(Repeat PRE-CHORUS and CHORUS)


BRIDGE THING

Gtr 2
e|--10----10----12----12----13----13----15----15-----|
B|-----13----13----13----13----13----13----13----13--|
G|---------------------------------------------------|
D|---------------------------------------------------|
A|---------------------------------------------------|
E|---------------------------------------------------|
(continued)
e|--15----15----15----15----13----13----12----12-----|
B|-----13----13----13----13----13----13----13----13--|
G|---------------------------------------------------|
D|---------------------------------------------------|
A|---------------------------------------------------|
E|---------------------------------------------------|
(continued)
e|--12----12----12----12----13----13----15----15-----|
B|-----13----13----13----13----13----13----13----13--|
G|---------------------------------------------------|
D|---------------------------------------------------|
A|---------------------------------------------------|
E|---------------------------------------------------|
(continued)
e|--15----15----15----15----13----13----12----12-----|
B|-----13----13----13----13----13----13----13----13--|
G|---------------------------------------------------|
D|---------------------------------------------------|
A|---------------------------------------------------|
E|---------------------------------------------------|
(continued)
e|--13----13----15----15----17----17----20----20-----|
B|-----13----13----13----15----15----15----15----15--|
G|---------------------------------------------------|
D|---------------------------------------------------|
A|---------------------------------------------------|
E|---------------------------------------------------|
(continued)
e|--20----20----18----18----17----17----15----15-----|
B|-----15----15----15----15----15----15----15----13--|
G|---------------------------------------------------|
D|---------------------------------------------------|
A|---------------------------------------------------|
E|---------------------------------------------------|
(continued)
e|--15----15----15----15----13----13----12----12-----|
B|-----13----13----13----13----13----13----13----13--|
G|---------------------------------------------------|
D|---------------------------------------------------|
A|---------------------------------------------------|
E|---------------------------------------------------|
(continued)
e|--10-10-10-10-10-10-10-10-10-10-10-10-10-10-10-10--|
B|---------------------------------------------------|
G|---------------------------------------------------|
D|---------------------------------------------------|
A|---------------------------------------------------|
E|---------------------------------------------------|

(Repeat PRE-CHORUS 2x)

Then, (2:46)
Both guitars (?)
e|------------------|------------------------|2x
B|------------------|------------------------|
G|------------------|------------------------|
D|------------------|------------------------|
A|--5---8--7--4-----|--5---8--7--4--4-0-4-0--|
E|---------------5--|------------------------|
Gtr 2 (comes in during the 2nd repeat ^^^)
e|--10-x-10-x-10-x-10--|
B|---------------------|
G|---------------------|
D|---------------------|
A|---------------------|
E|---------------------|


ADLIB THING

Gtr 1
e|------------------------------------------------------------------------|
B|------------------------------------------------------------------------|
G|--7777777777777777--------------------5555555555555555------------------|
D|--7777777777777777--5555555555555555--5555555555555555-----3~~-----2~~--|
A|--5555555555555555--5555555555555555--3333333333333333--3333~~--2222~~--|
E|--------------------3333333333333333--------------------1111~~--0000~~--|
PM|                                                       ...     ...     |
(continued)
e|--------------------------------------------------------------------------|
B|--------------------------------------------------------------------------|
G|--7777777777777777--------------------5555555555555555--------------------|
D|--7777777777777777--5555555555555555--5555555555555555--7777777777777777--|
A|--5555555555555555--5555555555555555--3333333333333333--7777777777777777--|
E|--------------------3333333333333333--------------------5555555555555555--|
Gtr 2
e|------------------------------------------|(repeat many times ^^)
B|------------------------------------------|
G|--7-----10------9------7------9----10/12--|
D|--x------x------x------x------x-----x--x--|
A|--5-5555-8-8888-7-7777-5-5555-7-77--8/10--|
E|------------------------------------------|
PM|   ....   ....   ....   ....   ..        |

Then it plays something like this:
e|-------------------|
B|-------------------|
G|-----10~~-----9~~--|
D|------x-------X----|
A|--888-8~~--7777~~--|
E|-------------------|
Then it plays the first part again.

(Repeat CHORUS 2x - listen to the song for some variations)

End on:
Both guitars
e|---------|
B|---------|
G|--7~~~~--|
D|--7~~~~--|
A|--5~~~~--|
E|---------|


TRACK NO. 4 – THE SHARPEST LIVES

Ins.:
	Gtr 1 – Frank Iero
	Gtr 2 – Ray Toro

Note: This song sounds like “To The End”, right?

I. INTRO

Gtr 2
e|-----------------------------------|2x
B|-----------------------------------|
G|-----------------------------------|
D|-----------------------------------|
A|--4-4-4-4-4-4-4-4-4-4-4-4-4-4-4-4--|
E|-----------------------------------|
PM| . . . . . . . . . . . . . . . .  |


II. VERSE 1

Gtr 2 (all palm muted)
e|-----------------------------------|-----------------------------------|
B|-----------------------------------|-----------------------------------|
G|-----------------------------------|-----------------------------------|
D|-----------------------------------|-----------------------------------|
A|--4-4-4-4-4-4-4-4-4-4-4-4-4-4-4-4--|-----------------------------------|
E|-----------------------------------|--5-5-5-5-5-5-5-5-5-5-5-5-5-5-5-5--|
PM| . . . . . . . . . . . . . . . .  |  . . . . . . . . . . . . . . . .  |
(continued)
e|-----------------------------------|-----------------------------------|2x
B|-----------------------------------|-----------------------------------|
G|-----------------------------------|-----------------------------------|
D|-----------------------------------|-----------------------------------|
A|-----------------------------------|-----------------------------------|
E|--2-2-2-2-2-2-2-2-2-2-2-2-2-2-2-2--|--4-4-4-4-4-4-4-4-4-4-4-4-4-4-4-4--|
PM| . . . . . . . . . . . . . . . .  |  . . . . . . . . . . . . . . . .  |

Then,
Gtr 1
e|-------------------|
B|------5---4h5---5--|
G|----6---6-----6----|
D|-------------------|
A|-------------------|
E|-------------------|
(continued)
e|----------------------------------|2x
B|----5---4h5---5~---5---4h5---<5>--|
G|--6---6-----6----6---6-----6------|
D|----------------------------------|
A|----------------------------------|
E|----------------------------------|


III. PRE-CHORUS

Gtr 1
e|--------------------|--------------------|--------------------|
B|--------------------|--------------------|--------------------|
G|--6~~-----8~~-------|----------6~~-------|--------------------|
D|--7~~-----9~~-------|--6~~-----6~~-------|--7~~-----7~~-------|
A|--4~~-----6~~-------|--6~~-----4~~----4--|--7~~---------------|
E|--------------------|--4~~----------7----|--5~~---------------|
Gtr 2 (all palm muted)
e|--------------------|--------------------|--------------------|
B|--------------------|--------------------|--------------------|
G|--------------------|--------------------|--------------------|
D|--------------------|--------------------|--------------------|
A|--------------------|----------44444444--|--------------------|
E|--5555555577777777--|--44444444----------|--5555555555555555--|

End on:
Gtr 1
e|-------------|
B|-------------|
G|-------------|
D|-------------|
A|--666666666--|
E|--444444444--|
Gtr 2
e|-------------|
B|-------------|
G|-------------|
D|-------------|
A|-------------|
E|--444444444--|


IV. CHORUS
(there is a strumming pattern, figure it out :)

Gtr 1
e|------------------------------------|---------------------------------------|
B|------------------------------------|---------------------------------------|
G|--6-6-6-6-6-6-6-6-9-9-9/11-9-9-9-9--|--1818181818181818171717171717--13\11--|
D|--x-x-x-x-x-x-x-x-x-x-x--x-x-x-x-x--|---x-x-x-x-x-x-x-x-x-x-x-x-x-x---x--x--|
A|--4-4-4-4-4-4-4-4-7-7-7/-9-7-7-7-7--|--1616161616161616151515151515--11\-9--|
E|------------------------------------|---------------------------------------|
Gtr 2
e|-----------------------------------|-----------------------------------|2x
B|-----------------------------------|-----------------------------------|
G|--6-6-6-6-6-6-6-6------------------|-----------------------------------|
D|--6-6-6-6-6-6-6-6-7-7-7-7-7-7-7-7--|--4-4-4-4-4-4-4-4-6-6-6-6-6-6-6-6--|
A|--4-4-4-4-4-4-4-4-7-7-7-7-7-7-7-7--|--4-4-4-4-4-4-4-4-6-6-6-6-6-6-6-6--|
E|------------------5-5-5-5-5-5-5-5--|--2-2-2-2-2-2-2-2-4-4-4-4-4-4-4-4--|



V. INTERLUDE

Gtr 1
e|-----------------------------------|
B|-----------------------------------|
G|--6---------------6----------------|
D|--6---------------6----------------|
A|--4---------------4----------------|
E|-----------------------------------|
Gtr 2
e|-----------------------------------|
B|-----------------------------------|
G|-----------------------------------|
D|-----------------------------------|
A|--4-4-4-4-4-4-4-4-4-4-4-4-4-4-4-4--|
E|-----------------------------------|
PM| . . . . . . . . . . . . . . . .  |


Then, for VERSE 2, do the same thing as VERSE 1, but Gtr 2 changes like this:
Gtr 2 (all palm muted)
e|-----------------------------------|-----------------------------------|
B|-----------------------------------|-----------------------------------|
G|-----------------------------------|-----------------------------------|
D|--6-6-6-6-6-6-6-6-6-6-6-6-6-6-6-6--|-----------------------------------|
A|--4-4-4-4-4-4-4-4-4-4-4-4-4-4-4-4--|--7-7-7-7-7-7-7-7-7-7-7-7-7-7-7-7--|
E|-----------------------------------|--5-5-5-5-5-5-5-5-5-5-5-5-5-5-5-5--|
PM| . . . . . . . . . . . . . . . .  |  . . . . . . . . . . . . . . . .  |
(continued)
e|-----------------------------------|-----------------------------------|
B|-----------------------------------|-----------------------------------|
G|-----------------------------------|-----------------------------------|
D|-----------------------------------|-----------------------------------|
A|--4-4-4-4-4-4-4-4-4-4-4-4-4-4-4-4--|--6-6-6-6-6-6-6-6-6-6-6-6-6-6-6-6--|
E|--2-2-2-2-2-2-2-2-2-2-2-2-2-2-2-2--|--4-4-4-4-4-4-4-4-4-4-4-4-4-4-4-4--|
PM| . . . . . . . . . . . . . . . .  |  . . . . . . . . . . . . . . . .  |

(Repeat PRE-CHORUS and CHORUS)

VI. SOLO (not 100% sure)

Both guitars
e|---------------|
B|---------------|
G|--6------------|
D|--6-----6---6--|
A|--4---444-444--|
E|---------------|
PM|     ... ...  |

Well, during the main solo, I can’t seem to hear any rhythm guitar, so
I come up with this:

Gtr 2
e|--111111111111111111111111/12121212--|2x
B|--(---these are elevens--)-----------|
G|-------------------------------------|
D|-------------------------------------|
A|-------------------------------------|
E|-------------------------------------|
(continued)
e|--------------------------------------------|---------------------------|
B|--------------------------------------------|---------------------------|
G|--------------------------------------------|----------------11-13~~~~--|
D|--11/13~-11/13~-9/11~--9-7-6-7-9-7-6p4h6~~--|--------9-11-13------------|
A|--------------------------------------------|--11-12--------------------|
E|--------------------------------------------|---------------------------|
(continued)
e|--16p14p12----12h14-17p16p14p12----12h14p12h14-16~~--|
B|-----------14-------------------14-------------------|
G|-----------------------------------------------------|
D|-----------------------------------------------------|
A|-----------------------------------------------------|
E|-----------------------------------------------------|

(Repeat CHORUS)

VII. OUT-CHORUS

Gtr 1
e|----------------------------------|------------------------------------|
B|----------------------------------|------------------------------------|
G|--6-6-6-6-6-6-6-6-6-6-6-6-8-9-8~--|--14141414141414141414141414141414--|
D|--x-x-x-x-x-x-x-x-x-x-x-x-x-x-x---|---x-x-x-x-x-x-x-x-x-x-x-x-x-x-x-x--|
A|--4-4-4-4-4-4-4-4-4-4-4-4-6-7-6~--|--12121212121212121212121212121212--|
E|----------------------------------|------------------------------------|
(continued)
e|-----------------------------------|2x, look below
B|-----------------------------------|for the last part
G|--111111111111111111111111131413~--|
D|---x-x-x-x-x-x-x-x-x-x-x-x-x-x-x---|
A|---9-9-9-9-9-9-9-9-9-9-9-9111211~--|
E|-----------------------------------|
(continued)
e|---------------1st------------------|------------------2nd---------------|
B|------------------------------------|------------------------------------|
G|--13131313131313131313131311111111--|--1313131311111111-9-9-9-9-8-8-8-8--|
D|---x-x-x-x-x-x-x-x-x-x-x-x-x-x-x-x--|---x-x-x-x-x-x-x-x-x-x-x-x-x-x-x-x--|
A|--111111111111111111111111-9-9-9-9--|--11111111-9-9-9-9-7-7-7-7-6-6-6-6--|
E|------------------------------------|------------------------------------|

Gtr 2
e|-----------------------------------|-----------------------------------|2x
B|-----------------------------------|-----------------------------------|
G|--6-6-6-6-6-6-6-6------------------|-----------------------------------|
D|--6-6-6-6-6-6-6-6-7-7-7-7-7-7-7-7--|--4-4-4-4-4-4-4-4-6-6-6-6-6-6-6-6--|
A|--4-4-4-4-4-4-4-4-7-7-7-7-7-7-7-7--|--4-4-4-4-4-4-4-4-6-6-6-6-6-6-6-6--|
E|------------------5-5-5-5-5-5-5-5--|--2-2-2-2-2-2-2-2-4-4-4-4-4-4-4-4--|


VIII. OUTRO

Gtr 1
e|----------------------|
B|----------------------|
G|--6-------------------|
D|--6-------------------|
A|--4-------------------|
E|----------------------|
Gtr 2
e|----------------------|slide down
B|----------------------|to a lower
G|----------------------|octave
D|----------------------|
A|--4-4-4-4-4-4-4-4-4\--|
E|----------------------|



TRACK NO. 5 – WELCOME TO THE BLACK PARADE

NOTE:

If you find this tab complicated, check my WTTBP Guitar Pro tab.
That might help you.
http://ultimate-guitar.com/tabs/m/my_chemical_romance/welcome_to_the_black_parade_ver3_guitar_pro.htm

Ins.:
	Gtr 1 – Frank Iero
	Gtr 2 – Ray Toro
	Gtr 3 – Ray Toro (overdubbed)

I. INTRO
(Piano)
e|--15--14-19--|---------15--|---------12--|------10--|5x
B|-------------|--17--15-----|--13--12-----|--10------|(carries on the
G|-------------|-------------|-------------|----------|verse)
D|-------------|-------------|-------------|----------|
A|-------------|-------------|-------------|----------|
E|-------------|-------------|-------------|----------|


II. VERSE NO. 1

Gtr 1
e|--15--14--|--------------|--------------|--------------|3x
B|----------|--12s17-------|--13h15-12~~--|--13-12s8-10--|
G|----------|--------16~~--|--------------|--------------|
D|----------|--------------|--------------|--------------|
A|----------|--------------|--------------|--------------|
E|----------|--------------|--------------|--------------|

Then,
Gtr 2
e|------------|
B|------------|
G|--/9-7-5~~--|
D|------------|
A|------------|
E|------------|


III. PRE-VERSE

Gtr 1
e|--------|--------|--------|--------|
B|--------|--------|--------|--------|
G|--------|-----7--|--5--4--|-----7--|
D|--5--4--|--2--7--|--5--5--|--7--7--|
A|--5--5--|--2--5--|--3--2--|--7--5--|
E|--3--2--|--0-----|--------|--5-----|
Gtr 2
e|-----------------------10^(12)r10-7-7~~--10^(12)r10--7-7~~--8-7s3-5~~--|
B|--8~-7h8-10~~--8h10-12-------------------------------------------------|
G|-----------------------------------------------------------------------|
D|-----------------------------------------------------------------------|
A|-----------------------------------------------------------------------|
E|-----------------------------------------------------------------------|
Gtr 3
e|--15-10h12-14~-12h14-15--------------------------------------|
B|------------------------12^(13)r12--------12^(13)r12---------|
G|-----------------------------------12-12~------------12-12~--|
D|-------------------------------------------------------------|
A|-------------------------------------------------------------|
E|-------------------------------------------------------------|
(continued)
e|--10^(12)r10-8-10~~--|
B|---------------------|
G|---------------------|
D|---------------------|
A|---------------------|
E|---------------------|

Repeat ^ ^ ^ 3 times, then end on:

Both guitars
e|---------|
B|---------|
G|---------|
D|--5~~~~--|
A|--5~~~~--|
E|--3~~~~--|


IV. BREAKDOWN

Gtr 1
e|------------------------------------|---------------------------------|
B|------------------------------------|---------------------------------|
G|--12121212121212141414141414141419--|--1919191919/21-161616161616/17--|
D|---x-x-x-x-x-x-x-x-x-x-x-x-x-x-x-x--|---x-x-x-x-x--x--x-x-x-x-x-x-x---|
A|--10101010101010121212121212121217--|--1717171717/19-141414141414/15--|
E|------------------------------------|---------------------------------|
(continued)
e|--15-1515151515151515151515151515--|-------------------------------------|
B|---x--x-x-x-x-x-x-x-x-x-x-x-x-x-x--|-------------------------------------|
G|--12-1212121212121212121212121212--|--1616161616/1717161414141414141414--|
D|---x--x-x-x-x-x-x-x-x-x-x-x-x-x-x--|---x-x-x-x-x--x-x-x-x-x-x-x-x-x-x-x--|
A|--10-1010101010101010101010101010--|--1414141416/1515141212121212121212--|
E|-----------------------------------|-------------------------------------|
    (^ Added a high tone ^)
Gtr 2
e|-----------------------------------|-----------------------------------|
B|-----------------------------------|-----------------------------------|
G|-----------------------------------|----------------7-7-7-7-7-7-7-7-5--|
D|--5-5-5-5-5-5-5-4-4-4-4-4-4-4-4-2--|--2-2-2-2-2-2-2-7-7-7-7-7-7-7-7-5--|
A|--5-5-5-5-5-5-5-5-5-5-5-5-5-5-5-2--|--2-2-2-2-2-2-2-5-5-5-5-5-5-5-5-3--|
E|--3-3-3-3-3-3-3-2-2-2-2-2-2-2-2-0--|--0-0-0-0-0-0-0--------------------|
(continued)
e|-----------------------------------|-----------------------------------|
B|-----------------------------------|-----------------------------------|
G|--5-5-5-5-5-5-5-5-5-5-5-5-5-5-5-5--|--4-4-4-4-4-4-4-4------------------|
D|--5-5-5-5-5-5-5-5-5-5-5-5-5-5-5-5--|--5-5-5-5-5-5-5-5-7-7-7-7-7-7-7-7--|
A|--3-3-3-3-3-3-3-3-3-3-3-3-3-3-3-3--|--2-2-2-2-2-2-2-2-7-7-7-7-7-7-7-7--|
E|-----------------------------------|------------------5-5-5-5-5-5-5-5--|


V. VERSE NO. 2

Both guitars
e|----------------------------------|-----------------------------------|
B|----------------------------------|-----------------------------------|
G|----------------------------------|----------------------5-----5---5--|
D|--5-------------------------------|------------------5-5-5-5-5-5-5-5--|
A|--5--5-5-5-5-5-5-5-5-5-5-5-5-5-5--|--5-5-5-5-5-5-5-5-3-3-3-3-3-3-3-3--|
E|--3--3-3-3-3-3-3-2-2-2-2-2-2-2-2--|--1-1-1-1-1-1-1-1------------------|
PM|    . . . . . . . . . . . . . .  |  . . . . . . . . . .   . .   .    |

Then,
Gtr 1
e|-----------------------------------|--------------------------------------|
B|-----------------------------------|-------------------------<5>-----<5>--|
G|--5--------------------------------|--7-9--91212--12-<5>-<7>-----<5>------|
D|--5-5-5-5-5-5-5-5------------------|--x-x--x-x-x---x----------------------|
A|--3-3-3-3-3-3-3-3-5-5-5-5-5-5-5-5--|--5-7--71010--10----------------------|
E|------------------3-3-3-3-3-3-3-3--|--------------------------------------|
PM|   . . . . . . . . . . . . . . .  |                                      |
Gtr 2
e|-----------------------------------|-----------------------------------|
B|-----------------------------------|-----------------------------------|
G|--5--------------------------------|-----------------------------------|
D|--5-5-5-5-5-5-5-5------------------|--7-7-7-7-7-7-7-7-7-7-7-7-7-7-7-7--|
A|--3-3-3-3-3-3-3-3-5-5-5-5-5-5-5-5--|--5-5-5-5-5-5-5-5-5-5-5-5-5-5-5-5--|
E|------------------3-3-3-3-3-3-3-3--|-----------------------------------|
PM|   . . . . . . . . . . . . . . .  |  . . . . . . . . . . . . . . . .  |

Then,
Both guitars
e|-----------------------------------|-----------------------------------|
B|-----------------------------------|-----------------------------------|
G|-----------------------------------|----------------------5-----5---5--|
D|------5-----5---5-----4-----4---4--|------------------5-5-5-5-5-5-5-5--|
A|--5-5-5-5-5-5-5-5-5-5-5-5-5-5-5-5--|--2-2-2-2-2-2-2-2-3-3-3-3-3-3-3-3--|
E|--3-3-3-3-3-3-3-3-2-2-2-2-2-2-2-2--|--1-1-1-1-1-1-1-1------------------|
PM| . .   . .   .   . .   . .   .    |  . .   . .   .   . .   . .   .    |

Then,
Gtr 1
e|-----------------------------------|-----------------------------------|
B|-----------------------------------|-----------------------------------|
G|------5-----5---5------------------|--7-7-7-7-7-7-7-7-9-9-9-911111111--|
D|--5-5-5-5-5-5-5-5-----5-----5---5--|--x-x-x-x-x-x-x-x-x-x-x-x-x-x-x-x--|
A|--3-3-3-3-3-3-3-3-5-5-5-5-5-5-5-5--|--5-5-5-5-5-5-5-5-7-7-7-7-9-9-9-9--|
E|------------------3-3-3-3-3-3-3-3--|-----------------------------------|
PM| . .   . .   .   . .   . .   .    |                                   |
Gtr 2
e|-----------------------------------|-----------------------------------|
B|-----------------------------------|-----------------------------------|
G|------5-----5---5------------------|--7-7-7-7-7-7-7-7-7-7-7-7-7-7-7-7--|
D|--5-5-5-5-5-5-5-5-----5-----5---5--|--7-7-7-7-7-7-7-7-7-7-7-7-7-7-7-7--|
A|--3-3-3-3-3-3-3-3-5-5-5-5-5-5-5-5--|--5-5-5-5-5-5-5-5-5-5-5-5-5-5-5-5--|
E|------------------3-3-3-3-3-3-3-3--|-----------------------------------|
PM| . .   . .   .   . .   . .   .    |                                   |


VI. CHORUS

Gtr 1
e|------------------------------------|-----------------------------------|
B|------------------------------------|-----------------------------------|
G|--12121212121212121616161611111111--|--9-9-9-9-9-9-9-9-7-7-7-7-7-7-7-7--|
D|---x-x-x-x-x-x-x-x-x-x-x-x-x-x-x-x--|--x-x-x-x-x-x-x-x-x-x-x-x-x-x-x-x--|
A|--101010101010101014141414-9-9-9-9--|--7-7-7-7-7-7-7-7-5-5-5-5-5-5-5-5--|
E|------------------------------------|-----------------------------------|
(continued)
e|------------------------------------|-------------------------------------|
B|------------------------------------|-------------------------------------|
G|--12121212121212121212121212121212--|--1616161616/1717161414141414141414--|
D|---x-x-x-x-x-x-x-x-x-x-x-x-x-x-x-x--|---x-x-x-x-x--x-x-x-x-x-x-x-x-x-x-x--|
A|--10101010101010101010101010101010--|--1414141414/1515141212121212121212--|
E|------------------------------------|-------------------------------------|
Gtr 2
e|-----------------------------------|-----------------------------------|
B|-----------------------------------|-----------------------------------|
G|-----------------------------------|------------------7-7-7-7-7-7-7-7--|
D|--5-5-5-5-5-5-5-5-4-4-4-4-4-4-4-4--|--2-2-2-2-2-2-2-2-7-7-7-7-7-7-7-7--|
A|--5-5-5-5-5-5-5-5-5-5-5-5-5-5-5-5--|--2-2-2-2-2-2-2-2-5-5-5-5-5-5-5-5--|
E|--3-3-3-3-3-3-3-3-2-2-2-2-2-2-2-2--|--0-0-0-0-0-0-0-0------------------|
(continued)
e|-----------------------------------|-----------------------------------|
B|-----------------------------------|-----------------------------------|
G|--5-5-5-5-5-5-5-5-5-5-5-5-5-5-5-5--|--7-7-7-7-7-7-7-7-7-7-7-7-7-7-7-7--|
D|--5-5-5-5-5-5-5-5-5-5-5-5-5-5-5-5--|--7-7-7-7-7-7-7-7-7-7-7-7-7-7-7-7--|
A|--3-3-3-3-3-3-3-3-3-3-3-3-3-3-3-3--|--5-5-5-5-5-5-5-5-5-5-5-5-5-5-5-5--|
E|-----------------------------------|-----------------------------------|

Repeat ^ ^ ^ 1 time.

(Repeat VERSE NO. 2 & CHORUS, but on the CHORUS Gtr 1 changes to this:)
Gtr 1
e|------------------------------------|-----------------------------------|
B|------------------------------------|-----------------------------------|
G|--12121212121212121616161611111111--|--9-9-9-9-9-9-9-9-7-7-7-7-7-7-7-7--|
D|---x-x-x-x-x-x-x-x-x-x-x-x-x-x-x-x--|--x-x-x-x-x-x-x-x-x-x-x-x-x-x-x-x--|
A|--101010101010101014141414-9-9-9-9--|--7-7-7-7-7-7-7-7-5-5-5-5-5-5-5-5--|
E|------------------------------------|-----------------------------------|
(continued)
e|------------------------------------|-------------------------------------|
B|------------------------------------|-------------------------------------|
G|--12121212121212121212121212121212--|--1616161616/1717161414141414141414--|
D|---x-x-x-x-x-x-x-x-x-x-x-x-x-x-x-x--|---x-x-x-x-x--x-x-x-x-x-x-x-x-x-x-x--|
A|--10101010101010101010101010101010--|--1414141414/1515141212121212121212--|
E|------------------------------------|-------------------------------------|
(continued)
e|------------------------------------|-----------------------------------|
B|------------------------------------|-----------------------------------|
G|--12121212121212121616161611111111--|--9-9-9-9-9-9-9-9-7-7-7-7-7-7-7-7--|
D|---x-x-x-x-x-x-x-x-x-x-x-x-x-x-x-x--|--x-x-x-x-x-x-x-x-x-x-x-x-x-x-x-x--|
A|--101010101010101014141414-9-9-9-9--|--7-7-7-7-7-7-7-7-5-5-5-5-5-5-5-5--|
E|------------------------------------|-----------------------------------|
(continued)
e|------------------------------------|------------------------------|
B|------------------------------------|------------------------------|
G|--1212121212121211111111-9-9-9-9-9--|--1616161616/17171614~~-12~~--|
D|---x-x-x-x-x-x-x-x-x-x-x-x-x-x-x-x--|---x-x-x-x-x--x-x-x-x----x----|
A|--10101010101010-9-9-9-9-7-7-7-7-7--|--1414141414/15151412~~-10~~--|
E|------------------------------------|------------------------------|


VII. BRIDGE NO. 1

Gtr 1
e|-----------------------------------|------------------------------------|2x
B|-----------------------------------|------------------------------------|
G|-----11----11--11----11----11--11--|--9-9-----121212121111111116161616--|
D|--x-x-x-x-x-x-x-x-x-x-x-x-x-x-x-x--|--x-x-x-x--x-x-x-x-x-x-x-x-x-x-x-x--|
A|--x-x-9-x-x-9-x-9-x-x-9-x-x-9-x-9--|--7-7-x-x-10101010-9-9-9-914141414--|
E|-----------------------------------|------------------------------------|
Gtr 2
e|-----------------------------------|-----------------------------------|2x
B|-----------------------------------|-----------------------------------|
G|-----------------------------------|-----------------------------------|
D|------4-----4---4-----4-----4---4--|------2-----2---2-----2-----2---2--|
A|--2-2-2-2-2-2-2-2-2-2-2-2-2-2-2-2--|--2-2-2-2-2-2-2-2-2-2-2-2-2-2-2-2--|
E|--2-2-2-2-2-2-2-2-2-2-2-2-2-2-2-2--|--0-0-0-0-0-0-0-0-0-0-0-0-0-0-0-0--|
PM| . .   . .   .   . .   . .   .    |  . .   . .   .   . .   . .   .    |

Then,
Gtr 1
e|---------------------------|------------------|
B|---------------------------|------------------|
G|--1616-141414-121212-11~~--|--9~--7~--5~--4~--|
D|---x-x--x-x-x--x-x-x--x----|--x---x---x---x---|
A|--1414-121212-101010--9~~--|--7~--5~--3~--2~--|
E|---------------------------|------------------|
Gtr 2
e|-----------------------------------|------------------|
B|-----------------------------------|------------------|
G|--5-5-5-5-5-5-5-5-5-5-5-5-5-5-5-5--|------7~--5~--4~--|
D|--5-5-5-5-5-5-5-5-5-5-5-5-5-5-5-5--|--2~--7~--5~--4~--|
A|--3-3-3-3-3-3-3-3-3-3-3-3-3-3-3-3--|--2~--5~--3~--2~--|
E|-----------------------------------|--0~--------------|


VIII. BRIDGE NO. 2

Both guitars
e|--------|--------|--------|--------|
B|--------|--------|--------|--------|
G|--------|-----7--|--5-----|--5--7--|
D|--5--4--|--2--7--|--5--5--|--5--7--|
A|--5--5--|--2--5--|--3--5--|--3--5--|
E|--3--2--|--0-----|-----3--|--------|
When the solo begins, Gtr 1 raises these ^ ^ ^ chords 2 frets higher.
Gtr 2 goes to the solo. :)

IX. SOLO

Gtr 2
e|----------------------------------------|--------------------------------|
B|-------------------------10h12h13h15~~--|--------------------------------|
G|-----------------9h11h12----------------|--------------------------------|
D|-----------10h12------------------------|--------------------------------|
A|--10h12h14------------------------------|--------------------------------|
E|----------------------------------------|--------------------------------|
Gtr 3
e|-------------------------------------|-----------------------14-16-17~~--|
B|-------------------------------------|--------------------17-------------|
G|-------------------------------------|-----------16h17h19----------------|
D|-------------------------------------|--16h17h19-------------------------|
A|-------------------------------------|-----------------------------------|
E|-------------------------------------|-----------------------------------|

Gtr 2
e|--19^(21)~-21-19-17-19-17--19^(21)-21-19-17--|--19-17-14~-17--17-16-14-17~--|
B|---------------------------------------------|------------------------------|
G|---------------------------------------------|------------------------------|
D|---------------------------------------------|------------------------------|
A|---------------------------------------------|------------------------------|
E|---------------------------------------------|------------------------------|
Gtr 3
e|---------------------------------------------|------------------------------|
B|--10~~-10--9--7--9--7-10~-10--9--7-----------|---9--7---------10~~-17s10~~--|
G|---------------------------------------------|---------6~~------------------|
D|---------------------------------------------|------------------------------|
A|---------------------------------------------|------------------------------|
E|---------------------------------------------|------------------------------|

Gtr 2
e|---------------------------------------------|---------|
B|--19~~--19p17----19p17----21p17----19p17-----|--17~~~--|
G|--------------14-------14-------14-------14--|---------|
D|---------------------------------------------|---------|
A|---------------------------------------------|---------|
E|---------------------------------------------|---------|
Gtr 3
e|---------------------------------------------|---------|
B|---------------------------------------------|---------|
G|---------------------------------------------|--9~~~~--|
D|---------------------------------------------|---------|
A|---------------------------------------------|---------|
E|---------------------------------------------|---------|

Gtr 2
e|--19^(21)~--19^(21)-19-17-19--------|
B|------------------------------17~~--|
G|------------------------------------|
D|------------------------------------|
A|------------------------------------|
E|------------------------------------|

(FINAL CHORUS)
Gtr 2 just plays the CHORUS tab, 2 frets higher

Gtr 1
e|------------------------------------|------------------------------------|
B|------------------------------------|------------------------------------|
G|--14141414141414141313131313131313--|--18181818181818181616161618181818--|
D|---x-x-x-x-x-x-x-x-x-x-x-x-x-x-x-x--|---x-x-x-x-x-x-x-x-x-x-x-x-x-x-x-x--|
A|--12121212121212121111111111111111--|--16161616161616161414141416161616--|
E|------------------------------------|------------------------------------|
(continued)
e|------------------------------------|------------------------------------|
B|------------------------------------|------------------------------------|
G|--14141414141414141414141414141414--|--18181818181919181616161616161616--|
D|---x-x-x-x-x-x-x-x-x-x-x-x-x-x-x-x--|---x-x-x-x-x-x-x-x-x-x-x-x-x-x-x-x--|
A|--12121212121212121212121212121212--|--16161616161717161414141414141414--|
E|------------------------------------|------------------------------------|
(continued)
e|------------------------------------|------------------------------------|
B|------------------------------------|------------------------------------|
G|--14141414141414141313131313131313--|--18181818181818181616161618181818--|
D|---x-x-x-x-x-x-x-x-x-x-x-x-x-x-x-x--|---x-x-x-x-x-x-x-x-x-x-x-x-x-x-x-x--|
A|--12121212121212121111111111111111--|--16161616161616161414141416161616--|
E|------------------------------------|------------------------------------|
(continued)
e|------------------------------------|---------------------------|
B|------------------------------------|---------------------------|
G|--14141414141414141414141414141414--|--16-18-16-18-16-18-19-18--|
D|---x-x-x-x-x-x-x-x-x-x-x-x-x-x-x-x--|---x--x--x--x--x--x--x--x--|
A|--12121212121212121212121212121212--|--14-16-14-16-14-16-17-16--|
E|------------------------------------|---------------------------|


X. OUTRO

Gtr 1
e|--------|--------|--------|--------|2x
B|--------|--------|--------|--------|
G|--------|--------|--7-----|--7--9--|
D|--7--6--|--4--2--|--7--7--|--7--9--|
A|--7--7--|--4--2--|--5--7--|--5--7--|
E|--5--4--|--2--0--|-----5--|--------|
Gtr 2
e|----------|
B|----------|
G|--14~~~~--|
D|---x------|
A|--12~~~~--|
E|----------|
Gtr 3
e|--17-16--|--14-12--|--10-----|--10-12--|
B|---------|---------|-----10--|---------|
G|---------|---------|---------|---------|
D|---------|---------|---------|---------|
A|---------|---------|---------|---------|
E|---------|---------|---------|---------|

End on:
Both guitars
e|---------|
B|---------|
G|---------|
D|--5~~~~--|
A|--5~~~~--|
E|--3~~~~--|



TRACK NO. 6 – I DON’T LOVE YOU

Ins.:
	Gtr 1 – Frank Iero (right speaker)
	Gtr 2 – Ray Toro (left speaker)
	Gtr 3 - ??? (overdubbed)


I. INTRO

Gtr 2
e|--12----12----12----12-----|--12----12----12----12-----|
B|--13----13----13----13-----|--13----13----13----13-----|
G|-----12----12----12----12--|-----12----12----12----12--|
D|---------------------------|---------------------------|
A|---------------------------|---------------------------|
E|---------------------------|---------------------------|


Then,
Gtr 1
e|-----------------------------------|-----------------------------------|
B|-----------------------------------|-----------------------------------|
G|--5-5-5-5-5-5-5-5-5-5-5-5-5-5-5-5--|-----------------------------------|
D|--5-5-5-5-5-5-5-5-5-5-5-5-5-5-5-5--|--7-7-7-7-7-7-7-7-7-7-7-7-7-7-7-7--|
A|--3-3-3-3-3-3-3-3-3-3-3-3-3-3-3-3--|--7-7-7-7-7-7-7-7-7-7-7-7-7-7-7-7--|
E|-----------------------------------|--5-5-5-5-5-5-5-5-5-5-5-5-5-5-5-5--|
(continued)
e|-----------------------------------|-----------------------------------|
B|-----------------------------------|-----------------------------------|
G|-----------------------------------|-----------------------------------|
D|--5-5-5-5-5-5-5-5-5-5-5-5-5-5-5-5--|--3-3-3-3-3-3-3-3-5-5-5-5-5-5-5-5--|
A|--5-5-5-5-5-5-5-5-5-5-5-5-5-5-5-5--|--3-3-3-3-3-3-3-3-5-5-5-5-5-5-5-5--|
E|--3-3-3-3-3-3-3-3-3-3-3-3-3-3-3-3--|--1-1-1-1-1-1-1-1-3-3-3-3-3-3-3-3--|

Gtr 2
e|--12----12----12----12----13----13----12----12-----|
B|--13----13----13----13----13----13----13----13-----|
G|-----12----12----12----12----12----12----12----12--|
D|---------------------------------------------------|
A|---------------------------------------------------|
E|---------------------------------------------------|
(continued)
e|--12----12----12----12----13----13----12----12-----|
B|--13----13----13----13----13----13----13----13-----|
G|-----14----14----14----14----14----14----14----14--|
D|---------------------------------------------------|
A|---------------------------------------------------|
E|---------------------------------------------------|
(continued)
e|--10----10----10----10----10----10----10----10-----|
B|--13----13----13----13----12----12----13----13-----|
G|-----12----12----12----12----12----12----12----12--|
D|---------------------------------------------------|
A|---------------------------------------------------|
E|---------------------------------------------------|
(continued)
e|--12----12----12----12----10----10-----------------|
B|--------------------------------------12----13-----|
G|-----12----12----12----12----12----12----12----12--|
D|---------------------------------------------------|
A|---------------------------------------------------|
E|---------------------------------------------------|


II. VERSE 1

Gtr 1
e|--0~~--0~~--3~~--0~~-------|
B|--1~~--1~~--3~~--1~~-------|
G|--0~~--2~~--0~~--0~~--xxx--|
D|--2~~--2~~--0~~--2~~--xxx--|
A|--3~~--0~~--2~~--3~~--xxx--|
E|------------3~~------------|

^^^ According to the music video, just strum these chords.

Gtr 2
e|------------------------|----------------------|
B|------------------------|----------------------|
G|------------------------|----------------------|
D|--/3~-2--0--2--2-0------|--3-5--2~--0-2-3-2~~--|
A|-------------------3~~--|----------------------|
E|------------------------|----------------------|
(continued)
e|--------------|--------------------------|
B|--------------|--------------------------|
G|--------------|---------------------xxx--|
D|------2~------|-------2-3~-5~~--3-2-xxx--|
A|--3-5----5~~--|--2-3~---------------xxx--|
E|--------------|--------------------------|

Gtr 1
e|---------------------------------------------------|
B|---------------------------------------------------|
G|--10-99-7-x-7-7/9\7-5-5-10-10--9-7-x-7/9\7-5-5-12--|
D|---x-xx-x-x-x-x-x-x-x-x--x--x--x-x-x-x-x-x-x-x--x--|
A|---8-77-5-x-5-5/7\5-3-3--8--8--7-5-x-5-7-5-3-3-10--|
E|---------------------------------------------------|
(continued)
e|-----------------------------------------------|
B|-----------------------------------------------|
G|--12-1010-7-x-7-7/9\7-5--1212-10-xx-7/9\7-5-5--|
D|---x--x-x-x-x-x-x-x-x-x---x-x--x-xx-x-x-x-x-x--|
A|--10--8-8-5-x-5-5/7\5-3--1010--8-xx-5/7\5-3-3--|
E|-----------------------------------------------|
(continued)
e|-----------------------|
B|-----------------------|
G|--5-5-5-5-5-7-7-7-4~~--|
D|--x-x-x-x-x-x-x-x-x----|
A|--3-3-3-3-3-5-5-5-2~~--|
E|-----------------------|
(continued)
e|-----------------------------------------------------|
B|-----------------------------------------------------|
G|--5/7-7-7-7/9-9-9-9\7-7-7-7/101010-9~~--7-7/9\7-5~~--|
D|--x-x-x-x-x-x-x-x-x-x-x-x-x--x-x-x-x----x-x-x-x-x----|
A|--3/5-5-5-5/7-7-7-7\5-5-5-5/-8-8-8-7~~--5-5/7\5-3~~--|
E|-----------------------------------------------------|

Gtr 2
e|-----------------------------------|-----------------------------------|
B|-----------------------------------|-----------------------------------|
G|--5-5-5-5-5-5-5-5-5-5-5-5-5-5-5-5--|-----------------------------------|
D|--5-5-5-5-5-5-5-5-5-5-5-5-5-5-5-5--|--7-7-7-7-7-7-7-7-7-7-7-7-7-7-7-7--|
A|--3-3-3-3-3-3-3-3-3-3-3-3-3-3-3-3--|--7-7-7-7-7-7-7-7-7-7-7-7-7-7-7-7--|
E|-----------------------------------|--5-5-5-5-5-5-5-5-5-5-5-5-5-5-5-5--|
(continued)
e|-----------------------------------|-----------------------------------|
B|-----------------------------------|-----------------------------------|
G|-----------------------------------|--5-5-5-5-5-5-5-5-5-5-5-5-5-5-5-5--|
D|--5-5-5-5-5-5-5-5-5-5-5-5-5-5-5-5--|--5-5-5-5-5-5-5-5-5-5-5-5-5-5-5-5--|
A|--5-5-5-5-5-5-5-5-5-5-5-5-5-5-5-5--|--3-3-3-3-3-3-3-3-3-3-3-3-3-3-3-3--|
E|--3-3-3-3-3-3-3-3-3-3-3-3-3-3-3-3--|-----------------------------------|


III. REFRAIN

Gtr 1
e|--------------------------|-------------------------|
B|--------------------------|-------------------------|
G|--10~--9-7-7~--5--7--10~--|--9--7--9--7-5~~--5-7-9--|
D|---x---x-x-x---x--x---x---|--x--x--x--x-x----x-x-x--|
A|---8~--7-5-5~--3--5---8~--|--7--5--7--5-3~~--3-5-7--|
E|--------------------------|-------------------------|
(continued)
e|--------------------------------|------------------|
B|--------------------------------|------------------|
G|--9-7-5~~--5-7-9-7-5-4~~-4-7-7--|--5~~----(0-5-7)--|
D|--x-x-x----x-x-x-x-x-x---x-x-x--|--x---------------|
A|--7-5-3~~--3-5-7-5-3-2~~-2-5-5--|--3~~-------------|
E|--------------------------------|------------------|
Gtr 2
e|-----------------------------------|-----------------------------------|
B|-----------------------------------|-----------------------------------|
G|-----------------------------------|------------------7-7-7-7-7-7-7-7--|
D|--3-3-3-3-3-3-3-3-5-5-5-5-6-6-6-6--|--7-7-7-7-2-2-2-2-7-7-7-7-7-7-7-7--|
A|--3-3-3-3-3-3-3-3-5-5-5-5-7-7-7-7--|--7-7-7-7-2-2-2-2-5-5-5-5-5-5-5-5--|
E|--1-1-1-1-1-1-1-1-3-3-3-3-4-4-4-4--|--5-5-5-5-0-0-0-0------------------|
(continued)
e|-----------------------------------|---------------|
B|-----------------------------------|---------------|
G|-----------------------------------|--5~~----------|
D|--3-3-3-3-3-3-3-3-5-5-5-5-5-5-5-5--|--5~~----------|
A|--3-3-3-3-3-3-3-3-5-5-5-5-5-5-5-5--|--3~~----------|
E|--1-1-1-1-1-1-1-1-3-3-3-3-3-3-3-3--|---------------|


IV. VERSE 2

Gtr 1
e|--------------------------------------------------------------|
B|--------------------------------------------------------------|
G|--5-0-5--7-5-0-5-7-9-9-7-5-7^(9)r7-5--------------------------|
D|-------------------------------------7~~--5-3-2---5-3---------|
A|------------------------------------------------3-----3-5-----|
E|-----------------------------------------------------------3--|
(continued)
e|------------------------|
B|------------------------|
G|-------------------xxx--|
D|--------2-3~--5~~--xxx--|
A|--2-3~-------------xxx--|
E|------------------------|

Gtr 2
e|-------------------------------------------------------------------|
B|--------5-------5-------5-------5-------5-------5-------3-------3--|
G|----5-------5-------5-------5-------5-------5-------5-------5------|
D|--5---5---5---5---5---5---5---5---5---5---5---5---5---5---5---5----|
A|-------------------------------------------------------------------|
E|-------------------------------------------------------------------|
(continued)
e|-------------------------------------------------------------------|
B|--------3-------3-------3-------3-------5-------5-------5----------|
G|----4-------4-------4-------4-------5-------5-------5---------xxx--|
D|--5---5---5---5---5---5---5---5---5---5---5---5---5---5---5~--xxx--|
A|--------------------------------------------------------------xxx--|
E|-------------------------------------------------------------------|


Then,
Gtr 1
e|---------------------------------------------------|
B|---------------------------------------------------|
G|--10-99-7-x-7-7/9\7-5-5-10-10--9-7-x-7/9\7-5-5-12--|
D|---x-xx-x-x-x-x-x-x-x-x--x--x--x-x-x-x-x-x-x-x--x--|
A|---8-77-5-x-5-5/7\5-3-3--8--8--7-5-x-5-7-5-3-3-10--|
E|---------------------------------------------------|
(continued)
e|-----------------------------------------------|
B|-----------------------------------------------|
G|--12-1010-7-x-7-7/9\7-5--1212-10-xx-7/9\7-5-5--|
D|---x--x-x-x-x-x-x-x-x-x---x-x--x-xx-x-x-x-x-x--|
A|--10--8-8-5-x-5-5/7\5-3--1010--8-xx-5/7\5-3-3--|
E|-----------------------------------------------|
(continued)
e|--------------------------|
B|--------------------------|
G|--5-5-5-5-5-7-7-7-4/12~~--|
D|--x-x-x-x-x-x-x-x-x--x----|
A|--3-3-3-3-3-5-5-5-2/10~~--|
E|--------------------------|
(continued)
e|-----------------------------------------------------|
B|-----------------------------------------------------|
G|--10\9-9-9-9\7-7-7-7/9-9-9-9/101010-9-9-9-7-7-7-5~~--|
D|---x-x-x-x-x-x-x-x-x-x-x-x-x--x-x-x-x-x-x-x-x-x-x----|
A|---8\7-7-7-7\5-5-5-5/7-7-7-7/-8-8-8-7-7-7-5-5-5-3~~--|
E|-----------------------------------------------------|

Gtr 2
e|-----------------------------------|-----------------------------------|
B|-----------------------------------|-----------------------------------|
G|--5-5-5-5-5-5-5-5-5-5-5-5-5-5-5-5--|-----------------------------------|
D|--5-5-5-5-5-5-5-5-5-5-5-5-5-5-5-5--|--7-7-7-7-7-7-7-7-7-7-7-7-7-7-7-7--|
A|--3-3-3-3-3-3-3-3-3-3-3-3-3-3-3-3--|--7-7-7-7-7-7-7-7-7-7-7-7-7-7-7-7--|
E|-----------------------------------|--5-5-5-5-5-5-5-5-5-5-5-5-5-5-5-5--|
(continued)
e|-----------------------------------|-----------------------------------|
B|-----------------------------------|-----------------------------------|
G|-----------------------------------|--5-5-5-5-5-5-5-5-5-5-5-5-5-5-5-5--|
D|--5-5-5-5-5-5-5-5-5-5-5-5-5-5-5-5--|--5-5-5-5-5-5-5-5-5-5-5-5-5-5-5-5--|
A|--5-5-5-5-5-5-5-5-5-5-5-5-5-5-5-5--|--3-3-3-3-3-3-3-3-3-3-3-3-3-3-3-3--|
E|--3-3-3-3-3-3-3-3-3-3-3-3-3-3-3-3--|-----------------------------------|


[Repeat REFRAIN]

Just before the solo, Gtr 1 MAY play a harmonic on the 5th fret on the G string.  Listen 
the song if you want to hear how is that played. :)

V. SOLO

Gtr 1
e|-----------------------------------|------------------------------|
B|-----------------------------------|------------------------------|
G|--7-7-7-7-7-7-7-7------------------|--5---------------------------|
D|--7-7-7-7-7-7-7-7-5-5-5-5-5-5-5-5--|--5--5-5-5-7-7-7-7-7-7-7-7-7--|
A|--5-5-5-5-5-5-5-5-5-5-5-5-5-5-5-5--|--3--3-2-2-7-7-7-7-7-7-7-7-7--|
E|------------------3-3-3-3-3-3-3-3--|-----------5-5-5-5-5-5-5-5-5--|
(continued)
e|-----------------------------------|-------|
B|-----------------------------------|-------|
G|-----------------------------------|--5~~--|
D|--3-3-3-3-3-3-3-3-5-5-5-5-5-5-5-5--|--5~~--|
A|--3-3-3-3-3-3-3-3-5-5-5-5-5-5-5-5--|--3~~--|
E|--1-1-1-1-1-1-1-1-3-3-3-3-3-3-3-3--|-------|

Gtr 2
e|-----------------------------------------------------------|
B|--10------10------10------10------10------13------13-------|
G|--12^(14)-12^(14)-12^(14)-12^(14)-12^(14)-16^(17)-16^(17)--|
D|-----------------------------------------------------------|
A|-----------------------------------------------------------|
E|-----------------------------------------------------------|
(continued)
e|-------------------------------------------------------------------|
B|--12------12------12------12------12------12------12------12p10p8--|
G|--14^(16)-14^(16)-14^(16)-14^(16)-14^(16)-14^(16)-14^(16)----------|
D|-------------------------------------------------------------------|
A|-------------------------------------------------------------------|
E|-------------------------------------------------------------------|
(continued)
e|---------------------------------------------------------------------------|
B|--8-------8-------6h8-9-9-12-10------10-10-12h13-10~-12h13-15^(17)~-15-13--|
G|--10^(12)-10^(12)------------12^(14)---------------------------------------|
D|---------------------------------------------------------------------------|
A|---------------------------------------------------------------------------|
E|---------------------------------------------------------------------------|

(continued)
e|-------------------15----13----12----13----12--------------10-----------|
B|--15~-15-13-13--13----13----13----12----12----12-15-12~-12----12\10-10--|
G|------------------------------------------------------------------------|
D|------------------------------------------------------------------------|
A|------------------------------------------------------------------------|
E|------------------------------------------------------------------------|
(continued)
e|------------------|
B|--10~~-10\8--8~~--|
G|------------------|
D|------------------|
A|------------------|
E|------------------|


VI. SOFT CHORUS

Gtr 1
e|-------------------------------------------|
B|-------------------------------------------|
G|-------------------------------------------|
D|--/7~~--5-3-2--0--------3--2--0--2--0------|
A|------------------3--5----------------3~~--|
E|-------------------------------------------|
(continued)
e|----------------------------------|
B|----------------------------------|
G|----------------------------------|
D|------2-5--3~------2--------------|
A|--3-5----------3-5----3-2--2-3-5--|
E|----------------------------------|


VII. FINAL REFRAIN

Gtr 1
e|---------------------------|-----------------------------------|
B|---------------------------|-----------------------------------|
G|--12~-10~-9-9-9-9-7-7-7-7--|--5-5-5-5-5-5-5-5-7-7-7-7-7-7-7-7--|
D|---x---x~-x-x-x-x-x-x-x-x--|--x-x-x-x-x-x-x-x-x-x-x-x-x-x-x-x--|
A|--10~--8~-7-7-7-7-5-5-5-5--|--3-3-3-3-3-3-3-3-5-5-5-5-5-5-5-5--|
E|---------------------------|-----------------------------------|
Gtr 2
e|---------------------------|-----------------------------------|
B|---------------------------|-----------------------------------|
G|--5~~-4~~------------------|-----------------------------------|
D|--5~~-5~~-7-7-7-7-5-5-5-5--|--3-3-3-3-3-3-3-3-5-5-5-5-5-5-5-5--|
A|--3~~-2~~-7-7-7-7-5-5-5-5--|--3-3-3-3-3-3-3-3-5-5-5-5-5-5-5-5--|
E|----------5-5-5-5-3-3-3-3--|--1-1-1-1-1-1-1-1-3-3-3-3-3-3-3-3--|

Gtr 3’s timing here is complicated, so I’ll add the lyrics :)

Gtr 3 (start on Gtr 2’s F Chord ^^^)
e|--12----12----12----12----10----10----10----10-----|
B|--13----13----13----13----13----13----12----12-----|
G|-----12----12----12----12----12----12----12----12--|
D|---------------------------------------------------|
A|--you....-----like-I-loved-you--------yes---ter----|
E|---------------------------------------------------|


There is a variation for Gtr 3 on the second repeat:

Gtr 3
e|--12----12----13----13----12----12----10----10-----|
B|--13----13----13----13----13----13----13----13-----|
G|-----12----12----12----12----12----12----12----12--|
D|---------------------------------------------------|
A|--day........-------------------------I-don’t------|
E|---------------------------------------------------|
(continued)
e|--12----12----12----12----10----10----10----10-----|
B|--13----13----13----13----13----13----12----13-----|
G|-----12----12----12----12----12----12----12----12--|
D|---------------------------------------------------|
A|--love--you---like--I-----loved-you---yes---ter----|
E|---------------------------------------------------|

End on:

Gtr 1
e|-------|
B|-------|
G|--5~~--|
D|--5~~--|
A|--3~~--|
E|-------|
Gtr 2
e|-------|
B|-------|
G|--5~~--|
D|--5~~--|
A|--3~~--|
E|-------|
Gtr 3
e|--12~--|
B|--13~--|
G|--12~--|
D|-------|
A|-------|
E|-------|



TRACK NO. 7 – HOUSE OF WOLVES

Ins.:
	Gtr 1 – Frank Iero
	Gtr 2 – Ray Toro
	Gtr 3 – Ray Toro (overdubbed)


I. INTRO

(Drumbeat, then pickslides)

Gtr 1
e|-------------------------------|-------------------------------|
B|-------------------------------|-------------------------------|
G|--9--9-9-7--x-x-5--x-4--4-4-4--|--9--9-9-7--x-x-5--x-4--4-4-4--|
D|--x--x-x-x--x-x-x--x-x--x-x-x--|--x--x-x-x--x-x-x--x-x--x-x-x--|
A|--7--7-7-5--x-x-3--x-2--2-2-2--|--7--7-7-5--x-x-3--x-2--2-2-2--|
E|-------------------------------|-------------------------------|
(continued)
e|----------------------------------|-------------------------------|
B|----------------------------------|-------------------------------|
G|--9--9-911--111112--1211--111111--|--9--9-9-7--x-x-5--x-4--4-4-4--|
D|--x--x-x-x---x-x-x---x-x---x-x-x--|--x--x-x-x--x-x-x--x-x--x-x-x--|
A|--7--7-7-9---9-910--10-9---9-9-9--|--7--7-7-5--x-x-3--x-2--2-2-2--|
E|----------------------------------|-------------------------------|
Gtr 2
e|-------------------------------|4x
B|-------------------------------|
G|--9--9-9-7--x-x-5--x-4--4-4-4--|
D|--9--9-9-7--x-x-5--x-4--4-4-4--|
A|--7--7-7-5--x-x-3--x-2--2-2-2--|
E|-------------------------------|


II. VERSE 1

Gtr 1
e|-------------------------|
B|---------8----------8~~--|
G|--9~~------9~~------9~~--|
D|--x----------------------|
A|--7~~--------------------|
E|-------------------------|
Gtr 2
e|-------------------------|
B|-------------------------|
G|-------------------------|
D|--2~~--------------------|
A|--2~~--------------------|
E|--0~~--------------------|


Gtr 1
e|--------------------------------------------------------------------------|
B|--~~~~--------------------------------8-----------------------------------|
G|--~~~~-----------------------------------9~~------------------------------|
D|--------------------------------------------------------------------------|
A|--------------------------------------------------------------------------|
E|--------------------------------------------------------------------------|
Gtr 2
e|-----7-----7-----7-----7-----7-----7-----7-----7-----7-----7-----7-----7--|
B|-----8-----8-----8-----8-----8-----8-----8-----8-----8-----8-----8-----8--|
G|--x--9--x--9--x--9--x--9--x--9--x--9--x--9--x--9--x--9--x--9--x--9--x--9--|
D|--------------------------------------------------------------------------|
A|--------------------------------------------------------------------------|
E|--------------------------------------------------------------------------|


Gtr 1
e|------------------------------------------------------|
B|------------------------------------------------------|
G|--~~~~--------------------4---4-5------5-7---(7)-8~~--|
D|--------------4-4-4-4-4-4-4---4-5~~----5-7---(7)-8~~--|
A|--------------2-2-2-2-2-2-2---2-3~~----3-5---(5)-6~~--|
E|------------------------------------------------------|
Gtr 2
e|-----7-----7------------------------------------------|
B|-----8-----8------------------------------------------|
G|--x--9--x--9--------------4---4-5~~----5-7---(7)-8~~--|
D|--------------4-4-4-4-4-4-4---4-5~~----5-7---(7)-8~~--|
A|--------------2-2-2-2-2-2-2---2-3~~----3-5---(5)-6~~--|
E|------------------------------------------------------|


III. REFRAIN

Gtr 1
e|-----------------------------------|-----------------------------------|
B|-----------------------------------|-----------------------------------|
G|--9-9-9-9-9-9-9-9-9-9-9-9-9-9-7-7--|--5-5-5-5-5-5-5-5-5-5-5-5-5-5-5-5--|
D|--9-9-9-9-9-9-9-9-9-9-9-9-9-9-7-7--|--5-5-5-5-5-5-5-5-5-5-5-5-5-5-5-5--|
A|--7-7-7-7-7-7-7-7-7-7-7-7-7-7-5-5--|--3-3-3-3-3-3-3-3-3-3-3-3-3-3-3-3--|
E|-----------------------------------|-----------------------------------|
(continued)
e|-----------------------------------|-----------------------------------|2x
B|-----------------------------------|-----------------------------------|
G|-----------------------------------|--4-4-4-4-4-4-4-4-4-4-4-4-4-4-4-4--|
D|--5-5-5-5-5-5-5-5-5-5-5-5-5-5-5-5--|--4-4-4-4-4-4-4-4-4-4-4-4-4-4-4-4--|
A|--5-5-5-5-5-5-5-5-5-5-5-5-5-5-5-5--|--2-2-2-2-2-2-2-2-2-2-2-2-2-2-2-2--|
E|--3-3-3-3-3-3-3-3-3-3-3-3-3-3-3-3--|-----------------------------------|

Gtr 2
e|----------------------------------|----------------------------------|
B|----------------------------------|----------------------------------|
G|--9~-9-9-9-9111112121111-9-9-7-7--|--9~-9-9-9-9111112121111-9-9-7-7--|
D|--x--x-x-x-x-x-x-x-x-x-x-x-x-x-x--|--x--x-x-x-x-x-x-x-x-x-x-x-x-x-x--|
A|--7~-7-7-7-7-9-91010-9-9-7-7-5-5--|--7~-7-7-7-7-9-91010-9-9-7-7-5-5--|
E|----------------------------------|----------------------------------|
(continued)
e|----------------------------------|----------------------------------|2x
B|----------------------------------|----------------------------------|
G|--9~-9-9-9-9111112121111-9-91111--|--8~-8-8-8-8-9-9111112121111-7-7--|
D|--x--x-x-x-x-x-x-x-x-x-x-x-x-x-x--|--x--x-x-x-x-x-x-x-x-x-x-x-x-x-x--|
A|--7~-7-7-7-7-9-91010-9-9-7-7-9-9--|--6~-6-6-6-6-7-7-9-91010-9-9-5-5--|
E|----------------------------------|----------------------------------|


IV. POST - CHORUS

Gtr 1
e|-----------------------------------------|
B|-----------------------------------------|
G|--9~~------------------------------------|
D|--9~~------------------------------------|
A|--7~~----//pickslides//------------------|
E|-------------------------//pickslides//--|
Gtr 2
e|-----------------------------------------|
B|-----------------------------------------|
G|--9~~------------------------------------|
D|--x--------------------------------------|
A|--7~~-----7~--5-3--3h5p3-2~--------------|
E|----------------------------5-3-2-(0)~~--|


V. VERSE 2

Gtr 1
e|----------------------------|----------------------------|
B|--------8------8------------|--------8------8------------|
G|-----9----9------9-----9~~--|-----9----9------9----------|
D|--------------------7-------|----------------------------|
A|--7~---------7--------------|--7~---------7------7-------|
E|----------------------------|-----------------------7~~--|

Then,
(I’m not sure on this part.)

Gtr 1
e|-----7-----7-----7-----7-----7-----7-----7-----7-----7-----7-----7-----7--|
B|-----8-----8-----8-----8-----8-----8-----7-----7-----8-----8-----8-----8--|
G|-----9-----9-----9-----9-----9-----9-----8-----8-----9-----9-----9-----9--|
D|-----9-----9-----9-----9-----9-----9-----9-----9-----9-----9-----9-----9--|
A|--7--7--7--7--7--7--7--7--7--7--7--7-----9-----9--7--7--7--7--7--7--7--7--|
E|--------------------------------------7--7--7--7--------------------------|
(continued)
e|-----7-----7------------------------------------------|
B|-----8-----8------------------------------------------|
G|-----9-----9--------------4---4-5~~----5-7---(7)-8~~--|
D|-----9-----9--4-4-4-4-4-4-4---4-5~~----5-7---(7)-8~~--|
A|--7--7--7--7--2-2-2-2-2-2-2---2-3~~----3-5---(5)-6~~--|
E|------------------------------------------------------|

Gtr 2
e|-----7-----7-----7-----7-----7-----7-----7-----7-----7-----7-----7-----7--|
B|-----8-----8-----8-----8-----8-----8-----7-----7-----8-----8-----8-----8--|
G|--x--9--x--9--x--9--x--9--x--9--x--9--x--8--x--8--x--9--x--9--x--9--x--9--|
D|--------------------------------------------------------------------------|
A|--------------------------------------------------------------------------|
E|--------------------------------------------------------------------------|
(continued)
e|-----7-----7------------------------------------------|
B|-----8-----8------------------------------------------|
G|--x--9--x--9--------------4---4-5~~----5-7---(7)-8~~--|
D|--------------4-4-4-4-4-4-4---4-5~~----5-7---(7)-8~~--|
A|--------------2-2-2-2-2-2-2---2-3~~----3-5---(5)-6~~--|
E|------------------------------------------------------|

[Repeat REFRAIN]


VI. BRIDGE

Both guitars
e|----------------------------|----------------------------|-----|2x
B|----------------------------|----------------------------|-----|
G|----------------------------|----------------------------|-----|
D|--2--x-5-5--7--2--x-5-5--7--|--2--x-5-5--7--2--x-5-5--7--|--2--|
A|--2--x-5-5--7--2--x-5-5--7--|--2--x-5-5--7--2--x-5-5--7--|--2--|
E|--0--x-3-3--5--0--x-3-3--5--|--0--x-3-3--5--0--x-3-3--5--|--0--|
(continued)
e|---------------------|2x
B|---------------------|
G|---------------7--9--|
D|--4-4-4-4-4-4--7--9--|
A|--2-2-2-2-2-2--5--7--|
E|---------------------|


Gtr 1
e|---------------------|----------------|
B|---------------------|----------------|
G|---------------------|---------<5>~~--|
D|--2---------------5--|--7-------------|
A|--2---------------5--|--7-------------|
E|--0---------------3--|--5-------------|
Gtr 2
e|-------/19-17-15-14--|----------------|
B|---------------------|--17~~----------|
G|---------------------|----------------|
D|--2------------------|----------------|
A|--2------------------|----------------|
E|--0------------------|----------------|


Both guitars
e|--------------------------------------------|
B|--------------------------------------------|
G|--4-4-7-7-4-4-7-7---4--7-4--7-4--7-4--7--8--|
D|--4-4-7-7-4-4-7-7---4--7-4--7-4--7-4--x--x--|
A|--2-2-5-5-2-2-5-5---2--5-2--5-2--5-2--5--6--|
E|--------------------------------------------|

[Repeat REFRAIN]


VI. SOLO

Gtr 1 & 2 - Play CHORUS

Gtr 3
e|-------------------------------------------------------------------------|
B|--10^(12)-10^(12)-13^(15)~-12~-10-12-12-10h12p10----10----------10-------|
G|-------------------------------------------------12----12p11h12----12-9--|
D|-------------------------------------------------------------------------|
A|-------------------------------------------------------------------------|
E|-------------------------------------------------------------------------|
(continued)
e|--------------------------------------------------------------------------|
B|--------------------------------------------------------------------------|
G|------------------10^(12)~-----------11----11h12h14p12--------------------|
D|--12^(14)-12^(14)----------13~-12h14----12-------------14p12----12-9p7p5--|
A|-------------------------------------------------------------14-----------|
E|--------------------------------------------------------------------------|
(continued)
e|-------------------------------------------------------------------------|
B|--10^(12)-10^(12)-13^(15)~-12~-10-12-12-10h12p10----10----------10-------|
G|-------------------------------------------------12----12p11h12----12-9--|
D|-------------------------------------------------------------------------|
A|-------------------------------------------------------------------------|
E|-------------------------------------------------------------------------|
(continued)
e|-------------------15~--17p14-15p14-17p14h15---------------|
B|--15^(17)-15^(17)~---------------------------17-17^(19)~~--|
G|-----------------------------------------------------------|
D|-----------------------------------------------------------|
A|-----------------------------------------------------------|
E|-----------------------------------------------------------|


VII. OUTRO

Gtr 1 & 2 - Play INTRO

Gtr 3
e|--12---------15---------17---------19--------------------|
B|--15^(17)~~--19^(20)~~--20^(22)~~--22^(24)~~-------------|
G|---------------------------------------------------------|
D|---------------------------------------------------------|
A|----------------------------------------------(3-5-3-2)--|
E|---------------------------------------------------------|

End on:

All guitars
e|-----|
B|-----|
G|-----|
D|--2--|
A|--2--|
E|--0--|


TRACK NO. 8 – CANCER

Ins.:
	Piano – ???

These are the ACTUAL piano chords, not the chords that Ray plays live.
Check my GP tablet for this if you want, here’s the link:

http://www.ultimate-guitar.com/tabs/m/my_chemical_romance/cancer_ver2_guitar_pro.htm

I. INTRO

e|--------------------|-------------------|2x
B|--------------------|--7---7---7---7----|
G|--9--8--11---9------|--8---8---6---8----|
D|--9--9---9---9-7-8--|--9---9---9--------|
A|--7----7---7-7------|--9----------------|
E|--------------------|--7-7---7---7---7--|


II. VERSE (“Turn away...”)

e|--0---0---0---0----|--2---2---2---2------|-----------------------|
B|--9---9---9---9----|--4---4---2---4------|--5---5---4------------|
G|--9---9---9---9----|--4---4---4---4------|--6---6---6------------|
D|--9---9---9---9----|--4---4---4---4------|--6---6---6------------|
A|--7-7-7-7-7-7-7-7--|--2-2-2-2-2-2-2-2-3--|--4-4-4-4-4-4-4-3-2-1--|
E|-------------------|---------------------|-----------------------|
(continued)
e|--0---0---0---0----|2x
B|--1---1---1---1----|
G|--4---4---4---4----|
D|--2---2---2---2----|
A|--0-0-0-0-0-0-0-0--|
E|-------------------|


III. REFRAIN 1 (“My sisters and my brothers...”)

e|--0---0------------|--2---2------------|-------------------|
B|--2---2---2---2----|--4---4---4---4----|--5---5---5---5----|
G|--2---2---3---3----|--4---4---5---5----|--6---6---6---6----|
D|--2---2---4---4----|--4---4---6---6----|--6---6---6---6----|
A|--0-0-0-0-1-1-1-1--|--2-2-2-2-3-3-3-3--|--4-4-4-4-4-4-4-4--|
E|-------------------|-------------------|-------------------|
(continued)
e|--5---5---5---5----|-------------------|----------0---0----|
B|--5---5---5---5----|-------------------|------4---4---4----|
G|--5---5---5---5----|--2---2---2---2----|--4---4---4---4----|
D|--7---7---7---7----|--4---4---4---2----|--4---4---4---4----|
A|--7---7---7---7----|--4---4---4---4----|--2-2-2-2-2-2-2-2--|
E|--5-5-5-5-5-5-5-5--|--2-2-2-2-2-2-2-2--|-------------------|


IV. PRE-VERSE


e|--0---0---0---0----|x2
B|--9---9---9---9----|
G|--9---9---9---9----|
D|--9---9---9---9----|
A|--7-7-7-7-7-7-7-7--|
E|-------------------|

(Repeat VERSE)


V. REFRAIN 2 (“But counted down the days to go...”)

e|--0---0------------|-------------------|-------------------|
B|--2---2---2---2----|--4---4---4---4----|--5---5------------|
G|--2---2---3---3----|--4---4---5---5----|--6---6---6---6----|
D|--2---2---4---4----|--4---4---6---6----|--6---6---6---6----|
A|--0-0-0-0-1-1-1-1--|--2-2-2-2-3-3-3-3--|--4-4-4-4-4-4-4-4--|
E|-------------------|-------------------|-------------------|
(continued)
e|--5---5---5---5----|--0---0---0---0----|---0----0----0----0----|
B|--5---5---5---5----|--9---9---9---9----|---9----9----9----9----|
G|--5---5---5---5----|--9---9---9---9----|---9----9----9----9----|
D|--7---7---7---7----|--9---9---9---9----|--10---10---10---10----|
A|--7---7---7---7----|--7-7-7-7-7-7-7-7--|---7-7--7-7--7-7--7-7--|
E|--5-5-5-5-5-5-5-5--|-------------------|-----------------------|
(continued)
e|-------------------|-------------------|
B|--5---5---5---5----|--6-------2--------|
G|--6---6---6---6----|--6---4---2--------|
D|--6---6---6---6----|--6---4---3---6----|
A|--4-4-4-4-4-4-4-4--|--4-4-4-2-0-0-7----|
E|-------------------|--------------4-4--|


VI. CODA :) (“Cause the hardest part of this...”)


e|-------------------|----------0---0----|-------------------|
B|-------------------|--4---4---4---4----|--5---5---4---4----|
G|--2---2---2---2----|--2---2---2---2----|--6---6---5---5----|
D|--4---4---4---2----|--4---4---4---4----|--6---6---6---6----|
A|--4---4---4---4----|--2-2-2-2-2-2-2-2--|--4-4-4-4-3-3-3-3--|
E|--2-2-2-2-2-2-2-2--|-------------------|-------------------|
(continued)
e|-------------------|-------------------|----------0---0----|
B|--4---4---2---2----|-------------------|--4---4---4---4----|
G|--4---4---3---3----|--2---2---2---2----|--2---2---2---2----|
D|--4---4---4---4----|--4---4---4---2----|--4---4---4---4----|
A|--2-2-2-2-1-1-1-1--|--4---4---4---4----|--2-2-2-2-2-2-2-2--|
E|-------------------|--2-2-2-2-2-2-2-2--|-------------------|
(continued)
e|--0~~~~--|
B|--9~~~~--|
G|--9~~~~--|
D|--9~~~~--|
A|--7~~~~--|
E|--0~~~~--|


TRACK NO. 9 - MAMA

Ins.:
	Gtr 1 – Frank Iero
	Gtr 2 – Ray Toro


I. INTRO (gets louder)

Gtr 2
e|-----------------------------------|-----------------------------------|
B|----8---8---8---8---8---8---8---8--|----8---8---8---8---7---7---7---7--|
G|----9---9---9---9---9---9---9---9--|----9---9---9---9---8---8---8---8--|
D|----9---9---9---9---9---9---9---9--|----9---9---9---9---9---9---9---9--|
A|--7---7---7---7---7---7---7---7----|--7---7---7---7-----9---9---9---9--|
E|-----------------------------------|------------------7---7---7---7----|
(continued)
e|-----------------------------------|-----------------------------------|
B|----5---5---7---7---3---3----------|----8---8---7---7---8---8---8---8--|
G|----5---5---8---8---4---4----------|----9---9---8---8---9---9---9---9--|
D|----7---7---9---9---5---5---9---9--|----9---9---9---9---9---9---9---9--|
A|----7---7---9---9---5---5---7---7--|----7---7---9---9-7---7---7---7----|
E|--5---5---7---7---3---3---0---0----|--0---0---7---7--------------------|


II. VERSE 1

Gtr 2 carries on playing the INTRO

Then,
Gtr 1 (comes in with the drums and bass guitar)
e|---------------------------------|-----------------------------------|
B|---------------------------------|-----------------------------------|
G|---------------------------------|-----------------------------------|
D|---------------------------------|----------5---5--------------------|
A|--7---7---7---7---7---7---7---7--|--7---7-----------6---6---6---7-9--|
E|---------------------------------|-----------------------------------|
(continued)
e|---------------------------------|-----------------------------------|
B|---------------------------------|-----------------------------------|
G|---------------------------------|-----------------------------------|
D|------------------7-5-4-5--------|-----------------------------------|
A|--7---7---9---9-----------7---7--|--7---7---9---9---7----------------|
E|---------------------------------|-----------------------------------|


III. CHORUS

Both guitars (?)
e|-----------------------------------|-----------------------------------|
B|-----------------------------------|-----------------------------------|
G|--5-5-5-5-5-5-5-5-7-7-7-7----------|------------------5-5-5-5----------|
D|--5-5-5-5-5-5-5-5-7-7-7-7----------|--5-5-5-5-5-5-5-5-5-5-5-5----------|
A|--3-3-3-3-3-3-3-3-5-5-5-5-5-7-5-0--|--5-5-5-5-5-5-5-5-3-3-3-3-3-5-3-0--|
E|-----------------------------------|--3-3-3-3-3-3-3-3------------------|
(continued)
e|-----------------------------------|-----------------------------------|
B|-----------------------------------|-----------------------------------|
G|--------------5---4-4-4-4-4-4-4-4--|-----------------------------------|
D|--3-3-3-3-3---5---4-4-4-4-4-4-4-4--|--2~~~~---4~~~~---5~~~~------------|
A|--3-3-3-3-3---3---2-2-2-2-2-2-2-2--|--2~~~~---5~~~~---5~~~~---------2--|
E|--1-1-1-1-1------------------------|--0~~~~---2~~~~---3~~~~---0-2-3----|

(POST-CHORUS)
Gtr 1
e|-------------------------------<5>~~--|
B|---------------------------<5>--------|
G|--5~~~~---8~~~~---9~~~~--4------------|
D|--x-------x-------x-------------------|
A|--3~~~~---6~~~~---7~~~~---------------|
E|--------------------------------------|
Gtr 2
e|--------------------------------------|
B|-------------------------8~~~~--------|
G|--5~~~~---8~~~~---9~~~~--9~~~~--------|
D|--x-------x-------x-------------------|
A|--3~~~~---6~~~~---7~~~~---------------|
E|--------------------------------------|


IV. VERSE 2

Gtr 2 does the same in VERSE 1

Gtr 1 (comes in with the drums and bass guitar)
e|---------------------------------|-----------------------------------|
B|---------------------------------|-----------------------------------|
G|---------------------------------|-----------------------------------|
D|---------------------------------|----------5---5--------------------|
A|--7---7---7---7---7---7---7---7--|--7---7-----------6---6---6---7-9--|
E|---------------------------------|-----------------------------------|
(continued)
e|-----------------------------------|---------------------------------|
B|-----------------------------------|---------------------------------|
G|-----------------------------------|---------------------------------|
D|------------------7-5-4-5-4-5-4----|---------------------------------|
A|--7---7---9---9-----------------7--|--7---7---6---4-6-7--------------|
E|-----------------------------------|---------------------------------|
(continued)
e|---------------------------------|---------------------------------|
B|---------------------------------|---------------------------------|
G|---------------------------------|---------------------------------|
D|--------------4-5-7-5-4----------|------4-5-7-5-4------------------|
A|--7---7---7-7-----------6-7---7--|--7-7-----------6-7---6---7---9--|
E|---------------------------------|---------------------------------|
(continued)
e|---------------------------------|---------------------------------|
B|---------------------------------|---------------------------------|
G|---------------------------------|---------------------------------|
D|----------4---4---7-5-4-5--------|----------7-5-4------------------|
A|--7---7-------------------7---7--|--7---7---------6-7--------------|
E|---------------------------------|---------------------------------|

(Repeat CHORUS 2x then POST CHORUS)


V. BRIDGE 1

Gtr 1
e|--------6x--------|----------------------|---------------------------------|
B|------------------|----------------------|---------------------------------|
G|--xx-9--xx--9/10--|--12-12-8-8-8-9-11-8--|--9-9-11111112141211121111-9998--|
D|--xx-x--xx--x-----|---x--x-x-x-x-x--x-x--|--x-x--x-x-x-x-x-x-x-x-x-x-xxxx--|
A|--xx-7--xx--7-----|--10-10-6-6-6-7--9-6--|--7-7--9-9-9101210-910-9-9-7776--|
E|------------------|----------------------|---------------------------------|
(continued)
e|----------------------|
B|----------------------|
G|--7-8-9~~~------------|
D|--x-x-x---------------|
A|--5-6-7~~~------------|
E|----------------------|
Gtr 2
e|---(?)---|------------|
B|--times--|------------|
G|------4--|------------|
D|--2---4--|--5-4-2~~~--|
A|--2---2--|--5-5-2-----|
E|--0------|--3-2-0~~~--|


VI. BRIDGE 2

Gtr 1
e|-----------------------------------|-----------------------------------|
B|-----------------------------------|-----------------------------------|
G|------2-4-----2-4-----2-4-----2-4--|--4-5-2~--4-5-3~--4-5-2~--4-2------|
D|--2-2-2-4-2-2-2-4-2-2-2-4-2-2-2-4--|--4-5-2~--4-5-3~--4-5-2~--4-2-5-4--|
A|--2-2-0-2-2-2-0-2-2-2-0-2-2-2-0-2--|--2-3-0~--2-3-1~--2-3-0~--2-0-5-4--|
E|--0-0-----0-0-----0-0-----0-0------|------------------------------3-2--|
Gtr 2
e|-----------------------------------|-----------------------------------|
B|-----------------------------------|-----------------------------------|
G|-----------------------------------|-----------------------------------|
D|----2-------2-------2-------2------|-----------------------------------|
A|------0-2-----0-2-----0-2-----0-2--|--2-3-0~--2-3-1~--2-3-0~--2-0------|
E|--0-------0-------0-------0--------|------------------------------3-2--|

(Repeat ^ ^ ^ 2x, last part is a little slower)

Now, in the part where Liza Minneli sings, there is a guitar playing (?)
And I can’t seem to tab it :( ...
All I know is that the harmonic is in the 16th fret. :)

Then,
Gtr 2 (when he says “but there’s shit that...”
e|-------------------------------------------|----------------------|
B|--12-12-12-10-10-10-8-8-8------------------|----------------------|
G|--------------------------9-7--------------|----------------------|
D|------------------------------7-9-10-12-9--|--10-12-7-9-9-9-9~~~--|
A|--------------------------fast part--------|----------------------|
E|-------------------------------------------|----------------------|


VII. OUT-CHORUS

Both guitars (?)
e|-----------------------------------|-----------------------------------|2x
B|-----------------------------------|-----------------------------------|
G|-----------------------------------|-----------------------------------|
D|--2-2-2-2-2-2-2-2-2-2-2-2-2-2-2-7--|--7-7-9-9-9-9-9-9-7-7-7-9-9-9-5-5--|
A|--2-2-2-2-2-2-2-2-2-2-2-2-2-2-2-7--|--7-7-9-9-9-9-9-9-7-7-7-9-9-9-5-5--|
E|--0-0-0-0-0-0-0-0-0-0-0-0-0-0-0-5--|--5-5-7-7-7-7-7-7-5-5-5-7-7-7-3-3--|

Then,
1st ending
e|-----------------------------------|
B|-----------------------------------|
G|-----------------------------------|
D|--5-2-2-2-2-2-2-8-8-8-9-9-9-9-9-9--|
A|--5-2-2-2-2-2-2-9-9-9-9-9-9-9-9-9--|
E|--3-0-0-0-0-0-0-6-6-6-7-7-7-7-7-7--|

2nd ending
Gtr 1
e|------------------------<5>-----<7>---------<5>------|
B|-----------------------------------------------------|
G|-----------------------------------------------------|
D|--5-2-2-2-2-2-2-9-9-9-----------------------------2--|
A|--5-2-2-2-2-2-2-9-9-9-----------------------------2--|
E|--3-0-0-0-0-0-0-7-7-7-----------------------------0--|
Gtr 2
e|-----------------------------------------|-----------|
B|-----------------------------------------|-----------|
G|-----------------------------------------|-----------|
D|--5-2-2-2-2-2-2-9-9-9-2-------2-------2--|--------2--|
A|--5-2-2-2-2-2-2-9-9-9-2-------2-------2--|--------2--|
E|--3-0-0-0-0-0-0-7-7-7-0-0000000-0000000--|--0000000--|


TRACK NO. 10 – SLEEP


Ins.:
	Gtr 1 – Frank Iero
	Gtr 2 – Ray Toro
	Gtr 3 - ??? (overdubbed)


I. INTRO

(Piano)
e|-------------------|-------------------|4x
B|-------------------|-------------------|
G|--5---5---1---1----|--5---5---4---4----|
D|--5---5---3---3----|--5---5---5---5----|
A|--3-3-3-3-3---3----|--5---5---5---5----|
E|----------1-1-1-1--|--3-3-3-3-3-3-3-3--|


Gtr 1
e|------------------------------------|------------------------------------|
B|------------------------------------|------------------------------------|
G|--12121212121212121313131315151515--|--12121212121212121313131312121010--|
D|---x-x-x-x-x-x-x-x-x-x-x-x-x-x-x-x--|---x-x-x-x-x-x-x-x-x-x-x-x-x-x-x-x--|
A|--10101010101010101111111113131313--|--1010101010101010111111111010-8-8--|
E|------------------------------------|------------------------------------|
(continued)
e|-------------------------------------|------------------------------------|
B|-------------------------------------|------------------------------------|
G|--9/10/12121212----1313131315151515--|--12121212121212121313131312121010--|
D|--x--x--x-x-x-x-10--x-x-x-x-x-x-x-x--|---x-x-x-x-x-x-x-x-x-x-x-x-x-x-x-x--|
A|--7/-8/10101010--x-1111111113131313--|--1010101010101010111111111010-8-8--|
E|-----------------8-------------------|------------------------------------|
(continued)
e|-------|
B|-------|
G|--9~~--|
D|--x----|
A|--7~~--|
E|-------|

Gtr 2
e|-----------------------------------|-----------------------------------|
B|-----------------------------------|-----------------------------------|
G|--5-5-5-5-5-5-5-5------------------|-----------------------------------|
D|--5-5-5-5-5-5-5-5-3-3-3-3-3-3-3-3--|--5-5-5-5-5-5-5-5-5-5-5-5-5-5-5-5--|
A|--3-3-3-3-3-3-3-3-3-3-3-3-3-3-3-3--|--5-5-5-5-5-5-5-5-5-5-5-5-5-5-5-5--|
E|------------------1-1-1-1-1-1-1-1--|--3-3-3-3-3-3-3-3-3-3-3-3-3-3-3-3--|
(continued)
e|-----------------------------------|-----------------------------------|
B|-----------------------------------|-----------------------------------|
G|-----------------------------------|-----------------------------------|
D|--2-2-2-2-2-2-2-2-3-3-3-3-3-3-3-3--|--5-5-5-5-5-5-5-5-5-5-5-5-5-5-5-5--|
A|--2-2-2-2-2-2-2-2-3-3-3-3-3-3-3-3--|--5-5-5-5-5-5-5-5-5-5-5-5-5-5-5-5--|
E|--0-0-0-0-0-0-0-0-1-1-1-1-1-1-1-1--|--3-3-3-3-3-3-3-3-3-3-3-3-3-3-3-3--|
(continued)
e|-------|
B|-------|
G|--5~~--|
D|--5~~--|
A|--3~~--|
E|-------|


II. VERSE 1


When he says “... breathe for me...”
Gtr 2
e|---------------------|--------------------------------|
B|---------------------|--------------------------------|
G|---------------------|----------------------12h13-12--|
D|---------------------|--------------------------------|
A|-------11~~--10~~~~--|-------11-13--10~~~~------------|
E|--8~~----------------|--8~~---------------------------|


III. REFRAIN

Gtr 1
e|-------------------|-------------------|
B|-------------------|-------------------|
G|--13~--5/7--8-7-5--|--13~--5/7--8-7-5--|
D|---x---x-x--x-x-x--|---x---x-x--x-x-x--|
A|--11~--3/5--6-5-3--|--11~--3/5--6-5-3--|
E|-------------------|-------------------|
(continued)
e|--------------------------|--------------------------|
B|--------------------------|--------------------------|
G|--7/8\7-5-5~-10-10--7-8~--|--7/8\7-5-5~-10-10-7-5-3--|
D|--x-x-x-x-x---x--x--x-x---|--x-x-x-x-x---x--x-x-x-x--|
A|--5/6\5-3-3~--8--8--5-6~--|--5/6\5-3-3~--8--8-5-3-1--|
E|--------------------------|--------------------------|
(continued)
e|-------------------|-------------------|
B|-------------------|-------------------|
G|--13~--5/7--8-7-5--|--13~--5/7--8-7-5--|
D|---x---x-x--x-x-x--|---x---x-x--x-x-x--|
A|--11~--3/5--6-5-3--|--11~--3/5--6-5-3--|
E|-------------------|-------------------|

Gtr 2
e|-----------------------------------|-----------------------------------|
B|-----------------------------------|-----------------------------------|
G|-----------------------------------|-----------------------------------|
D|--6-6-6-6-6-6-6-6-6-6-6-6-6-6-6-6--|--3-3-3-3-3-3-3-3-3-3-3-3-3-3-3-3--|
A|--6-6-6-6-6-6-6-6-6-6-6-6-6-6-6-6--|--3-3-3-3-3-3-3-3-3-3-3-3-3-3-3-3--|
E|--4-4-4-4-4-4-4-4-4-4-4-4-4-4-4-4--|--1-1-1-1-1-1-1-1-1-1-1-1-1-1-1-1--|
(continued)
e|-----------------------------------|-----------------------------------|
B|-----------------------------------|-----------------------------------|
G|--5-5-5-5-5-5-5-5-5-5-5-5-5-5-5-5--|--3-3-3-3-3-3-3-3-3-3-3-3-3-3-3-3--|
D|--5-5-5-5-5-5-5-5-5-5-5-5-5-5-5-5--|--3-3-3-3-3-3-3-3-3-3-3-3-3-3-3-3--|
A|--3-3-3-3-3-3-3-3-3-3-3-3-3-3-3-3--|--1-1-1-1-1-1-1-1-1-1-1-1-1-1-1-1--|
E|-----------------------------------|-----------------------------------|
(continued)
e|-----------------------------------|-----------------------------------|
B|-----------------------------------|-----------------------------------|
G|-----------------------------------|-----------------------------------|
D|--6-6-6-6-6-6-6-6-6-6-6-6-6-6-6-6--|--3-3-3-3-3-3-3-3-3-3-3-3-3-3-3-3--|
A|--6-6-6-6-6-6-6-6-6-6-6-6-6-6-6-6--|--3-3-3-3-3-3-3-3-3-3-3-3-3-3-3-3--|
E|--4-4-4-4-4-4-4-4-4-4-4-4-4-4-4-4--|--1-1-1-1-1-1-1-1-1-1-1-1-1-1-1-1--|


IV. CHORUS

Gtr 1
e|-------------------------------------|-----------------------------------|2x
B|-------------------------------------|-----------------------------------|
G|--12121212121212121212\10\9-9-9-7\5--|--5-5-5-5-5-5-5-5-4-4-4-4-4-4-4-4--|
D|---x-x-x-x-x-x-x-x-x-x--x-x-x-x-x-x--|--x-x-x-x-x-x-x-x-x-x-x-x-x-x-x-x--|
A|--10101010101010101010\-8\7-7-7-5\3--|--3-3-3-3-3-3-3-3-2-2-2-2-2-2-2-2--|
E|-------------------------------------|-----------------------------------|
Gtr 2
e|-----------------------------------|-----------------------------------|2x
B|-----------------------------------|-----------------------------------|
G|--5-5-5-5-5-5-5-5-5-5-5-5-5-5-5-5--|-----------------------------------|
D|--5-5-5-5-5-5-5-5-5-5-5-5-5-5-5-5--|--2-2-2-2-2-2-2-2-2-2-2-2-2-2-2-2--|
A|--3-3-3-3-3-3-3-3-3-3-3-3-3-3-3-3--|--2-2-2-2-2-2-2-2-2-2-2-2-2-2-2-2--|
E|-----------------------------------|--0-0-0-0-0-0-0-0-0-0-0-0-0-0-0-0--|

Then,
Both guitars
e|--------------------------|-----------------------------|
B|--------------------------|-----------------------------|
G|--------------------------|-----------------------------|
D|--3--3--3--3--3--3--3--3--|--6-6-6-6-6-6-6-6-5----------|
A|--3--3--3--3--3--3--3--3--|--6-6-6-6-6-6-6-6-5-(pause)--|
E|--1--1--1--1--1--1--1--1--|--4-4-4-4-4-4-4-4-3----------|



V. VERSE 2

Gtr 1
e|--15--|(just repeat, this note circulates throughout the verse)
B|------|
G|------|
D|------|
A|------|
E|------|

Then, when he says “...tyranny...”
Gtr 2
e|---------------------|--------------------------------|
B|---------------------|--------------------------------|
G|---------------------|----------------------12h13-12--|
D|---------------------|--------------------------------|
A|-------11~~--10~~~~--|-------11-13--10~~~~------------|
E|--8~~----------------|--8~~---------------------------|


[Repeat REFRAIN and CHORUS]

(Piano)
e|-------------------|-------------------|4x
B|-------------------|-------------------|
G|--5---5---1---1----|--5---5---4---4----|
D|--5---5---3---3----|--5---5---5---5----|
A|--3-3-3-3-3---3----|--5---5---5---5----|
E|----------1-1-1-1--|--3-3-3-3-3-3-3-3--|
Gtr ?
e|-------------------|? times
B|-------------------|
G|-------------------|Play this
D|-------------------|until the end
A|--3-3-----3-3------|
E|------4h6-----4h6--|
PM| . . . . . . . . .|

Then, REPEAT INTRO, just listen to the song for the variation.

After sometime,
Gtr 1
e|----------------------------------|
B|----------------------------------|
G|--17--17--17--17--19--20--19--17--|
D|---x---x---x---x---x---x---x---x--|
A|--15--15--15--15--17--18--17--15--|
E|----------------------------------|
Gtr 2
e|--------------------------|
B|--------------------------|
G|--------------------------|
D|--5--5--5--5--5--5--5--5--|
A|--5--5--5--5--5--5--5--5--|
E|--3--3--3--3--3--3--3--3--|

Gtr 1
e|-------------------------------------|-----------------------------------|4x
B|-------------------------------------|-----------------------------------|
G|--12121212121212121212\10\9-9-9-7\5--|--5-5-5-5-5-5-5-5-4-4-4-4-4-4-4-4--|
D|---x-x-x-x-x-x-x-x-x-x--x-x-x-x-x-x--|--x-x-x-x-x-x-x-x-x-x-x-x-x-x-x-x--|
A|--10101010101010101010\-8\7-7-7-5\3--|--3-3-3-3-3-3-3-3-2-2-2-2-2-2-2-2--|
E|-------------------------------------|-----------------------------------|
Gtr 2
e|-----------------------------------|-----------------------------------|4x
B|-----------------------------------|-----------------------------------|
G|--5-5-5-5-5-5-5-5-5-5-5-5-5-5-5-5--|-----------------------------------|
D|--5-5-5-5-5-5-5-5-5-5-5-5-5-5-5-5--|--2-2-2-2-2-2-2-2-2-2-2-2-2-2-2-2--|
A|--3-3-3-3-3-3-3-3-3-3-3-3-3-3-3-3--|--2-2-2-2-2-2-2-2-2-2-2-2-2-2-2-2--|
E|-----------------------------------|--0-0-0-0-0-0-0-0-0-0-0-0-0-0-0-0--|
Gtr 3
e|-----------------------------------|--------------------|4x
B|-----------------------------------|--------------------|
G|-----------------------------------|--------------------|
D|-----------------12-13-12--10--10--|--12-13-12--10--10--|
A|-----------------------------------|--------------------|
E|-----------------------------------|--------------------|

End on:
Gtr 1
e|----------|
B|----------|
G|--12~~~~--|
D|---x------|
A|--10~~~~--|
E|----------|
Gtr 2
e|---------|
B|---------|
G|--5~~~~--|
D|--5~~~~--|
A|--3~~~~--|
E|---------|
Gtr 3
e|--15----------------------15----------------------------|2x|--15~~--|
B|--------13----15-16-15-13-------13----15-15^(16)r15-13--|  |--------|
G|-----12----12----------------12----12-------------------|  |--------|
D|--------------------------------------------------------|  |--------|
A|--------------------------------------------------------|  |--------|
E|--------------------------------------------------------|  |--------|



TRACK NO. 11 – TEENAGERS

UPDATES:
8/28/07 - Updated!

Ins.:
	Gtr 1 – Frank Iero
	Gtr 2 – Ray Toro

I. VERSE

Gtr 2 (figure the PM’s yourself ^^)
e|---------------0---------------0--|--------------------------------0--|
B|---------------0---------------0--|--------------------------------0--|
G|----------------------------------|-----------------------------------|
D|----------------------------------|-------------------4-4-6-4--2/4----|
A|--2-2-4-2---------2-2-4-2---------|--2---4---5---4----2-2-4-2---------|
E|--0-0-0-0--2-4----0-0-0-0--2-4----|--0-0-0-0-0-0-0-0--2-2-4-2---------|
(continued)
e|---------------0---------------0--|-----------------------------------0--|
B|---------------0---------------0--|-----------------------------------0--|
G|----------------------------------|--------------------------------------|
D|----------------------------------|--------------------------------------|
A|--7-7-7-7--7------2-2-4-2---------|--9-9-11-9-12-9-11-9--2-2-4-2---------|
E|--5-5-4-5--4/5----0-0-0-0--2-4----|--7-7--7-7--7-7--7-7--0-0-0-0--2-4----|

Then, (Gtr 2 keeps playing ^^^ riff)
Gtr 1
e|----------------------------------|-------------------------------------|
B|----------------------------------|-------------------------------------|
G|----------------------------------|-------------------------------------|
D|----------------------------------|----------6-6-6-6--4-4-6-4-----------|
A|--7-7-7-7---------7-7-7-7---------|--7-7-7-7----------------------------|
E|----------------------------------|-------------------------------------|
(continued)
e|----------------------------------|--------------------------------------|
B|----------------------------------|--------------------------------------|
G|----------------------------------|--------------------------------------|
D|--7-7-7-7--7-6-4--4-4-6-----------|----------4-6-4-----------------------|
A|------------------------7--7-7----|--6-6-7-7-------7--7------------------|
E|----------------------------------|--------------------------------------|

Then, just before the chorus:
Gtr 2
E|---------------------|
B|---------------------|
G|--11/13-13-11-9\7-9--|
D|---------------------|
A|---------------------|
E|---------------------|


II. CHORUS

Gtr 1 (Fast strumming)
e|----------------------------------|------------------------------------|
B|----------------------------------|------------------------------------|
G|--9-9-8-9--4-6-8--9-9-8-9--4-6-8--|--9-9-9-9-13131313-11111311-111111--|
D|--x-x-x-x--x-x-x--x-x-x-x--x-x-x--|--x-x-x-x--x-x-x-x--x-x-x-x--x-x-x--|
A|--7-7-6-7--2-4-6--7-7-6-7--2-4-6--|--7-7-7-7-11111111--9-911-9--9-9-9--|
E|----------------------------------|------------------------------------|
Gtr 2
e|---------------0---------------0--|--------------------------------0--|
B|---------------0---------------0--|--------------------------------0--|
G|----------------------------------|-----------------------------------|
D|----------------------------------|-------------------4-4-6-4--2/4----|
A|--2-2-4-2---------2-2-4-2---------|--2-2-4-2-5-2-4-2--2-2-4-2---------|
E|--0-0-0-0--2-4----0-0-0-0--2-4----|--0-0-0-0-0-0-0-0--2-2-4-2---------|

Gtr 1
e|----------------------------------|----------------------|-----|
B|----------------------------------|----------------------|-----|
G|--14141414-141413-11-13-9--9-9-9--|--8-8-9-9-11-13-11-9--|--9--|
D|---x-x-x-x--x-x-x--x--x-x--x-x-x--|--x-x-x-x--x--x--x-x--|--x--|
A|--12121212-121211--9-11-7--7-7-7--|--6-6-7-7--9-11--9-7--|--7--|
E|----------------------------------|----------------------|-----|
Gtr 2
e|---------------0---------------0--|----------------------|-----|
B|---------------0---------------0--|----------------------|-----|
G|----------------------------------|----------------------|-----|
D|----------------------------------|----------------------|--2--|
A|--7-7-7-7--7------2-2-4-2---------|--9-9-11-9-12-9-11-9--|--2--|
E|--5-5-4-5--4/5----0-0-0-0--2-4----|--7-7--7-7--7-7--7-7--|--0--|

(Repeat VERSE and CHORUS)

III. SOLO

Gtr 1
e|-----------------------------------|-----------------------------------|
B|-----------------------------------|-----------------------------------|
G|-----------------------------------|-----------------------------------|
D|--7-7-7-7-7-7-7-7-7-7-7-7-7-7-7-7--|--2-2-2-2-2-2-2-2-2-2-2-2-2-2-2-2--|
A|--7-7-7-7-7-7-7-7-7-7-7-7-7-7-7-7--|--2-2-2-2-2-2-2-2-2-2-2-2-2-2-2-2--|
E|--5-5-5-5-5-5-5-5-5-5-5-5-5-5-5-5--|--0-0-0-0-0-0-0-0-0-0-0-0-0-0-0-0--|
(continued)
e|-----------------------------------|-----------------------------------|
B|-----------------------------------|-----------------------------------|
G|-----------------------------------|-----------------------------------|
D|--7-7-7-7-7-7-7-7-7-7-7-7-7-7-7-7--|--9-9-9-9-9-9-9-9-9-9-9-9-9-9-9-9--|
A|--7-7-7-7-7-7-7-7-7-7-7-7-7-7-7-7--|--9-9-9-9-9-9-9-9-9-9-9-9-9-9-9-9--|
E|--5-5-5-5-5-5-5-5-5-5-5-5-5-5-5-5--|--7-7-7-7-7-7-7-7-7-7-7-7-7-7-7-7--|
Gtr 2 (thanks to sloppyjoe24)
e|-----------------------------------12--|-----------12--|continued below
B|------------------------7-7h9-7h9--12--|-----------12--|
G|--9p7h9p7-9--7--5h6--9--7-7h9-7h9------|--14p12-13-----|
D|----------9--7--7----9-----------------|---------------|
A|---------------------------------------|---------------|
E|---------------------------------------|---------------|
(continued)
e|--------------------------------------------------|
B|--15^r^r-15-12h15p12-10h12p10-8--10^(12)rp8-10p8--|
G|--------------------------------------------------|
D|--------------------------------------------------|
A|--------------------------------------------------|
E|--------------------------------------------------|
(continued)
e|---------------------------------|
B|---------------------------------|
G|--9--7p5-6--9---9-9-9-7p5-6--9---|
D|--9---------9---9-9-9--------9---|
A|---------------------------------|
E|---------------------------------|
(continued)
e|-----------------------------------------------------|
B|-----------------------------------------------------|
G|--9^(11)~-9^-9^-9^-9^-9^-9^-9^-9^-9^-9^-9^-9^-9rvvv--|
D|-----------------------------------------------------|
A|-----------------------------------------------------|
E|-----------------------------------------------------|

Repeat CHORUS 2x

Gtr 2’s ending:
e|-------------------|
B|-------------------|
G|--9s11-11p9p7--9~--|
D|-------------------|
A|-------------------|
E|-------------------|


TRACK NO. 12 - DISENCHANTED (SHUT UP AND PLAY)

Ins.:
	Gtr 1 – Frank Iero
	Gtr 2 – Ray Toro

I. INTRO

Gtr 2
e|-----------------------------------|-----------------------------------|
B|-----------------------------------|--3---3---3------------------------|
G|--7---7---7-------0---0---0---0----|----2---2---2-0---0---0---0-2-0----|
D|----7---7---7-5-4---4---4---7---4--|----------------4---4---4-------4--|
A|--5---------------5----------------|--2---------------2----------------|
E|-----------------------------------|-----------------------------------|
(continued)
e|-----------------------------------|-----------------------------------|
B|--3---3---3------------------------|--3---3---3------------------------|
G|----2---2---2-0---0---0---0-2-0----|----2---2---2-0---0---0---0-2-0----|
D|----------------4---4---4-------4--|----------------4---4---4-------4--|
A|-----------------------------------|--0---------------0----------------|
E|--3---------------3----------------|-----------------------------------|


II. VERSE 1

Gtr 2
e|-----------------------------------|-----------------------------------|
B|-----------------------------------|--3---3---3------------------------|
G|--7---7---7-------0---0---0---0----|----2---2---2-0---0---0---0-2-0----|
D|----7---7---7-5-4---4---4---7---4--|----------------4---4---4-------4--|
A|--5---------------5----------------|--2---------------2----------------|
E|-----------------------------------|-----------------------------------|
(continued)
e|-----------------------------------|-----------------------------------|
B|--3---3---3------------------------|--3---3---3------------------------|
G|----2---2---2-0---0---0---0-2-0----|----2---2---2-0---0---0---0--------|
D|----------------4---4---4-------4--|----------------4---4---4---4-2-0--|
A|-----------------------------------|--0---------------0----------------|
E|--3---------------3----------------|-----------------------------------|

Both guitars
e|---------|---------|---------|---------------|
B|---------|---------|---------|---------------|
G|--7~~~~--|--4~~~~--|---------|---------------|
D|--7~~~~--|--4~~~~--|--5~~~~--|--7~~~--7~-8~--|
A|--5~~~~--|--2~~~~--|--5~~~~--|--7~~~--7~-9~--|
E|---------|---------|--3~~~~--|--5~~~--5~-6~--|


III. REFRAIN

Both guitars
e|------------|----------------------|------------|
B|------------|----------------------|------------|
G|--4~~-------|-------7-7--7-6-6--6--|--4~~-------|
D|--4~~--2~~--|--7~~--7-7--7-7-7--7--|--4~~--5~~--|
A|--2~~--2~~--|--7~~--5-5--5-4-4--4--|--2~~--5~~--|
E|-------0~~--|--5~~-----------------|-------3~~--|

Then,
Gtr 1
e|-----------------------------------|
B|-----------------------------------|
G|--2~~-------------2~~--------------|
D|--2~~-------------2~~--------------|
A|--0~~-------------0~~--------------|
E|-----------------------------------|
Gtr 2
e|-----------------------------------|
B|-----------------------------------|
G|-----------------------------------|
D|-----------------------------------|
A|------------------4-4-4-4-5-5-7-7--|
E|--5-5-5-5-7-7-7-7------------------|


IV. CHORUS

Gtr 1
e|------------------------------------|------------------------------------|
B|------------------------------------|------------------------------------|
G|--12121211111111111212121111111414--|--1212121111111111121212111111-9-9--|
D|---x-x-x-x-x-x-x-x-x-x-x-x-x-x-x-x--|---x-x-x-x-x-x-x-x-x-x-x-x-x-x-x-x--|
A|--101010-9-9-9-9-9101010-9-9-91212--|--101010-9-9-9-9-9101010-9-9-9-7-7--|
E|------------------------------------|------------------------------------|
Gtr 2
e|-----------------------------------|-----------------------------------|
B|-----------------------------------|-----------------------------------|
G|--7-7-7-7-7-7-7-7-7-7-7-7-7-7-7-7--|--4-4-4-4-4-4-4-4-4-4-4-4-4-4-4-4--|
D|--7-7-7-7-7-7-7-7-7-7-7-7-7-7-7-7--|--4-4-4-4-4-4-4-4-4-4-4-4-4-4-4-4--|
A|--5-5-5-5-5-5-5-5-5-5-5-5-5-5-5-5--|--2-2-2-2-2-2-2-2-2-2-2-2-2-2-2-2--|
E|-----------------------------------|-----------------------------------|

Gtr 1
e|------------------------------------|------------------------------------|
B|------------------------------------|------------------------------------|
G|--12121212121212121212121214141616--|--14141414141414141414141414141414--|
D|---x-x-x-x-x-x-x-x-x-x-x-x-x-x-x-x--|---x-x-x-x-x-x-x-x-x-x-x-x-x-x-x-x--|
A|--10101010101010101010101012121414--|--12121212121212121212121212121212--|
E|------------------------------------|------------------------------------|
Gtr 2
e|-----------------------------------|-----------------------------------|
B|-----------------------------------|-----------------------------------|
G|-----------------------------------|-----------------------------------|
D|--5-5-5-5-5-5-5-5-5-5-5-5-5-5-5-5--|--7-7-7-7-7-7-7-7-7-7-7-7-7-7-7-7--|
A|--5-5-5-5-5-5-5-5-5-5-5-5-5-5-5-5--|--7-7-7-7-7-7-7-7-7-7-7-7-7-7-7-7--|
E|--3-3-3-3-3-3-3-3-3-3-3-3-3-3-3-3--|--5-5-5-5-5-5-5-5-5-5-5-5-5-5-5-5--|


V. VERSE 2

Gtr 1
e|-------------------|-------------------|---------|----------------------|
B|-------------------|-------------------|---------|----------------------|
G|--7~~~~------------|--4~~~~------------|---------|----------------------|
D|--7~~~~------------|--4~~~~------------|--5~~~~--|--7~~------------7~~--|
A|--5~~~~------------|--2~~~~------------|--5~~~~--|--7~~------------7~~--|
E|-------------------|-------------------|--3~~~~--|--5~~------------5~~--|
Gtr 2
e|-------14----------|-------10----------|---------|----------------------|
B|----------15-------|----------10-------|---------|----------------------|
G|--7~~--------14~~--|-------------12~~--|---------|--------7--6----------|
D|--7~~--------------|-------------------|--5~~~~--|------7-------7--7~~--|
A|--5~~--------------|-------------------|--5~~~~--|----7------------7~~--|
E|-------------------|-------------------|--3~~~~--|--5--------------5~~--|

(Repeat REFRAIN and CHORUS)

VI. BRIDGE

Gtr 1
e|-------------------------|2x
B|-------------------------|
G|--7~~--7~~--7-9-11-------|
D|--7~~--7~~--x-x--x--8~~--|
A|--5~~--5~~--5-7--9--8~~--|
E|--------------------6~~--|
Gtr 2
e|--17~~-17~~-18-18-20-18--|--17~~-17~~-18-18-20-18-17--|
B|-------------------------|----------------------------|
G|-------------------------|----------------------------|
D|-------------------------|----------------------------|
A|-------------------------|----------------------------|
E|-------------------------|----------------------------|

(SOLO)
Gtr 1
e|-------------------------------|-----------------------------------|
B|-------------------------------|-----------------------------------|
G|--7-7--7-6-6--6-4-4--4---------|-----------------------------------|
D|--7-7--7-7-7--7-4-4--4-7-7--7--|--5-5-5-5-5-5-5-5-7-7-7-7-7-7-7-7--|
A|--5-5--5-4-4--4-2-2--2-7-7--7--|--5-5-5-5-5-5-5-5-7-7-7-7-7-7-7-7--|
E|-----------------------5-5--5--|--3-3-3-3-3-3-3-3-5-5-5-5-5-5-5-5--|
Gtr 2 (not 100% sure)
e|--21^(22)-21^(22)~-----19p17p15-17p15p14-19p17p15-17p15p14----15-14-14--|
B|-------------------19--------------------------------------17-----------|
G|------------------------------------------------------------------------|
D|------------------------------------------------------------------------|
A|------------------------------------------------------------------------|
E|------------------------------------------------------------------------|
(continued)
e|------------------------------------------------------------|
B|--17p15p14h15p14--------------------------------------15~~--|
G|-----------------16p14h16p14--------------------11-12-------|
D|-----------------------------16p14h16p14-12~~---------------|
A|------------------------------------------------------------|
E|------------------------------------------------------------|


VII. ADLIB

Gtr 1
e|-----------------------------------|-----------------------------------|
B|-----------------------------------|-----------------------------------|
G|--7-7-7-7-7-7-7-7-7-7-7-7-7-7-7-7--|--4-4-4-4-4-4-4-4-4-4-4-4-4-4-4-4--|
D|--7-7-7-7-7-7-7-7-7-7-7-7-7-7-7-7--|--4-4-4-4-4-4-4-4-4-4-4-4-4-4-4-4--|
A|--5-5-5-5-5-5-5-5-5-5-5-5-5-5-5-5--|--2-2-2-2-2-2-2-2-2-2-2-2-2-2-2-2--|
E|-----------------------------------|-----------------------------------|
Gtr 2
e|-----------------------------------|-----------------------------------|
B|-----------------------------------|--3---3---3------------------------|
G|--7---7---7-------0---0---0---0----|----2---2---2-0---0---0---0-2-0----|
D|----7---7---7-5-4---4---4---7---4--|----------------4---4---4-------4--|
A|--5---------------5----------------|--2---------------2----------------|
E|-----------------------------------|-----------------------------------|

Gtr 1
e|-----------------------------------|-----------------------------------|
B|-----------------------------------|-----------------------------------|
G|-----------------------------------|-----------------------------------|
D|--5-5-5-5-5-5-5-5-5-5-5-5-5-5-5-5--|--7-7-7-7-7-7-7-7-7-7-7-7-7-7-7-7--|
A|--5-5-5-5-5-5-5-5-5-5-5-5-5-5-5-5--|--7-7-7-7-7-7-7-7-7-7-7-7-7-7-7-7--|
E|--3-3-3-3-3-3-3-3-3-3-3-3-3-3-3-3--|--5-5-5-5-5-5-5-5-5-5-5-5-5-5-5-5--|
Gtr 2
e|-----------------------------------|-----------------------------------|
B|--3---3---3------------------------|--3---3---3------------------------|
G|----2---2---2-0---0---0---0-2-0----|----2---2---2-0---0---0---0--------|
D|----------------4---4---4-------4--|----------------4---4---4---4-2-0--|
A|-----------------------------------|--0---------------0----------------|
E|--3---------------3----------------|-----------------------------------|

(Repeat CHORUS 2x - on the second repeat, another overdubbed guitar
fills in. You can just do it yourself :)

VIII. OUTRO

Gtr 1
e|---------|
B|---------|
G|--7~~~~--|
D|--7~~~~--|
A|--5~~~~--|
E|---------|
Gtr 2
e|-----------------------------------|-----------------------------------|
B|-----------------------------------|--3---3---3------------------------|
G|--7---7---7-------0---0---0---0----|----2---2---2-0---0---0---0-2-0----|
D|----7---7---7-5-4---4---4---7---4--|----------------4---4---4-------4--|
A|--5---------------5----------------|--2---------------2----------------|
E|-----------------------------------|-----------------------------------|
(continued)
e|-----------------------------------|-----------------------------------|
B|--3---3---3------------------------|--3---3---3------------------------|
G|----2---2---2-0---0---0---0-2-0----|----2---2---2-0---0---0---0--------|
D|----------------4---4---4-------4--|----------------4---4---4---4-2-0--|
A|-----------------------------------|--0---------------0----------------|
E|--3---------------3----------------|-----------------------------------|
(continued)
e|--2~~~~--|
B|--3~~~~--|
G|--2~~~~--|
D|--0~~~~--|
A|---------|
E|---------|

TRACK NO. 13 - FAMOUS LAST WORDS

Ins.:
	Gtr 1 – Frank Iero (right speaker)
	Gtr 2 – Ray Toro (left speaker)

I.  VERSE 1

Gtr 2
e|-----------------------------------|-----------------------------------|
B|--6-6------------------------------|-----------------------------------|
G|--7-7------------------------------|-----------------------------------|
D|--7-7-7-7-7-7-7-7-7-7-7-7-5-5-5-5--|--------------------------7-7-7-7--|
A|--5-5-5-5-5-5-5-5-5-5-5-5-3-3-3-3--|--8-8-8-8-8-8-8-8-8-8-8-8-8-8-8-8--|
E|-----------------------------------|--6-6-6-6-6-6-6-6-6-6-6-6-5-5-5-5--|
 (continued)
e|-----------------------------------|-----------------------------------|
B|-----------------------------------|-----------------------------------|
G|--5-5-5-5-3-3-3-3------------------|-----------------------------------|
D|--5-5-5-5-5-5-5-5------------------|-----------------------------------|
A|--5-5-5-5-5-5-5-5-7-7-7-710101010--|--8-8-8-8-8-8-8-8-8-8-8-8-7-7-7-7--|
E|--3-3-3-3-3-3-3-3-5-5-5-5-5-5-5-5--|--6-6-6-6-6-6-6-6-8-8-8-8-8-8-8-8--|
(Figure the correct palm muting.)
(Uh-oh, thanks to Mathamology for correcting that ^^^ part :)

Then,
Gtr 1 (comes in with the church organ)
e|-----------------------------------|-----------------------------------|
B|-----------------------------------|-----------------------------------|
G|--7-7------------------------------|-----------------------------------|
D|--7-7------------------------------|--8-8------------------------------|
A|--5-5------------------------------|--8-8------------------------------|
E|-----------------------------------|--6-6------------------------------|
Gtr 2
e|-----------------------------------|-----------------------------------|
B|--6-6------------------------------|-----------------------------------|
G|--7-7------------------------------|-----------------------------------|
D|--7-7-7-7-7-7-7-7-7-7-7-7-5-5-5-5--|--8-8---------------------7-7-7-7--|
A|--5-5-5-5-5-5-5-5-5-5-5-5-3-3-3-3--|--8-8-8-8-8-8-8-8-8-8-8-8-8-8-8-8--|
E|-----------------------------------|--6-6-6-6-6-6-6-6-6-6-6-6-5-5-5-5--|

Gtr 1
e|-----------------------------------|-----------------------------------|
B|-----------------------------------|-----------------------------------|
G|-----------------------------------|------------------5----------------|
D|--5-5------------------------------|--8-8-------------5----------------|
A|--5-5------------------------------|--8-8-------------3----------------|
E|--3-3------------------------------|--6-6------------------------------|
Gtr 2
e|-----------------------------------|-----------------------------------|
B|-----------------------------------|-----------------------------------|
G|--5-5-5-5-3-3-3-3------------------|-----------------------------------|
D|--5-5-5-5-5-5-5-5------------------|--8-8------------------------------|
A|--5-5-5-5-5-5-5-5-7-7-7-710101010--|--8-8-8-8-8-8-8-8-8-8-8-8-7-7-7-7--|
E|--3-3-3-3-3-3-3-3-5-5-5-5-5-5-5-5--|--6-6-6-6-6-6-6-6-8-8-8-8-8-8-8-8--|


II. BREAKDOWN

Gtr 1
e|-------------------------------------|----------------------------------|
B|-------------------------------------|----------------------------------|
G|--7-7--------------7-7---------------|------------------7-7-7-7-7-7-7/--|
D|--7-7--------------7-7---------------|------------3-----7-7-7-7-7-7-7/--|
A|--5-5--------------5-5---------------|--5-5-5-3-5---5-3-5-5-5-5-5-5-5/--|
E|-------------------------------------|----------------------------------|
Gtr 2
e|-------------------------------------|----------------------------------|
B|-------------------------------------|----------------------------------|
G|--7-7--------------7-7---------------|--7-7-------------7-7-7-7-7-7-7/--|
D|--x-x-------3v-----x-x-------3-5^-3--|--x-x-------3-----7-7-7-7-7-7-7/--|
A|--5-5-5-3-5----5-3-5-5-5-3-5---------|--5-5-5-3-5---5-3-5-5-5-5-5-5-5/--|
E|-------------------------------------|----------------------------------|


III. VERSE 2

Gtr 1
e|------------------------------------|------------------------------------|
B|------------------------------------|------------------------------------|
G|--7-7-7-7-7-7-7-7/10101010-9-9-9-9--|--7-7-7-7-7-7-7-7/10101010-9-9-9-9--|
D|--x-x-x-x-x-x-x-x--x-x-x-x-x-x-x-x--|--x-x-x-x-x-x-x-x--x-x-x-x-x-x-x-x--|
A|--5-5-5-5-5-5-5-5/-8-8-8-8-7-7-7-7--|--5-5-5-5-5-5-5-5/-8-8-8-8-7-7-7-7--|
E|------------------------------------|------------------------------------|
(continued)
e|-----------------------------------|------------------------------------|
B|-----------------------------------|------------------------------------|
G|--7-7-7-7-7-7-7-7-5-5-5-5-5-5-5-5--|--10101010101010101212121212121212--|
D|--x-x-x-x-x-x-x-x-x-x-x-x-x-x-x-x--|---x-x-x-x-x-x-x-x-x-x-x-x-x-x-x-x--|
A|--5-5-5-5-5-5-5-5-3-3-3-3-3-3-3-3--|---8-8-8-8-8-8-8-81010101010101010--|
E|-----------------------------------|------------------------------------|
(continued)
e|------------------------------------|------------------------------------|
B|------------------------------------|------------------------------------|
G|--7-7-7-7-7-7-7-7/10101010-9-9-9-9--|--7-7-7-7-7-7-7-7/1010101012121212--|
D|--x-x-x-x-x-x-x-x--x-x-x-x-x-x-x-x--|--x-x-x-x-x-x-x-x--x-x-x-x-x-x-x-x--|
A|--5-5-5-5-5-5-5-5/-8-8-8-8-7-7-7-7--|--5-5-5-5-5-5-5-5/-8-8-8-810101010--|
E|------------------------------------|------------------------------------|
(continued)
e|-----------------------------------|-------------------------------|
B|-----------------------------------|-------------------------------|
G|--7-7-7-7-7-7-7-7-9-9-9-9-9-9-9-9--|--10101010101010101212121212\--|
D|--x-x-x-x-x-x-x-x-x-x-x-x-x-x-x-x--|---x-x-x-x-x-x-x-x-x-x-x-x-x---|
A|--5-5-5-5-5-5-5-5-7-7-7-7-7-7-7-7--|---8-8-8-8-8-8-8-81010101010\--|
E|-----------------------------------|-------------------------------|

Gtr 2
e|-----------------------------------|-----------------------------------|
B|-----------------------------------|-----------------------------------|
G|--7-7-7-7-7-7-7-7-7-7-7-7-5-5-5-5--|-----------------------------------|
D|--7-7-7-7-7-7-7-7-7-7-7-7-5-5-5-5--|--8-8-8-8-8-8-8-8-8-8-8-8-7-7-7-7--|
A|--5-5-5-5-5-5-5-5-5-5-5-5-3-3-3-3--|--8-8-8-8-8-8-8-8-8-8-8-8-8-8-8-8--|
E|-----------------------------------|--6-6-6-6-6-6-6-6-6-6-6-6-5-5-5-5--|
(continued)
e|-----------------------------------|-----------------------------------|
B|-----------------------------------|-----------------------------------|
G|-----------------------------------|------------------5-5-5-5-5-5-5-5--|
D|--5-5-5-5-5-5-5-5-7-7-7-7-7-7-7-7--|--8-8-8-8-8-8-8-8-5-5-5-5-5-5-5-5--|
A|--5-5-5-5-5-5-5-5-7-7-7-7-7-7-7-7--|--8-8-8-8-8-8-8-8-3-3-3-3-3-3-3-3--|
E|--3-3-3-3-3-3-3-3-5-5-5-5-5-5-5-5--|--6-6-6-6-6-6-6-6------------------|
(continued)
e|-----------------------------------|-----------------------------------|
B|-----------------------------------|-----------------------------------|
G|--7-7-7-7-7-7-7-7-7-7-7-7-5-5-5-5--|-----------------------------------|
D|--7-7-7-7-7-7-7-7-7-7-7-7-5-5-5-5--|--8-8-8-8-8-8-8-8-8-8-8-8-7-7-7-7--|
A|--5-5-5-5-5-5-5-5-5-5-5-5-3-3-3-3--|--8-8-8-8-8-8-8-8-8-8-8-8-8-8-8-8--|
E|-----------------------------------|--6-6-6-6-6-6-6-6-6-6-6-6-5-5-5-5--|
(continued)
e|-----------------------------------|------------------------------|
B|-----------------------------------|------------------------------|
G|-----------------------------------|------------------5-5-5-5-5\--|
D|--5-5-5-5-5-5-5-5-7-7-7-7-7-7-7-7--|--8-8-8-8-8-8-8-8-5-5-5-5-5\--|
A|--5-5-5-5-5-5-5-5-7-7-7-7-7-7-7-7--|--8-8-8-8-8-8-8-8-3-3-3-3-3\--|
E|--3-3-3-3-3-3-3-3-5-5-5-5-5-5-5-5--|--6-6-6-6-6-6-6-6-------------|


IV. CHORUS

Gtr 1
e|------------------------------------|------------------------------------|
B|------------------------------------|------------------------------------|
G|--14141414141414141414141412121010--|--14141414141414141414141412121010--|
D|---x-x-x-x-x-x-x-x-x-x-x-x-x-x-x-x--|---x-x-x-x-x-x-x-x-x-x-x-x-x-x-x-x--|
A|--1212121212121212121212121010-8-8--|--1212121212121212121212121010-8-8--|
E|------------------------------------|------------------------------------|
(continued)
e|------------------------------------|-------------------------------------|
B|------------------------------------|-------------------------------------|
G|--10101010101010101212121212121212--|--101010\9-9\7-7-7-101010\9-9\7\5-5--|
D|---x-x-x-x-x-x-x-x-x-x-x-x-x-x-x-x--|---x-x-x-x-x-x-x-x--x-x-x-x-x-x-x-x--|
A|---8-8-8-8-8-8-8-81010101010101010--|---8-8-8\7-7\5-5-5--8-8-8\7-7\5\3-3--|
E|------------------------------------|-------------------------------------|

Gtr 2
e|------------------------------------|-----------------------------------|
B|------------------------------------|-----------------------------------|
G|--101010101010101010101010-9-9-9-9--|--7-7-7-7-7-7-7-7-7-7-7-7-5-5-5-5--|
D|--10101010101010101010101010101010--|--7-7-7-7-7-7-7-7-7-7-7-7-5-5-5-5--|
A|---8-8-8-8-8-8-8-8-8-8-8-8-7-7-7-7--|--5-5-5-5-5-5-5-5-5-5-5-5-3-3-3-3--|
E|------------------------------------|-----------------------------------|
(continued)
e|-----------------------------------|-----------------------------------|
B|-----------------------------------|-----------------------------------|
G|--3-3-3-3-3-3-3-3-5-5-5-5-5-5-5-5--|------------------5-5-5-5-5-5-5-5--|
D|--3-3-3-3-3-3-3-3-5-5-5-5-5-5-5-5--|--5-5-5-5-5-5-5-5-5-5-5-5-5-5-5-5--|
A|--1-1-1-1-1-1-1-1-3-3-3-3-3-3-3-3--|--5-5-5-5-5-5-5-5-3-3-3-3-3-3-3-3--|
E|-----------------------------------|--3-3-3-3-3-3-3-3------------------|

(Repeat BREAKDOWN)

Gtr 1
e|-----------------------------------|-----------------------------------|
B|------------6---------------6------|------------6---------------6------|
G|--7-7-7-5-7---7-5-7-7-7-5-7---7-5--|--7-7-7-5-7---7-5-7-7-7-5-7---7-5--|
D|-----------------------------------|-----------------------------------|
A|-----------------------------------|-----------------------------------|
E|-----------------------------------|-----------------------------------|
(continued)
e|-----------------------------------|-----------------------------------|
B|------------6-----6-6-6-5-5--------|--6-6-6-5-5-------6-6-6-5-5--------|
G|--7-7-7-5-7---7-5-----------7-5-3--|------------7-5-3-----------7-5-2--|
D|-----------------------------------|-----------------------------------|
A|-----------------------------------|-----------------------------------|
E|-----------------------------------|-----------------------------------|
(continued)
e|-----------------------------------|-----------------------------------|
B|------------6---------------6------|------------6---------------6------|
G|--7-7-7-5-7---7-5-7-7-7-5-7---7-5--|--7-7-7-5-7---7-5-7-7-7-5-7---7-5--|
D|-----------------------------------|-----------------------------------|
A|-----------------------------------|-----------------------------------|
E|-----------------------------------|-----------------------------------|
(continued)
e|-----------------------------------|------------------------------|
B|------------6-----6-6-6-5-5--------|--6-6-6-5-5-------6-6-6-6-5\--|
G|--7-7-7-5-7---7-5-----------7-5-3--|------------7-5-3-------------|
D|-----------------------------------|------------------------------|
A|-----------------------------------|------------------------------|
E|-----------------------------------|------------------------------|

Gtr 2
e|-----------------------------------|-----------------------------------|
B|-----------------------------------|-----------------------------------|
G|--7-7-7-7-7-7-7-7-7-7-7-7-5-5-5-5--|-----------------------------------|
D|--7-7-7-7-7-7-7-7-7-7-7-7-5-5-5-5--|--8-8-8-8-8-8-8-8-8-8-8-8-7-7-7-7--|
A|--5-5-5-5-5-5-5-5-5-5-5-5-3-3-3-3--|--8-8-8-8-8-8-8-8-8-8-8-8-8-8-8-8--|
E|-----------------------------------|--6-6-6-6-6-6-6-6-6-6-6-6-5-5-5-5--|
(continued)
e|-----------------------------------|-----------------------------------|
B|-----------------------------------|-----------------------------------|
G|-----------------------------------|------------------5-5-5-5-5-5-5-5--|
D|--5-5-5-5-5-5-5-5-7-7-7-7-7-7-7-7--|--8-8-8-8-8-8-8-8-5-5-5-5-5-5-5-5--|
A|--5-5-5-5-5-5-5-5-7-7-7-7-7-7-7-7--|--8-8-8-8-8-8-8-8-3-3-3-3-3-3-3-3--|
E|--3-3-3-3-3-3-3-3-5-5-5-5-5-5-5-5--|--6-6-6-6-6-6-6-6------------------|
(continued)
e|-----------------------------------|-----------------------------------|
B|-----------------------------------|-----------------------------------|
G|--7-7-7-7-7-7-7-7-7-7-7-7-5-5-5-5--|-----------------------------------|
D|--7-7-7-7-7-7-7-7-7-7-7-7-5-5-5-5--|--8-8-8-8-8-8-8-8-8-8-8-8-7-7-7-7--|
A|--5-5-5-5-5-5-5-5-5-5-5-5-3-3-3-3--|--8-8-8-8-8-8-8-8-8-8-8-8-8-8-8-8--|
E|-----------------------------------|--6-6-6-6-6-6-6-6-6-6-6-6-5-5-5-5--|
(continued)
e|-----------------------------------|------------------------------|
B|-----------------------------------|------------------------------|
G|-----------------------------------|------------------5-5-5-5-5\--|
D|--5-5-5-5-5-5-5-5-7-7-7-7-7-7-7-7--|--8-8-8-8-8-8-8-8-5-5-5-5-5\--|
A|--5-5-5-5-5-5-5-5-7-7-7-7-7-7-7-7--|--8-8-8-8-8-8-8-8-3-3-3-3-3\--|
E|--3-3-3-3-3-3-3-3-5-5-5-5-5-5-5-5--|--6-6-6-6-6-6-6-6-------------|

[Repeat CHORUS 2x]


V. SOLO

Gtr 1
e|------------------|--------------------|3x
B|------------------|--------------------|
G|--7--5------------|--------------------|
D|--7--5--8--7-5-3--|--5555555577777777--|
A|--5--3--8--7-5-3--|--5555555577777777--|
E|--------6--5-3-1--|--3333333355555555--|
(continued)
e|------------------|--------------------|
B|------------------|--------------------|
G|--7--5------------|----------55555555--|
D|--7--5--8--7-5-3--|--5555555555555555--|
A|--5--3--8--7-5-3--|--5555555533333333--|
E|--------6--5-3-1--|--33333333----------|
Gtr 2
e|--10-------10-------10----15-13~------13p10--------------------|
B|--13^(15)~-13^(15)~----13---------15--------13p10-13p11p10-----|
G|-----------------------------------------------------------12--|
D|---------------------------------------------------------------|
A|---------------------------------------------------------------|
E|---------------------------------------------------------------|
(continued)
e|--10-------10-------8----8------8--------------------------------|
B|--13^(15)~-13^(15)~---10---10~--11^(13)~-8--10p8-----------------|
G|------------------------------------------------10p9-10p9--------|
D|----------------------------------------------------------12p10--|
A|-----------------------------------------------------------------|
E|-----------------------------------------------------------------|
(continued)
e|---------------------------------------------------------------------------|
B|-----------------10--8--10^(11)~-10--8----8--------------------------------|
G|--10--9--12--10------------------------10---10~-10-10-9-10p9p7----7p5------|
D|--|--tremolo-picking--|----------------------------------------10-----8p7--|
A|---------------------------------------------------------------------------|
E|---------------------------------------------------------------------------|
(continued)
e|------------------|
B|------------------|
G|--7~-7~-7~-5-3-2--|
D|------------------|
A|------------------|
E|------------------|
(continued)
e|-------------------------------------------------------|
B|-------------------------------------------------------|
G|--------------------------10h12-14h15p14-10/12-12/14~--|
D|-----------------5h7h8h10------------------------------|
A|--------5h7h8h10---------------------------------------|
E|--3h5h6------------------------------------------------|
(continued)
e|--------------------10----15-13~---------|
B|--13^(15)~-13^(15)~----13---------15-13--|
G|-----------------------------------------|
D|-----------------------------------------|
A|-----------------------------------------|
E|-----------------------------------------|
(continued)
e|------------|--13^(15)~--|--13--------|
B|--13^(15)~--|------------|--17^(18)~--|
G|------------|------------|------------|
D|------------|------------|------------|
A|----(8x)----|----(8x)----|----(2x)----|
E|------------|------------|------------|


VI. BRIDGE

Gtr 2 (figure the palm mutes)
e|-------------------------------------|-----------------------------------|
B|-------------------------------------|-----------------------------------|
G|--1010-------------------------------|-----------------------------------|
D|---x-x-1010101010101010101010101010--|--7-7-7-7-7-7-7-7-7-7-7-7----------|
A|---8-8--8-8-8-8-8-8-8-8-8-8-7-7-7-7--|--5-5-5-5-5-5-5-5-5-5-5-5-7-7-7-7--|
E|-------------------------------------|--------------------------5-5-5-5--|
(continued)
e|-----------------------------------|-----------------------------------|
B|-----------------------------------|-----------------------------------|
G|-----------------------------------|-----------------------------------|
D|--3-3-3-3-3-3-3-3-5-5-5-5-5-5-5-5--|------------------5-5-5-5-3-3-3-3--|
A|--1-1-1-1-1-1-1-1-3-3-3-3-3-3-3-3--|--5-5-5-5-5-5-5-5-3-3-3-3-1-1-1-1--|
E|-----------------------------------|--3-3-3-3-3-3-3-3------------------|
(continued)
e|-----------------------------------|-----------------------------------|
B|-----------------------------------|-----------------------------------|
G|-----------------------------------|-----------------------------------|
D|--------------------------5-5-5-5--|--7-7-7-7-7-7-7-7-7-7-7-7-5-5-5-5--|
A|--7-7-7-7-7-7-7-7-7-7-7-7-3-3-3-3--|--5-5-5-5-5-5-5-5-5-5-5-5-3-3-3-3--|
E|--5-5-5-5-5-5-5-5-5-5-5-5----------|-----------------------------------|
(continued)
e|-----------------------------------|-----------------------------------|
B|-----------------------------------|-----------------------------------|
G|-----------------------------------|-----------------------------------|
D|--3-3-3-3-3-3-3-3-5-5-5-5-5-5-5-5--|------------------5-5-5-5-3-3-3-3--|
A|--1-1-1-1-1-1-1-1-3-3-3-3-3-3-3-3--|--5-5-5-5-5-5-5-5-3-3-3-3-1-1-1-1--|
E|-----------------------------------|--3-3-3-3-3-3-3-3------------------|

Gtr 1 (figure the timing)
e|------------2x--------------|----------------------|------------------------|
B|----------------------------|----------------------|------------------------|
G|--10-101010-10-12/14\12-10--|--10-101010-10-9-7-9--|--10-9-7-9-12/14\12-10--|
D|---x--x-x-x--x--x--x--x--x--|---x--x-x-x--x-x-x-x--|---x-x-x-x--x--x--x--x--|
A|---8--8-8-8--8-10/12\10--8--|---8--8-8-8--8-7-5-7--|---8-7-5-7-10/12\10--8--|
E|----------------------------|----------------------|------------------------|

Then,
Gtr 1
e|------------------------------------|-------------------------------------|
B|------------------------------------|-------------------------------------|
G|--17171717171717171717171714141212--|--10101010101010/171719191414141512--|
D|---x-x-x-x-x-x-x-x-x-x-x-x-x-x-x-x--|---x-x-x-x-x-x-x--x-x-x-x-x-x-x-x-x--|
A|--15151515151515151515151512121010--|---8-8-8-8-8-8-8/151517171212121310--|
E|------------------------------------|-------------------------------------|
(continued)
e|------------------------------------|------------------------------------|
B|------------------------------------|------------------------------------|
G|--1010101010101010-9-9-9-9-9-9-9-9--|--10101010101010101212121210101010--|
D|---x-x-x-x-x-x-x-x-x-x-x-x-x-x-x-x--|---x-x-x-x-x-x-x-x-x-x-x-x-x-x-x-x--|
A|---8-8-8-8-8-8-8-8-7-7-7-7-7-7-7-7--|---8-8-8-8-8-8-8-810101010-8-8-8-8--|
E|------------------------------------|------------------------------------|
(continued)
e|------------------------------------|-------------------------------------|
B|------------------------------------|-------------------------------------|
G|--17171717171717171717171714141212--|--10101010101010/171719191414141512--|
D|---x-x-x-x-x-x-x-x-x-x-x-x-x-x-x-x--|---x-x-x-x-x-x-x--x-x-x-x-x-x-x-x-x--|
A|--15151515151515151515151512121010--|---8-8-8-8-8-8-8/151517171212121310--|
E|------------------------------------|-------------------------------------|
(continued)
e|------------------------------------|-------------------------------------|
B|------------------------------------|-------------------------------------|
G|--1010101010101010-9-9-9-9-9-9-9-9--|--101010-9-9-7-7-7-101010-9-9-7-5-5--|
D|---x-x-x-x-x-x-x-x-x-x-x-x-x-x-x-x--|---x-x-x-x-x-x-x-x--x-x-x-x-x-x-x-x--|
A|---8-8-8-8-8-8-8-8-7-7-7-7-7-7-7-7--|---8-8-8-7-7-5-5-5--8-8-8-7-7-5-3-3--|
E|------------------------------------|-------------------------------------|


Gtr 2
e|------------------------------------|-----------------------------------|
B|------------------------------------|-----------------------------------|
G|--101010101010101010101010-9-9-9-9--|--7-7-7-7-7-7-7-7-7-7-7-7-5-5-5-5--|
D|--10101010101010101010101010101010--|--7-7-7-7-7-7-7-7-7-7-7-7-5-5-5-5--|
A|---8-8-8-8-8-8-8-8-8-8-8-8-7-7-7-7--|--5-5-5-5-5-5-5-5-5-5-5-5-3-3-3-3--|
E|------------------------------------|-----------------------------------|
(continued)
e|-----------------------------------|-----------------------------------|
B|-----------------------------------|-----------------------------------|
G|--3-3-3-3-3-3-3-3-5-5-5-5-5-5-5-5--|------------------5-5-5-5-5-5-5-5--|
D|--3-3-3-3-3-3-3-3-5-5-5-5-5-5-5-5--|--5-5-5-5-5-5-5-5-5-5-5-5-5-5-5-5--|
A|--1-1-1-1-1-1-1-1-3-3-3-3-3-3-3-3--|--5-5-5-5-5-5-5-5-3-3-3-3-3-3-3-3--|
E|-----------------------------------|--3-3-3-3-3-3-3-3------------------|
(continued)
e|-----------------------------------|-----------------------------------|
B|-----------------------------------|-----------------------------------|
G|--2-2-2-2-2-2-2-2-2-2-2-2-5-5-5-5--|--7-7-7-7-7-7-7-7-7-7-7-7-5-5-5-5--|
D|--2-2-2-2-2-2-2-2-2-2-2-2-5-5-5-5--|--7-7-7-7-7-7-7-7-7-7-7-7-5-5-5-5--|
A|--0-0-0-0-0-0-0-0-0-0-0-0-3-3-3-3--|--5-5-5-5-5-5-5-5-5-5-5-5-3-3-3-3--|
E|-----------------------------------|-----------------------------------|
(continued)
e|-----------------------------------|-----------------------------------|
B|-----------------------------------|-----------------------------------|
G|--3-3-3-3-3-3-3-3-5-5-5-5-5-5-5-5--|------------------5-5-5-5-5-5-5-5--|
D|--3-3-3-3-3-3-3-3-5-5-5-5-5-5-5-5--|--5-5-5-5-5-5-5-5-5-5-5-5-5-5-5-5--|
A|--1-1-1-1-1-1-1-1-3-3-3-3-3-3-3-3--|--5-5-5-5-5-5-5-5-3-3-3-3-3-3-3-3--|
E|-----------------------------------|--3-3-3-3-3-3-3-3------------------|

VII. CODA / OUTRO (is it okay to call it “CODA”?)
(Goes into FADE OUT)

Gtr 1
e|------------------------------------------|8x
B|--13-----13-----13-----13----10-11-10-----|
G|-----10-----10-----10-----10----------10--|
D|------------------------------------------|
A|------------------------------------------|
E|------------------------------------------|
Gtr 2
e|------------------------------------|-----------------------------------|
B|------------------------------------|-----------------------------------|
G|--101010101010101010101010-9-9-9-9--|--7-7-7-7-7-7-7-7-7-7-7-7-5-5-5-5--|
D|--10101010101010101010101010101010--|--7-7-7-7-7-7-7-7-7-7-7-7-5-5-5-5--|
A|---8-8-8-8-8-8-8-8-8-8-8-8-7-7-7-7--|--5-5-5-5-5-5-5-5-5-5-5-5-3-3-3-3--|
E|------------------------------------|-----------------------------------|
(continued)
e|-----------------------------------|-----------------------------------|
B|-----------------------------------|-----------------------------------|
G|--3-3-3-3-3-3-3-3-5-5-5-5-5-5-5-5--|------------------5-5-5-5-5-5-5-5--|
D|--3-3-3-3-3-3-3-3-5-5-5-5-5-5-5-5--|--5-5-5-5-5-5-5-5-5-5-5-5-5-5-5-5--|
A|--1-1-1-1-1-1-1-1-3-3-3-3-3-3-3-3--|--5-5-5-5-5-5-5-5-3-3-3-3-3-3-3-3--|
E|-----------------------------------|--3-3-3-3-3-3-3-3------------------|
(continued)
e|-----------------------------------|-----------------------------------|
B|-----------------------------------|-----------------------------------|
G|--2-2-2-2-2-2-2-2-2-2-2-2-5-5-5-5--|--7-7-7-7-7-7-7-7-7-7-7-7-5-5-5-5--|
D|--2-2-2-2-2-2-2-2-2-2-2-2-5-5-5-5--|--7-7-7-7-7-7-7-7-7-7-7-7-5-5-5-5--|
A|--0-0-0-0-0-0-0-0-0-0-0-0-3-3-3-3--|--5-5-5-5-5-5-5-5-5-5-5-5-3-3-3-3--|
E|-----------------------------------|-----------------------------------|
(continued)
e|-----------------------------------|-----------------------------------|
B|-----------------------------------|-----------------------------------|
G|--3-3-3-3-3-3-3-3-5-5-5-5-5-5-5-5--|------------------5-5-5-5-5-5-5-5--|
D|--3-3-3-3-3-3-3-3-5-5-5-5-5-5-5-5--|--5-5-5-5-5-5-5-5-5-5-5-5-5-5-5-5--|
A|--1-1-1-1-1-1-1-1-3-3-3-3-3-3-3-3--|--5-5-5-5-5-5-5-5-3-3-3-3-3-3-3-3--|
E|-----------------------------------|--3-3-3-3-3-3-3-3------------------|


I dedicate my VERY hard work to...
Mang Dhen-dhen and  Mang Tots of SHALOM!!!! ^*^

Please rate/comment!
comments
print report bad tab
197 comments total. Showing first comments.
+3 reply
f1f2 wrote on November 14 2006, 05:40 am

wooops this one was the non-updated one in my pc.. nahh... sorry, i updated it immediately... :)

+3 reply
Mathamology wrote on November 14 2006, 10:46 am

Is this the updated version? I'll give you permission to put my tab (House of Wolves) in here, if you credit it to me :) But its up to you, if you want to keep it all your own work then that's cool. However, if you want my House of Wolves in there, send me a PM/email and I'll check it over once and send it to you

+3 reply
Guitarmaster12 wrote on November 14 2006, 03:10 pm

Finally, someone tabbed the album, thanx, 5 stars :}

I want to post or [tab]
guest
You may want to rate the tab now too:
select rating
Please do not post tabs as comments. Select "correction" instead!