Oops, an error
Loading. Please wait.

The Black Parade Tab

ver2
ver2

Intro

Album

More versions @911Tabs.com
14,393 views 12 this week
3 commentsread comments
1 2 3 4 5
excellent!
x 5
Autoscroll
+/-
esc
set tempo
stop
Contributor
Difficulty
intermediate
Hey! There's an official Ultimate Guitar app which is ideal
for learning songs when you're away from computer. Get the app
WARNING: You are trying to view
                                    content from Ultimate-Guitar.com
                                    in an unauthorized application,
                                    which is prohibited.

                                    Please use an official Ultimate
                                    Guitar Tabs application for iPhone,
                                    iPad or Android to access legitimate
                                    chords, guitar, bass, and drum tabs
                                    from Ultimate-Guitar.com database.

                                    Type "ultimate guitar tabs" in Apple
                                    App Store's or Android Market's
                                    search to find the application.
Band: My Chemical Romance
Album: The Black Parade

Track Listing:

I: The End.
II: Dead!
III: This Is How I Disappear
IV: The Sharpest Lives
V: Welcome To The Black Parade
VI: I Don't Love You
VII: House Of Wolves
VIII: Cancer
IX: Mama
X: Sleep
XI: Teenagers
XII: Disenchanted
XIII: Famous Last Words

Key:

*:- Palm Mute
x:- String Mute
~:- Let Ring
^:- Bend Slightly
^(#):- Bend To Fret
r:- Release
h:- Hammer-On
p:- Pull-Off
<#>:- Natural Harmonic
[#]:- Pinch Harmonic
/:- Slide
///:- Slide Down Fretboard

My Chemical Romances guitarists are:

Ray Toro: Lead Guitar and occasional Rhythm Guitar
Frank Iero: Rhythm Guitar and occasional Lead Guitar
Mikey Way: Bass Gtr

Please note, that on this album, a number of the tracks use overdubbed guitars.

All tracks are performed on standard tuning.

------------
I: The End.
------------

Gtr I: Ray Toro
Gtr II: Frank Iero

Intro:

Gtr II

e:|--------------------------------|
B:|--------------------------------|
G:|-x-xxxxx-xxxxx-xxxxx-xxxxx-xxxx-|
D:|-x-xxxxx-xxxxx-xxxxx-xxxxx-xxxx-|
A:|-x-xxxxx-xxxxx-xxxxx-xxxxx-xxxx-|
E:|-x-xxxxx-xxxxx-xxxxx-xxxxx-xxxx-|

Verse I

Gtr II

e:|-3-33333-33333-3333-------0-00000-00000-0000-|
B:|-3-33333-33333-3333-------0-00000-00000-0000-|
G:|-0-00000-00000-0000-------0-00000-00000-0000-|
D:|-0-00000-00000-0000-------2-22222-22222-2222-|
A:|-2-22222-22222-2222-------2-22222-22222-2222-|
E:|-3-33333-33333-3333-3-2-0-0-00000-00000-0000-|

e:|----------------------------------------------|
B:|-5-55555-55555-5555-4-44444-4444-4-44444-4444-|
G:|-6-66666-66666-6666-5-55555-5555-5-55555-5555-|
D:|-6-66666-66666-6666-5-55555-5555-5-55555-5555-|
A:|-4-44444-44444-4444-3-33333-3333-3-33333-3333-|
E:|----------------------------------------------|

Chorus

Gtr I

e:|-----------------------------------------------------------|
B:|-----------------------------------------------------------|
G:|-----------------------------6--6--6--6-7-6-5--5--7--5-----|
D:|-5--5--5-7-9-7-5-2--2--4--2--x--x--x--x-x-x-x--x--x--x-----|
A:|-x--x--x-x-x-x-x-x--x--x--x--4--4--4--4-5-4-3--3--5--3-----|
E:|-3--3--3-5-7-5-3-0--0--2--0-----------------------------3~-|

Gtr II

e:|------------------------------------------------------------------|
B:|------------------------------------------------------------------|
G:|-12-12-12-14-16-14-12-9-9-11-9--18-18-18-18-19-18-17-17-19-17-12~-|
D:|--x--x--x--x--x--x--x-x-x--x-x---x--x--x--x--x--x--x--x--x--x--x--|
A:|-10-10-10-12-14-12-10-7-7--9-7--16-16-16-16-17-16-15-15-17-15-10~-|
E:|------------------------------------------------------------------|

Verse II

For this verse, Gtr II just repeats the last verse, Gtr I plays this:

[ For the notes before the line, pick the strings at the bottom pick
up, the effect should sound right ]

e:|-----------------------------|-----------------|
B:|-----------------------------|-----------------|
G:|-------------------6~-----2~-|-----------------|
D:|-----0~-----2~---6~-----1~---|-7^8-7^8-7^8-7^8-|
A:|---2~-----2~---4~-----3~-----|-----------------|
E:|-3~-----0~-------------------|-----------------|

Repeat Chorus.

OUtro:

Gtr I

e:|----------------------------|
B:|----------------------------|
G:|-5-5-5-7-7-7-8-8-8-10-10-10-|
D:|-x-x-x-x-x-x-x-x-x--x--x--x-|
A:|-3-3-3-5-5-5-6-6-6--8--8--8-|
E:|----------------------------|

Gtr II

e:|-------------------------------------|
B:|-------------------------------------|
G:|-18-18-18-20-20-20-21-21-21-23-23-23-|
D:|--x--x--x--x--x--x--x--x--x--x--x--x-|
A:|-16-16-16-18-18-18-19-19-19-21-21-21-|
E:|-------------------------------------|

-----------
II: Dead!
-----------

Gtr I: Ray Toro
Gtr II: Frank Iero

Intro Pt I:

Gtr I

e:|-------------------------------|
B:|-------------------------------|
G:|-------------------------------|
D:|-5-5-5-5-5-5-4-4-5-5-5-5-5-5-5-|
A:|-5-5-5-5-5-5-4-4-5-5-5-5-5-5-5-|
E:|-3-3-3-3-3-3-2-2-3-3-3-3-3-3-3-|


Intro Pt II:

(I only have the rhythm here)

e:|-----------------------------------------------------------------|
B:|-----------------------------------------------------------------|
G:|-------------------------4-4-4-4-----------------5-5-5-5-7-8-7-5-|
D:|-5-5-5-5-5-5-5-5-4-4-4-4-4-4-4-4-2-2-2-2-2-2-2-2-5-5-5-5---------|
A:|-5-5-5-5-5-5-5-5-4-4-4-4-2-2-2-2-2-2-2-2-2-2-2-2-3-3-3-3---------|
E:|-3-3-3-3-3-3-3-3-2-2-2-2---------0-0-0-0-0-0-0-0-----------------|

Verse I:

Gtr I

e:|-----------------------------------------------------------------|
B:|-----------------------------------------------------------------|
G:|-------------------------------------------------------5-5-5-5-5-|
D:|-5-5-5-5-5-5-5-5-4-4-4-4-4-4-4-4-2-2-2-2-2-2-2-2-5-5-5-5-5-5-5-5-|
A:|-5-5-5-5-5-5-5-5-4-4-4-4-2-2-2-2-2-2-2-2-2-2-2-2-3-3-3-3-3-3-3-3-|
E:|-3-3-3-3-3-3-3-3-2-2-2-2---------0-0-0-0-0-0-0-0-----------------|
PM  * * * * * * * * * * * * * * *   * * * * * * * * * * * * * * * *

e:|------------------------------------------------------------------|
B:|------------------------------------------------------------------|
G:|---4---4---4---4--------------------------------------------------|
D:|---5---5---5---5-4-4-4-4-4-4-4----2-2-2-2-2-2-2-2-5-5-5-5-5-5-5-5-|
A:|---5---5---5---5-4-4-4-4-2-2-2-2^-2-2-2-2-2-2-2-2-3-3-3-3-3-3-3-3-|
E:|-3-3-3-3-3-3-3-3-2-2-2-2----------0-0-0-0-0-0-0-0-----------------|
PM  *   *   *   *   * * * * * * *    * * * * * * * * * * * * * * * *

Gtr II

e:|----------------------------------------------------------------|
B:|----------------------------------------------------------------|
G:|-------------------------12/11-------12/11/9/11-----------------|
D:|--------------------------x-x---------x--x-x--x-----------------|
A:|-10-10-10-10-10-10-10-10-10/9--9-9-9-10/-9/7/-9-7-7-7-7-7-7-7-7-|
E:|----------------------------------------------------------------|
PM   *  *  *  *  *  *  *  *       * * *            * * * * * * * *

e:|----------------------|
B:|----------------------|
G:|-5-5/7-7/9-9-16/17/16-|
D:|-x-x-x-x-x-x--x--x--x-|
A:|-3-3/5-5/7-7-14/15/14-|
E:|----------------------|

e:|--------------------------------------------------------------------|
B:|--------------------------------------------------------------------|
G:|-12--12--12--12---------12/11/9/11-----------------5-5/7-7/9-9/1111-|
D:|--x---x---x---x----------x--x-x--x-----------------x-x-x-x-x-x--x-x-|
A:|-10--10--10--10-9-9-9-9-10/-9/7/-9-7-7-7-7-7-7-7-7-3-3/5-5/7-7/-9-9-|
E:|--------------------------------------------------------------------|
PM                 * * * *            * * * * * * * *

Pre-Chorus:

Gtr I

e:|------------|
B:|------------|
G:|-2~---------|
D:|-2~-------~-|
A:|-0~--3~--5~-|
E:|------------|

Gtr II

e:|---------------------------------|
B:|---------------------------------|
G:|-----------------5-4-7-4---------|
D:|-7-9-7-5-7-9-7-5---------7-4---7-|
A:|-----------------------------5---|
E:|---------------------------------|

Chorus:

Gtr I (x2)

e:|-----------------------------------------------------------------|
B:|-----------------------------------------------------------------|
G:|-----------------------------------------------------------------|
D:|-5-5-5-5-5-5-5-5-5-5-5-5-5-5-5-5-4-4-4-4-4-4-4-4-4-4-4-4-4-4-4-4-|
A:|-5-5-5-5-5-5-5-5-5-5-5-5-5-5-5-5-2-2-2-2-2-2-2-2-2-2-2-2-2-2-2-2-|
E:|-3-3-3-3-3-3-3-3-3-3-3-3-3-3-3-3---------------------------------|

e:|-----------------------------------------------------------------|
B:|-----------------------------------------------------------------|
G:|-----------------------------------------------------------------|
D:|-5-5-5-5-5-5-5-5-5-5-5-5-5-5-5-5-9-9-9-9-9-9-9-9-7-7-7-7-7-7-7-7-|
A:|-3-3-3-3-3-3-3-3-3-3-3-3-3-3-3-3-6-6-6-6-6-6-6-6-5-5-5-5-5-5-5-5-|
E:|-----------------------------------------------------------------|

Gtr II (x2)

e:|-------------------------------------------------------------------|
B:|-------------------------------------------------------------------|
G:|-12121212121212121212121212121212-11111111111111111111111111111111-|
D:|--x-x-x-x-x-x-x-x-x-x-x-x-x-x-x-x--x-x-x-x-x-x-x-x-x-x-x-x-x-x-x-x-|
A:|-10101010101010101010101010101010--9-9-9-9-9-9-9-9-9-9-9-9-9-9-9-9-|
E:|-------------------------------------------------------------------|

e:|-------------------------------------------------------------------|
B:|-------------------------------------------------------------------|
G:|-1414141414141414-1212121212121212-1616161616/17/14141414141414/16-|
D:|--x-x-x-x-x-x-x-x--x-x-x-x-x-x-x-x--x-x-x-x-x--x--x-x-x-x-x-x-x--x-|
A:|-1212121212121212-1010101010101010-1414141414/15/12121212121212/14-|
E:|-------------------------------------------------------------------|

Pre-Verse:

Gtr I

e:|---------------------------------|
B:|---------------------------------|
G:|---------------------------------|
D:|-5-5-5-5-5-5-5-5-5-5-5-5-5-5-5-5-|
A:|-5-5-5-5-5-5-5-5-5-5-5-5-5-5-5-5-|
E:|-3-3-3-3-3-3-3-3-3-3-3-3-3-3-3-3-|

Gtr II

e:|----------------------------<12>-|
B:|----------------------------<12>-|
G:|----------------------------<12>-|
D:|---------------------------------|
A:|---------------------------------|
E:|---------------------------------|

Verse II

Gtr I

e:|-----------------------------------------------------------------|
B:|-----------------------------------------------------------------|
G:|-------------------------------------------------------5-5-5-5-5-|
D:|-5-5-5-5-5-5-5-5-4-4-4-4-4-4-4-4-2-2-2-2-2-2-2-2-5-5-5-5-5-5-5-5-|
A:|-5-5-5-5-5-5-5-5-4-4-4-4-2-2-2-2-2-2-2-2-2-2-2-2-3-3-3-3-3-3-3-3-|
E:|-3-3-3-3-3-3-3-3-2-2-2-2---------0-0-0-0-0-0-0-0-----------------|
PM  * * * * * * * * * * * * * * *   * * * * * * * * * * * * * * * *

e:|------------------------------------------------------------------|
B:|------------------------------------------------------------------|
G:|---4---4---4---4--------------------------------------------------|
D:|---5---5---5---5-4-4-4-4-4-4-4----2-2-2-2-2-2-2-2-5-5-5-5-5-5-5-5-|
A:|---5---5---5---5-4-4-4-4-2-2-2-2^-2-2-2-2-2-2-2-2-3-3-3-3-3-3-3-3-|
E:|-3-3-3-3-3-3-3-3-2-2-2-2----------0-0-0-0-0-0-0-0-----------------|
PM  *   *   *   *   * * * * * * *    * * * * * * * * * * * * * * * *

Gtr II

e:|-0--0--0--0----------------0--0--0--0--------5-5-5-5-|
B:|-8--8--8--8--7-7-7-7-7-7-7-8--8--8--8--7-7-7-7-7-7-7-|
G:|-7--7--7--7--7-7-7-7-7-7-7-7--7--7--7--8-8-8-8-8-8-8-|
D:|-----------------------------------------------------|
A:|-----------------------------------------------------|
E:|-----------------------------------------------------|

e:|-0--0--0--0-------------------0--0--0-----5-----5~-|
B:|-8--8--8--8--7-7-7-7-7-7-7-7--8--8--8---8-----8----|
G:|-7--7--7--7--7-7-7-7-7-7-7-7--7--7--7-7-----7------|
D:|---------------------------------------------------|
A:|---------------------------------------------------|
E:|---------------------------------------------------|


Repeat Pre-Chorus

Repeat Chorus

Bridge:

(This is just bass and keyboard etc, so here's a little guitar fill that can be played,
isn't actually played on the CD...I think it's what is played live but I 'aint sure)

Gtr II

e:|-------------------------------------------------|
B:|-------------------------------------------------|
G:|-------------------------------------------------|
D:|-------------------------------------------------|
A:|-12-12-12-12-12-12-12-12-10-10-10-10-10-10-10-10-|
E:|-------------------------------------------------|
PM  *  *  *  *  *  *  *  *  *  *  *  *  *  *  *  *

e:|---------------------------------|
B:|---------------------------------|
G:|---------------------------------|
D:|---------------------------------|
A:|-9-9-9-9-7-7-7-7-5-5-5-5-5-5-5-5-|
E:|---------------------------------|
PM  * * * * * * * * * * * * * * * *

e:|-------------------------------------------------|
B:|-------------------------------------------------|
G:|-------------------------------------------------|
D:|-------------------------------------------------|
A:|-12-12-12-12-12-12-12-12-10-10-10-10-10-10-10-10-|
E:|-------------------------------------------------|
PM  *  *  *  *  *  *  *  *  *  *  *  *  *  *  *  *

e:|-------------------------------------------------------------|
B:|-------------------------------------------17171717-20202020-|
G:|-16/17/16/17/16/17/16/17-17171717-19191919--x-x-x-x--x-x-x-x-|
D:|--x--x--x--x--x--x--x--x--x-x-x-x--x-x-x-x-14141414-17171717-|
A:|-14/15/14/15/14/15/14/15-15151515-17171717-------------------|
E:|-------------------------------------------------------------|
                            ^
                            Gtr I plays a pickscrape here

Solo: (Not sure about this)

Gtr I

e:|------------------------------------------------------------|
B:|--------------------------------8-8~------------------------|
G:|-----------4-5-7-7^(9)-7p5h7~-7------4h5p4-2h4p2-0h2p0------|
D:|-5~-5~-5-7---------------------------------------------2----|
A:|---------------------------------------------------------3~-|
E:|------------------------------------------------------------|

e:|------------------------5----------------|
B:|--------------------------7--------------|
G:|-0h2p0----------------------7-5----------|
D:|-------2h4p2-0h2p0--------------5h7p5p4~-|
A:|-------------------2p0~------------------|
E:|-----------------------------------------|
-
e:|-------------------3------3-------------------------7------------7----|
B:|-3-----3-----3-----3-3----3-3---------------------8---8~-------8---8~-|
G:|-5^(7)-5^(7)-5^(7)---5^(7)--5^(7)-7^(9)r7-5---7h9----------7h9--------|
D:|--------------------------------------------9------------9------------|
A:|----------------------------------------------------------------------|
E:|----------------------------------------------------------------------|

e:|-15-17p15----19p15----17p15----19p15----17p15----19p15----17p15----19p15|
B:|----------15-------15-------15-------15-------15-------15-------15------|
G:|------------------------------------------------------------------------|
D:|------------------------------------------------------------------------|
A:|------------------------------------------------------------------------|
E:|------------------------------------------------------------------------|

e:|-20p15----19p15----17p15----19p15----19-17-15-15------15/------|
B:|-------15-------15-------15-------15----------18^(20)-18^(20)/-|
G:|---------------------------------------------------------------|
D:|---------------------------------------------------------------|
A:|---------------------------------------------------------------|
E:|---------------------------------------------------------------|

Gtr II just plays Gtr I's riff in the chorus behind the solo.

Outro Pt I: (Repeat this as many times as needed)

(Before the outro starts Gtr II plays a pickscrape)

Gtr I

e:|-----------------------------------------------------------------|
B:|-----------------------------------------------------------------|
G:|-----------------------------------------------------------------|
D:|-5-5-5-5-5-5-5-5-4-4-4-4-4-4-4-4-5-5-5-5-5-5-5-5-7-7-7-7-7-7-7-7-|
A:|-5-5-5-5-5-5-5-5-2-2-2-2-2-2-2-2-3-3-3-3-3-3-3-3-5-5-5-5-5-5-5-5-|
E:|-3-3-3-3-3-3-3-3-------------------------------------------------|

Gtr II

e:|---------------------------------------------------------------|
B:|---------------------------------------------------------------|
G:|-12/11/9/12--9--12/11/9/14--9--12/11/9/12--9--7/9/11/12~-11/14-|
D:|--x-x--x--x--x---x-x--x--x--x---x-x--x--x--x--x-x-x---x--x--x--|
A:|-10/9-/7/10--7--10/9-/7/12--7--10/9-/7/10--7--5/7/9-/10~-9-/12-|
E:|---------------------------------------------------------------|

Outro Pt II:

Gtr I

e:|-----------------x---|
B:|-----------------x---|
G:|-----------------x---|
D:|-5-5-5-5-5-5-------5-|
A:|-5-5-5-5-5-5-x-x---5-|
E:|-3-3-3-3-3-3-x-x---3-|

Gtr II

e:|---------------------|
B:|---------------------|
G:|---------------------|
D:|-------------------5-|
A:|-------------------5-|
E:|-------------------3-|

------------------------------
III: This Is How I Disappear
------------------------------

Gtr I: Ray Toro
Gtr II: Frank Iero
Bass Gtr: Mikey Way

Intro:

Gtr I

e:|------------------------------------------------------------|
B:|------------------------------------------------------------|
G:|-6-6-6-6-7-7-7-7-9-9-9-9-10101010-9-9-9-9-10101010-12121212-|
D:|-x-x-x-x-x-x-x-x-x-x-x-x--x-x-x-x-x-x-x-x--x-x-x-x--x-x-x-x-|
A:|-5-5-5-5-5-5-5-5-5-5-5-5--5-5-5-5-7-7-7-7--7-7-7-7--7-7-7-7-|
E:|------------------------------------------------------------|

e:|---------------------------------------------------------------------|
B:|---------------------------------------------------------------------|
G:|-1212121212121212-10101010--9-9-9-9-7-7-7-7-7-7-7-7--9-9-9-9-9-9-9-9-|
D:|--x-x-x-x-x-x-x-x--x-x-x-x--x-x-x-x-x-x-x-x-x-x-x-x--x-x-x-x-x-x-x-x-|
A:|-1010101010101010-10101010-10101010-1010101010101010-7-7-7-7-7-7-7-7-|
E:|---------------------------------------------------------------------|

Gtr II

e:|----------------------------|
B:|----------------------------|
G:|-7~~------------------------|
D:|-7~~---7~~---5~~---3~~--7~~-|
A:|-5~~---7~~---5~~---3~~--7~~-|
E:|-------5~~---3~~---1~~--5~~-|

Intro Pt II:

Gtr I

e:|------------------------------------------------------------|
B:|------------------------------------------------------------|
G:|-6-6-6-6-7-7-7-7-9-9-9-9-10101010-9-9-9-9-10101010-12121212-|
D:|-x-x-x-x-x-x-x-x-x-x-x-x--x-x-x-x-x-x-x-x--x-x-x-x--x-x-x-x-|
A:|-5-5-5-5-5-5-5-5-5-5-5-5--5-5-5-5-7-7-7-7--7-7-7-7--7-7-7-7-|
E:|------------------------------------------------------------|

e:|-------------------------------------------------------------------|
B:|-------------------------------------------------------------------|
G:|-1212121212121212-10101010--9-9-9-9-7-7-7-7-7-7-7-7--999999999-<7>-|
D:|--x-x-x-x-x-x-x-x--x-x-x-x--x-x-x-x-x-x-x-x-x-x-x-x--xxxxxxxxx-----|
A:|-1010101010101010-10101010-10101010-1010101010101010-777777777-----|
E:|-------------------------------------------------------------------|


Gtr II

e:|---------------------------------------------------|
B:|---------------------------------------------------|
G:|---------------------------------------------------|
D:|---------------------------------------------------|
A:|-5~--7~---8-7-10/12~--10--8-7-5-7--8-7-5/4--8~-10~-|
E:|---------------------------------------------------|

e:|------------------|
B:|------------------|
G:|-1414141414141414-|
D:|--x-x-x-x-x-x-x-x-|
A:|-1212121212121212-|
E:|------------------|

Intro Pt III:

Gtr I

e:|------------------------------------------------------------|
B:|------------------------------------------------------------|
G:|-6-6-6-6-7-7-7-7-9-9-9-9-10101010-9-9-9-9-10101010-12121212-|
D:|-x-x-x-x-x-x-x-x-x-x-x-x--x-x-x-x-x-x-x-x--x-x-x-x--x-x-x-x-|
A:|-5-5-5-5-5-5-5-5-5-5-5-5--5-5-5-5-7-7-7-7--7-7-7-7--7-7-7-7-|
E:|------------------------------------------------------------|

e:|-------------------------------------------------------------------------|
B:|-------------------------------------------------------------------------|
G:|-1212121212121212-10101010--9-9-9-9-7-7-7-7-7-7-7-7--9-9-9-9/10101010-7~-|
D:|--x-x-x-x-x-x-x-x--x-x-x-x--x-x-x-x-x-x-x-x-x-x-x-x--x-x-x-x-x-x-x-x--7~-|
A:|-1010101010101010-10101010-10101010-1010101010101010-7-7-7-7-7-7-7-7--5~-|
E:|-------------------------------------------------------------------------|

Gtr II

e:|-----------------------------------------------------------------|
B:|-----------------------------------------------------------------|
G:|-7-7-7-7-7-7-7-7-7-7-7-7-7-7-7-7---------------------------------|
D:|-7-7-7-7-7-7-7-7-7-7-7-7-7-7-7-7-7-7-7-7-7-7-7-7-7-7-7-7-7-7-7-7-|
A:|-5-5-5-5-5-5-5-5-5-5-5-5-5-5-5-5-7-7-7-7-7-7-7-7-7-7-7-7-7-7-7-7-|
E:|---------------------------------5-5-5-5-5-5-5-5-5-5-5-5-5-5-5-5-|

e:|--------------------------------------------------------------------|
B:|--------------------------------------------------------------------|
G:|-----------------------------------------------------------------7~-|
D:|-5-5-5-5-5-5-5-5-5-5-5-5-5-5-5-5-3-3-3-3-3-3-3-3-7-7-7-7-7-7-7-7-7~-|
A:|-5-5-5-5-5-5-5-5-5-5-5-5-5-5-5-5-3-3-3-3-3-3-3-3-7-7-7-7-7-7-7-7-5~-|
E:|-3-3-3-3-3-3-3-3-3-3-3-3-3-3-3-3-1-1-1-1-1-1-1-1-5-5-5-5-5-5-5-5----|

Verse I:

Part I:

Bass Gtr

G:|-------------------------------------------------|
D:|-------------------------------------------------|
A:|-5-5-5-5---------3-3-3-3---------1-1-1-1---------|
E:|---------3-3-3-3---------1-1-0-0---------0-0-0-0-|

Then:

Both Gtr's

e:|-----------------------------|
B:|-----------------------------|
G:|-14-141414-141414-14-14-1414-|
D:|--x--x-x-x--x-x-x--x--x--x-x-|
A:|-12-121212-121212-12-12-1212-|
E:|-----------------------------|

Part II:

Gtr I

e:|-------------------------------------------------|
B:|-------------------------------------------------|
G:|-7-----7-----7-----7-----------------------------|
D:|-7-7-7-7-7-7-7-7-7-7-7-7-5-----5-----5-----5-----|
A:|-5-5-5-5-5-5-5-5-5-5-5-5-5-5-5-5-5-5-5-5-5-5-5-5-|
E:|-------------------------3-3-3-3-3-3-3-3-3-3-3-3-|
PM    * *   * *   * *   * *   * *   * *   * *   * *

e:|-------------------------------------------------|
B:|-------------------------------------------------|
G:|-5-----5-----5-----5-----------------------------|
D:|-5-5-5-5-5-5-5-5-5-5-5-5-3-----3-----3-----3-----|
A:|-3-3-3-3-3-3-3-3-3-3-3-3-3-3-3-3-3-3-3-3-3-3-3-3-|
E:|-------------------------1-1-1-1-1-1-1-1-1-1-1-1-|
PM    * *   * *   * *   * *   * *   * *   * *   * *

e:|-------------------------------------------------|
B:|-------------------------------------------------|
G:|-3-----3-----3-----3-----------------------------|
D:|-3-3-3-3-3-3-3-3-3-3-3-3-2-----2-----2-----2-----|
A:|-1-1-1-1-1-1-1-1-1-1-1-1-2-2-2-2-2-2-2-2-2-2-2-2-|
E:|-------------------------0-0-0-0-0-0-0-0-0-0-0-0-|
PM    * *   * *   * *   * *   * *   * *   * *   * *

e:|---------------------------------|
B:|---------------------------------|
G:|-2-2-2-2-2-2-2-2-2-2-2-2-2-2-2-2-|
D:|-2-2-2-2-2-2-2-2-2-2-2-2-2-2-2-2-|
A:|-0-0-0-0-0-0-0-0-0-0-0-0-0-0-0-0-|
E:|---------------------------------|

Gtr II

e:|------------------------------------------------------------------------|
B:|------------------------------------------------------------------------|
G:|-7-7-7-7-7-------------------------5-5-5-5-5----------------------------|
D:|-7-7-7-7-7--------5-5-5-5-5--------5-5-5-5-5--------3-3-3-3-3-2-2-2-2-2-|
A:|-5-5-5-5-5--------5-5-5-5-5--------3-3-3-3-3--------3-3-3-3-3-2-2-2-2-2-|
E:|------------------3-3-3-3-3-------------------------1-1-1-1-1-0-0-0-0-0-|

e:|-------------------------------|
B:|-------------------------------|
G:|-3-3-3-3-3---------------------|
D:|-3-3-3-3-3---------2-2-2-2-2---|
A:|-1-1-1-1-1---------2-2-2-2-2---|
E:|-------------------0-0-0-0-0---|

e:|----------------------------|
B:|----------------------------|
G:|-14141414-1212-1010-9/10/9~-|
D:|--x-x-x-x--x-x--x-x-x--x-x--|
A:|-12121212-1010--8-8-7/-8/7~-|
E:|----------------------------|

Pre-Chorus:

Both Gtr's

e:|---------------------------------------------------|
B:|---------------------------------------------------|
G:|-7---------10---------9---------6---------12121212-|
D:|-x----------x---------x---------x----------x-x-x-x-|
A:|-5-5-5-5-5--8-8-8-8-8-7-7-7-7-7-4-4-4-4-4-10101010-|
E:|---------------------------------------------------|
PM    * * * *    * * * *   * * * *   * * * *

Chorus:

Gtr I

e:|-----------------------------------------------------------------|
B:|-----------------------------------------------------------------|
G:|-7-7-7-7-7-7-7-7-----------------5-5-5-5-5-5-5-5-----------------|
D:|-7-7-7-7-7-7-7-7-5-5-5-5-5-5-5-5-5-5-5-5-5-5-5-5-3-3-3-3-3-3-3-3-|
A:|-5-5-5-5-5-5-5-5-5-5-5-5-5-5-5-5-3-3-3-3-3-3-3-3-3-3-3-3-3-3-3-3-|
E:|-----------------3-3-3-3-3-3-3-3-----------------1-1-1-1-1-1-1-1-|

e:|-----------------------------------------------------------------|
B:|-----------------------------------------------------------------|
G:|-7-7-7-7-7-7-7-7-----------------5-5-5-5-5-5-5-5-----------------|
D:|-7-7-7-7-7-7-7-7-5-5-5-5-5-5-5-5-5-5-5-5-5-5-5-5-7-7-7-7-7-7-7-7-|
A:|-5-5-5-5-5-5-5-5-5-5-5-5-5-5-5-5-3-3-3-3-3-3-3-3-7-7-7-7-7-7-7-7-|
E:|-----------------3-3-3-3-3-3-3-3-----------------5-5-5-5-5-5-5-5-|

e:|-----------------------------------------------------------------|
B:|-----------------------------------------------------------------|
G:|-7-7-7-7-7-7-7-7-----------------5-5-5-5-5-5-5-5-----------------|
D:|-7-7-7-7-7-7-7-7-5-5-5-5-5-5-5-5-5-5-5-5-5-5-5-5-3-3-3-3-3-3-3-3-|
A:|-5-5-5-5-5-5-5-5-5-5-5-5-5-5-5-5-3-3-3-3-3-3-3-3-3-3-3-3-3-3-3-3-|
E:|-----------------3-3-3-3-3-3-3-3-----------------1-1-1-1-1-1-1-1-|

e:|-----------------------------------------------------------------|
B:|-----------------------------------------------------------------|
G:|-7-7-7-7-7-7-7-7-------------------------------------------------|
D:|-7-7-7-7-7-7-7-7-5-5-5-5-5-5-5-5-7-7-7-7-7-7-7-7-7-7-7-7-7-7-7-7-|
A:|-5-5-5-5-5-5-5-5-5-5-5-5-5-5-5-5-7-7-7-7-7-7-7-7-7-7-7-7-7-7-7-7-|
E:|-----------------3-3-3-3-3-3-3-3-5-5-5-5-5-5-5-5-5-5-5-5-5-5-5-5-|


Gtr II

e:|--------------------------------------------------------------|
B:|--------------------------------------------------------------|
G:|-7-7-7-7-7-7/9-9/1010101010/9-5-5-5-5-5-5/7-7-----------------|
D:|-x-x-x-x-x-x-x-x--x-x-x-x-x-x-x-x-x-x-x-x-x-x-8-8-8-8-7-7-7-7-|
A:|-5-5-5-5-5-5/7-7/-8-8-8-8-8/7-3-3-3-3-3-3/5-5-x-x-x-x-x-x-x-x-|
E:|----------------------------------------------6-6-6-6-5-5-5-5-|

e:|------------------------------------------------------------------|
B:|------------------------------------------------------------------|
G:|-10101010/14141414-7-7-7-7/9/10-9-9-9-9-5-5-5-5-12121212/10101010-|
D:|--x-x-x-x--x-x-x-x-x-x-x-x-x--x-x-x-x-x-x-x-x-x--x-x-x-x--x-x-x-x-|
A:|--8-8-8-8/12121212-5-5-5-5/7/-8-7-7-7-7-3-3-3-3-10101010/-8-8-8-8-|
E:|------------------------------------------------------------------|

e:|--------------------------------------------------------------|
B:|--------------------------------------------------------------|
G:|-7-7-7-7-7-7/9-9/1010101010/9-5-5-5-5-5-5/7-7-----------------|
D:|-x-x-x-x-x-x-x-x--x-x-x-x-x-x-x-x-x-x-x-x-x-x-8-8-8-8-7-7-7-7-|
A:|-5-5-5-5-5-5/7-7/-8-8-8-8-8/7-3-3-3-3-3-3/5-5-x-x-x-x-x-x-x-x-|
E:|----------------------------------------------6-6-6-6-5-5-5-5-|

e:|------------------------------------------------------------------|
B:|------------------------------------------------------------------|
G:|-10101010/14141414-7-7-7-7/9/10-9-9-9-9-5-5-5-5-12121212/10101010-|
D:|--x-x-x-x--x-x-x-x-x-x-x-x-x--x-x-x-x-x-x-x-x-x--x-x-x-x--x-x-x-x-|
A:|--8-8-8-8/12121212-5-5-5-5/7/-8-7-7-7-7-3-3-3-3-10101010/-8-8-8-8-|
E:|------------------------------------------------------------------|

Verse II:

Gtr I

e:|-------------------------------------------------------|
B:|-------------------------------------------------------|
G:|-7~~---------------------------------------------------|
D:|-7~~-------------------5-5-5-5-5-5-5-5-----------------|
A:|-5~~---5-5-5-5-5-5-5-5-3-3-3-3-3-3-3-3-3-3-3-3-3-3-3-3-|
E:|-------3-3-3-3-3-3-3-3-----------------1-1-1-1-1-1-1-1-|
PM        * * * * * * * * * * * * * * * * * * * * * * * *

e:|---------------------------------|
B:|---------------------------------|
G:|---------------------------------|
D:|-3-3-3-3-3-3-3-3-2-2-2-2-2-2-2-2-|
A:|-1-1-1-1-1-1-1-1-0-0-0-0-0-0-0-0-|
E:|---------------------------------|
PM  * * * * * * * * * * * * * * * *

e:|-----------------------------------------------------------------|
B:|-----------------------------------------------------------------|
G:|-------7---7-------------------------5-----5---5-----------------|
D:|-7-7-7-7-7-7-7-7-------5---5-----5-5-5-5-5-5-5-5-----3-----3---3-|
A:|-5-5-5-5-5-5-5-5-5-5-5-5-5-5-5-5-3-3-3-3-3-3-3-3-3-3-3-3-3-3-3-3-|
E:|-----------------3-3-3-3-3-3-3-3-----------------1-1-1-1-1-1-1-1-|
PM  * * *   *   * * * * *   *   * * * *   * *   *   * *   * *   *

e:|---------------------------------|
B:|---------------------------------|
G:|-----3-----3---3-----------------|
D:|-3-3-3-3-3-3-3-3---2-----2---2---|
A:|-1-1-1-1-1-1-1-1-2-2-2-2-2-2-2-2-|
E:|-----------------0-0-0-0-0-0-0-0-|
PM  * *   * *   *   *   * *   *   *

e:|---------------------------------|
B:|---------------------------------|
G:|---------------------------------|
D:|-7-7-7-7-7-7-7-7-7-7-7-7-7-7-7-7-|
A:|-7-7-7-7-7-7-7-7-7-7-7-7-7-7-7-7-|
E:|-5-5-5-5-5-5-5-5-5-5-5-5-5-5-5-5-|

Gtr II

e:|-----------------------------------------------------|
B:|-----------------------------------------------------|
G:|-7~~--7~--9~--10~--12~--10~--9~--10~--7~--9~--6~--7~-|
D:|-x~~--x---x----x----x----x---x----x---x---x---x---x--|
A:|-5~~--5~--7~---8~--10~---8~--7~---8~--5~--7~--4~--5~-|
E:|-----------------------------------------------------|

e:|--------------------------------------------------------------|
B:|--------------------------------------------------------------|
G:|-7---------7---7/10---------10--10/12-------12-------12-------|
D:|-x---------x---x--x---------x---x--x--------x--------x--------|
A:|-5-5-5-5-5-5-5-5/-8-8-8-8-8-8-8-8/-10-10-10-10-10-10-10-10-10-|
E:|--------------------------------------------------------------|
PM    * * * *   *      * * * *   *        *  *     *  *     *  *

e:|------------------------------------------------|
B:|------------------------------------------------|
G:|-6-----7---9---10-----10---10-----6---6---6-----|
D:|-x-----x---x----x------x----x-----x---x---x-----|
A:|-4-4-4-5-5-7-7--8-8-8--8-8--8-8-8-4-4-4-4-4-4-4-|
E:|------------------------------------------------|
PM    * *   *   *    * *    *    * *   *   *   * *

e:|----------------------------|
B:|----------------------------|
G:|-14141414-1212-1010-9/10/9~-|
D:|--x-x-x-x--x-x--x-x-x--x-x--|
A:|-12121212-1010--8-8-7/-8/7~-|
E:|----------------------------|


Repeat Pre-Chorus

Repeat Chorus

Solo:

Gtr I

e:|-10----10----12----12----13----13----15----15----|
B:|----13----13----13----13----13----13----13----13-|
G:|-------------------------------------------------|
D:|-------------------------------------------------|
A:|-------------------------------------------------|
E:|-------------------------------------------------|

e:|-15----15----13----13----12----12----13----13----|
B:|----13----13----13----13----13----13----13----13-|
G:|-------------------------------------------------|
D:|-------------------------------------------------|
A:|-------------------------------------------------|
E:|-------------------------------------------------|

e:|-12----12----12----12----13----13----15----15----|
B:|----13----13----13----13----13----13----13----13-|
G:|-------------------------------------------------|
D:|-------------------------------------------------|
A:|-------------------------------------------------|
E:|-------------------------------------------------|

e:|-13----13----15----15----17----17----20----20----|
B:|----13----13----13----13----15----15----15----15-|
G:|-------------------------------------------------|
D:|-------------------------------------------------|
A:|-------------------------------------------------|
E:|-------------------------------------------------|

e:|-20----20----18----18----17----17----15----15----|
B:|----15----15----15----15----15----15----15----15-|
G:|-------------------------------------------------|
D:|-------------------------------------------------|
A:|-------------------------------------------------|
E:|-------------------------------------------------|

e:|-15----15----13----13----12----12----13----13----|
B:|----15----15----13----13----13----13----13----13-|
G:|-------------------------------------------------|
D:|-------------------------------------------------|
A:|-------------------------------------------------|
E:|-------------------------------------------------|

e:|-10------10------10------10------10------10------10------10------|
B:|-13^(15)-13^(15)-13^(15)-13^(15)-13^(15)-13^(15)-13^(15)-13^(15)-|
G:|-----------------------------------------------------------------|
D:|-----------------------------------------------------------------|
A:|-----------------------------------------------------------------|
E:|-----------------------------------------------------------------|

Gtr II (This is EXTREMELEY quiet)

e:|-----------------------------------------------------------------|
B:|-----------------------------------------------------------------|
G:|-----------------------------------------------------------------|
D:|-7-7-7-7-7-7-7-7-7-7-7-7-7-7-7-7---------------------------------|
A:|-5-5-5-5-5-5-5-5-5-5-5-5-5-5-5-5-5-5-5-5-5-5-5-5-5-5-5-5-5-5-5-5-|
E:|---------------------------------3-3-3-3-3-3-3-3-3-3-3-3-3-3-3-3-|
PM  * * * * * * * * * * * * * * * * * * * * * * * * * * * * * * * *

e:|-----------------------------------------------------------------|
B:|-----------------------------------------------------------------|
G:|-----------------------------------------------------------------|
D:|-5-5-5-5-5-5-5-5-5-5-5-5-5-5-5-5---------------------------------|
A:|-3-3-3-3-3-3-3-3-3-3-3-3-3-3-3-3-7-7-7-7-7-7-7-7-7-7-7-7-7-7-7-7-|
E:|---------------------------------5-5-5-5-5-5-5-5-5-5-5-5-5-5-5-5-|
PM  * * * * * * * * * * * * * * * * * * * * * * * * * * * * * * * *

e:|-----------------------------------------------------------------|
B:|-----------------------------------------------------------------|
G:|-----------------------------------------------------------------|
D:|-7-7-7-7-7-7-7-7-7-7-7-7-7-7-7-7---------------------------------|
A:|-5-5-5-5-5-5-5-5-5-5-5-5-5-5-5-5-5-5-5-5-5-5-5-5-5-5-5-5-5-5-5-5-|
E:|---------------------------------3-3-3-3-3-3-3-3-3-3-3-3-3-3-3-3-|
PM  * * * * * * * * * * * * * * * * * * * * * * * * * * * * * * * *

e:|-----------------------------------------------------------------|
B:|-----------------------------------------------------------------|
G:|-----------------------------------------------------------------|
D:|-5-5-5-5-5-5-5-5-5-5-5-5-5-5-5-5---------------------------------|
A:|-3-3-3-3-3-3-3-3-3-3-3-3-3-3-3-3-7-7-7-7-7-7-7-7-7-7-7-7-7-7-7-7-|
E:|---------------------------------5-5-5-5-5-5-5-5-5-5-5-5-5-5-5-5-|
PM  * * * * * * * * * * * * * * * * * * * * * * * * * * * * * * * *

Bridge Pt I:

Both Gtr's

e:|---------------------------------------------------|
B:|---------------------------------------------------|
G:|-7---------10---------9---------6---------12121212-|
D:|-x----------x---------x---------x----------x-x-x-x-|
A:|-5-5-5-5-5--8-8-8-8-8-7-7-7-7-7-4-4-4-4-4-10101010-|
E:|---------------------------------------------------|
PM    * * * *    * * * *   * * * *   * * * *

e:|--------------------------------------------------|
B:|--------------------------------------------------|
G:|-7---------10---------9---------6---------6-6-6-6-|
D:|-x----------x---------x---------x---------x-x-x-x-|
A:|-5-5-5-5-5--8-8-8-8-8-7-7-7-7-7-4-4-4-4-4-4-4-4-4-|
E:|--------------------------------------------------|
PM    * * * *    * * * *   * * * *   * * * *

Gtr I

e:|-----------------------------------|
B:|-----------------------------------|
G:|-----------------------------------|
D:|---------------------------------7-|
A:|-5~-8~-7~-4~-----5~-8~-7~-4~-----7-|
E:|-------------5~~-------------5-5-5-|
PM                              * *

e:|--------------------------10^-10^-9^-9^-|
B:|----------------------------------------|
G:|----------------------------------------|
D:|----------------------------------------|
A:|-5~-8~-7~-4~-----5~-8~-7----------------|
E:|-------------5~~------------------------|

Gtr II

e:|-----------------------------------|
B:|-----------------------------------|
G:|-----------------------------------|
D:|---------------------------------7-|
A:|-5~-8~-7~-4~-----5~-8~-7~-4~-----7-|
E:|-------------5~~-------------5-5-5-|
PM                              * *

e:|--------------------------|
B:|--------------------------|
G:|--------------------------|
D:|--------------------------|
A:|-5~-8~-7~-4~-----5~-8~-7/-|
E:|-------------5~~----------|

Bridge Pt II

Gtr I

e:|-----------------------------------------------------------------|
B:|-----------------------------------------------------------------|
G:|-7-7-7-7-7-7-7-7-7-7-7-7-7-7-7-7---------------------------------|
D:|-7-7-7-7-7-7-7-7-7-7-7-7-7-7-7-7-5-5-5-5-5-5-5-5-5-5-5-5-5-5-5-5-|
A:|-5-5-5-5-5-5-5-5-5-5-5-5-5-5-5-5-5-5-5-5-5-5-5-5-5-5-5-5-5-5-5-5-|
E:|---------------------------------3-3-3-3-3-3-3-3-3-3-3-3-3-3-3-3-|

e:|---------------------------------------------------|
B:|---------------------------------------------------|
G:|-5-5-5-5-5-5-5-5-5-5-5-5-5-5-5-5-------------------|
D:|-5-5-5-5-5-5-5-5-5-5-5-5-5-5-5-5-------3~-------2~-|
A:|-3-3-3-3-3-3-3-3-3-3-3-3-3-3-3-3-------3~-------2~-|
E:|---------------------------------1-1-1-1~-0-0-0-0~-|
PM                                  * * *    * * *

e:|-----------------------------------------------------------------|
B:|-----------------------------------------------------------------|
G:|-7-7-7-7-7-7-7-7-7-7-7-7-7-7-7-7---------------------------------|
D:|-7-7-7-7-7-7-7-7-7-7-7-7-7-7-7-7-5-5-5-5-5-5-5-5-5-5-5-5-5-5-5-5-|
A:|-5-5-5-5-5-5-5-5-5-5-5-5-5-5-5-5-5-5-5-5-5-5-5-5-5-5-5-5-5-5-5-5-|
E:|---------------------------------3-3-3-3-3-3-3-3-3-3-3-3-3-3-3-3-|

e:|-----------------------------------------------------------------|
B:|-----------------------------------------------------------------|
G:|-5-5-5-5-5-5-5-5-5-5-5-5-5-5-5-5---------------------------------|
D:|-5-5-5-5-5-5-5-5-5-5-5-5-5-5-5-5-7-7-7-7-7-7-7-7-7-7-7-7-7-7-7-7-|
A:|-3-3-3-3-3-3-3-3-3-3-3-3-3-3-3-3-7-7-7-7-7-7-7-7-7-7-7-7-7-7-7-7-|
E:|---------------------------------5-5-5-5-5-5-5-5-5-5-5-5-5-5-5-5-|


Gtr II

e:|---------------------------------------------------|
B:|---------------------------------------------------|
G:|-10---------9---------7---------6---------10/12/10-|
D:|--x---------x---------x---------x----------x--x--x-|
A:|--8-8-8-8-8-7-7-7-7-7-5-5-5-5-5-4-4-4-4-4--8/10/-8-|
E:|---------------------------------------------------|
PM     * * * *   * * * *   * * * *   * * * *

e:|-------------------------------------------------|
B:|-------------------------------------------------|
G:|-12---------10---------9---------7---------6/7/6-|
D:|--x----------x---------x---------x---------x-x-x-|
A:|-10-10101010-8-8-8-8-8-7-7-7-7-7-5-5-5-5-5-4/5/4-|
E:|-------------------------------------------------|
PM      * * * *   * * * *   * * * *   * * * *

e:|---------------------------------------------------|
B:|---------------------------------------------------|
G:|-10---------9---------7---------6---------10/12/10-|
D:|--x---------x---------x---------x----------x--x--x-|
A:|--8-8-8-8-8-7-7-7-7-7-5-5-5-5-5-4-4-4-4-4--8/10/-8-|
E:|---------------------------------------------------|
PM     * * * *   * * * *   * * * *   * * * *

e:|---------------------------|
B:|---------------------------|
G:|-------10~-------9~-9/10/9-|
D:|--------x--------x--x--x-x-|
A:|-8-8-8--8~-7-7-7-7~-7/-8/7-|
E:|---------------------------|
PM  * * *     * * *

e:|---------------------------------------------------|
B:|---------------------------------------------------|
G:|-10---------9---------7---------6---------10/12/10-|
D:|--x---------x---------x---------x----------x--x--x-|
A:|--8-8-8-8-8-7-7-7-7-7-5-5-5-5-5-4-4-4-4-4--8/10/-8-|
E:|---------------------------------------------------|
PM     * * * *   * * * *   * * * *   * * * *

e:|-------------------------------------------------|
B:|-------------------------------------------------|
G:|-12---------10---------9---------7---------6/7/6-|
D:|--x----------x---------x---------x---------x-x-x-|
A:|-10-10101010-8-8-8-8-8-7-7-7-7-7-5-5-5-5-5-4/5/4-|
E:|-------------------------------------------------|
PM      * * * *   * * * *   * * * *   * * * *

e:|---------------------------------------------------|
B:|---------------------------------------------------|
G:|-10---------9---------7---------6---------10/12/10-|
D:|--x---------x---------x---------x----------x--x--x-|
A:|--8-8-8-8-8-7-7-7-7-7-5-5-5-5-5-4-4-4-4-4--8/10/-8-|
E:|---------------------------------------------------|
PM     * * * *   * * * *   * * * *   * * * *

e:|----------------------------------|
B:|----------------------------------|
G:|-14141414141414141414141414141414-|
D:|--x-x-x-x-x-x-x-x-x-x-x-x-x-x-x-x-|
A:|-12121212121212121212121212121212-|
E:|----------------------------------|

Repeat Chorus x2

End with:

Gtr I

e:|-----------------------------------------------------------------------|
B:|-----------------------------------------------------------------------|
G:|-----------------------------------------------------------------7~~~~-|
D:|-7-7-7-7-7-7-7-7-7-7-7-7-7-7-7-7-7-7-7-7-7-7-7-7-7-7-7-7-7-7-7-7-7~~~~-|
A:|-7-7-7-7-7-7-7-7-7-7-7-7-7-7-7-7-7-7-7-7-7-7-7-7-7-7-7-7-7-7-7-7-5~~~~-|
E:|-5-5-5-5-5-5-5-5-5-5-5-5-5-5-5-5-5-5-5-5-5-5-5-5-5-5-5-5-5-5-5-5-------|

Gtr II

e:|---------------------------------------------------------------------|
B:|---------------------------------------------------------------------|
G:|-1212121212121212-1414141414141414-1515151515151515-1818181818181818-|
D:|--x-x-x-x-x-x-x-x--x-x-x-x-x-x-x-x--x-x-x-x-x-x-x-x--x-x-x-x-x-x-x-x-|
A:|-1010101010101010-1212121212121212-1313131313131313-1616161616161616-|
E:|---------------------------------------------------------------------|

e:|-------|
B:|-------|
G:|-7~~~~-|
D:|-x-----|
A:|-5~~~~-|
E:|-------|

------------------------
IV: The Sharpest Lives
------------------------


Gtr I: Ray Toro: Standard Tuning (e,B,G,D,A,E)
Gtr II: Frank Iero: Standard Tuning (e,B,G,D,A,E)

Intro:

Gtr I

e:|-----------------------------------------------------------------|
B:|-----------------------------------------------------------------|
G:|-----------------------------------------------------------------|
D:|-----------------------------------------------------------------|
A:|-4-4-4-4-4-4-4-4-4-4-4-4-4-4-4-4-4-4-4-4-4-4-4-4-4-4-4-4-4-4-4-4-|
E:|-----------------------------------------------------------------|
PM  * * * * * * * * * * * * * * * * * * * * * * * * * * * * * * * *

Verse I:

Gtr I (x2)

e:|-----------------------------------------------------------------|
B:|-----------------------------------------------------------------|
G:|-----------------------------------------------------------------|
D:|-----------------------------------------------------------------|
A:|-4-4-4-4-4-4-4-4-4-4-4-4-4-4-4-4---------------------------------|
E:|---------------------------------5-5-5-5-5-5-5-5-5-5-5-5-5-5-5-5-|
PM  * * * * * * * * * * * * * * * * * * * * * * * * * * * * * * * *

e:|-----------------------------------------------------------------|
B:|-----------------------------------------------------------------|
G:|-----------------------------------------------------------------|
D:|-----------------------------------------------------------------|
A:|-----------------------------------------------------------------|
E:|-2-2-2-2-2-2-2-2-2-2-2-2-2-2-2-2-4-4-4-4-4-4-4-4-4-4-4-4-4-4-4-4-|
PM  * * * * * * * * * * * * * * * * * * * * * * * * * * * * * * * *

Gtr II (This is played at regular intervals, throughout both verses)

e:|----------------------------------|
B:|-----5-5----4---5-5-5---5p4---<5>-|
G:|-6-6-----6----6-------6-----6-----|
D:|----------------------------------|
A:|----------------------------------|
E:|----------------------------------|

Pre-Chorus:

Gtr I (I think some weird effect is used on this)

e:|-5~~---7~~---4~~---4~~---5~~---4~~-|
B:|-5~~---7~~---4~~---5~~---5~~---4~~-|
G:|-6~~---8~~---5~~---6~~---6~~---5~~-|
D:|-7~~---9~~---6~~---6~~---7~~---6~~-|
A:|-7~~---9~~---6~~---4~~---7~~---6~~-|
E:|-5~~---7~~---4~~---------5~~---4~~-|

Gtr II

e:|-------------------------------------------------------------|
B:|-------------------------------------------------------------|
G:|-------------------------------------------------------------|
D:|-------------------------------------------------------------|
A:|-------------------------------------------------4-4-4-4-2/4-|
E:|-5-5-5-5-5-5-5-5-7-7-7-7-7-7-7-7-4-4-4-4-4-4-4-4-------------|
PM  * * * * * * * * * * * * * * * * * * * * * * * * * * * *

e:|---------------------------------------------------|
B:|---------------------------------------------------|
G:|---------------------------------------------------|
D:|---------------------------------------------------|
A:|---------------------------------------------------|
E:|-5-5-5-5-5-5-5-5-5-5-5-5-5-5-5-5-4-4-4-4-4-4-4-4-4-|
PM  * * * * * * * * * * * * * * * * * * * * * * * * *

Chorus: (You'll have to figure out the strumming pattern yourself)

Gtr I (x2)

e:|-----------------------------------------------------------------|
B:|-----------------------------------------------------------------|
G:|-6-6-6-6-6-6-6-6-6-6-6-6-6-6-6-6---------------------------------|
D:|-6-6-6-6-6-6-6-6-6-6-6-6-6-6-6-6-7-7-7-7-7-7-7-7-7-7-7-7/6-6-6-6-|
A:|-4-4-4-4-4-4-4-4-4-4-4-4-4-4-4-4-7-7-7-7-7-7-7-7-7-7-7-7-7-7-7-7-|
E:|---------------------------------5-5-5-5-5-5-5-5-5-5-5-5/4-4-4-4-|

e:|-------------------------------------------------------------|
B:|-------------------------------------------------------------|
G:|-------------------------------------------------------------|
D:|-4-4-4-4-4-4-4-4-4-4-4-4-4-4-4-4-6-6-6-6-6-6-6-6-6-6-6-6-----|
A:|-4-4-4-4-4-4-4-4-4-4-4-4-4-4-4-4-6-6-6-6-6-6-6-6-6-6-6-6-----|
E:|-2-2-2-2-2-2-2-2-2-2-2-2-2-2-2-2-4-4-4-4-4-4-4-4-4-4-4-4-4/2-|

Gtr II (x2)

e:|------------------------------------------------------------------|
B:|------------------------------------------------------------------|
G:|-131313131313131313131313/11111111-9-9-9-9-9-9/11/6-6-6-6-6-6-6-6-|
D:|--x-x-x-x-x-x-x-x-x-x-x-x--x-x-x-x-x-x-x-x-x-x--x-x-x-x-x-x-x-x-x-|
A:|-111111111111111111111111/-9-9-9-9-7-7-7-7-7-7/-9/4-4-4-4-4-4-4-4-|
E:|------------------------------------------------------------------|

e:|----------------------------------------------------------|
B:|-11-----11-----11-----11-----11-----11-----11-----11------|
G:|-13^(15)13^(15)13^(15)13^(15)13^(15)13^(15)13^(15)13^(15)-|
D:|----------------------------------------------------------|
A:|----------------------------------------------------------|
E:|----------------------------------------------------------|


e:|----------------------------------------------------------|
B:|-11-----11-----11-----11-----11-----11-----11-----11------|
G:|-13^(15)13^(15)13^(15)13^(15)13^(15)13^(15)13^(15)13^(15)-|
D:|----------------------------------------------------------|
A:|----------------------------------------------------------|
E:|----------------------------------------------------------|

e:|-------------------------------|
B:|-------------------------------|
G:|-131313131313131313131313/11-9-|
D:|--x-x-x-x-x-x-x-x-x-x-x-x--x-x-|
A:|-111111111111111111111111/-9-7-|
E:|-------------------------------|

Pre-Verse:

Gtr I

e:|---------------------------------|
B:|---------------------------------|
G:|-6-------------6-----------------|
D:|-6-------------6-----------------|
A:|-4-4-4-4-4-4-4-4-4-4-4-4-4-4-4-4-|
E:|---------------------------------|
PM    * * * * * *   * * * * * * * *

Gtr II

e:|-------|
B:|-------|
G:|-6---6-|
D:|-6---6-|
A:|-4---4-|
E:|-------|

Verse II:

Gtr I

e:|-----------------------------------------------------------------|
B:|-----------------------------------------------------------------|
G:|-----------------------------------------------------------------|
D:|-6-6-6-6-6-6-6-6-6-6-6-6-6-6-6-6---------------------------------|
A:|-4-4-4-4-4-4-4-4-4-4-4-4-4-4-4-4-7-7-7-7-7-7-7-7-7-7-7-7-7-7-7-7-|
E:|---------------------------------5-5-5-5-5-5-5-5-5-5-5-5-5-5-5-5-|
PM  * * * * * * * * * * * * * * * * * * * * * * * * * * * * * * * *

e:|-----------------------------------------------------------------|
B:|-----------------------------------------------------------------|
G:|-----------------------------------------------------------------|
D:|-----------------------------------------------------------------|
A:|-4-4-4-4-4-4-4-4-4-4-4-4-4-4-4-4-6-6-6-6-6-6-6-6-6-6-6-6-6-6-6-6-|
E:|-2-2-2-2-2-2-2-2-2-2-2-2-2-2-2-2-4-4-4-4-4-4-4-4-4-4-4-4-4-4-4-4-|
PM  * * * * * * * * * * * * * * * * * * * * * * * * * * * * * * * *

Gtr II repeats Verse I

Repeat Pre-Chorus

Repeat Chorus (x2)

Before solo:

Gtr I

e:|--------------|
B:|--------------|
G:|--------------|
D:|-6-6-6--6-6-6-|
A:|-4-4-4--4-4-4-|
E:|--------------|
PM  * * *  * * *

Gtr II (Slowly turn volume up)

e:|-------|
B:|-------|
G:|-<7>~~-|
D:|-<7>~~-|
A:|-------|
E:|-------|

Solo:

Gtr I

e:|-12-----12-----12-----12-----12-----12-----12-----12------|
B:|-15^(16)15^(16)15^(16)15^(16)15^(16)15^(16)15^(16)15^(16)-|
G:|----------------------------------------------------------|
D:|----------------------------------------------------------|
A:|----------------------------------------------------------|
E:|----------------------------------------------------------|

e:|-12-----12-----12-----12-----12-----12-----12-----12------|
B:|-15^(16)15^(16)15^(16)15^(16)16^(17)16^(17)16^(17)16^(17)-|
G:|----------------------------------------------------------|
D:|----------------------------------------------------------|
A:|----------------------------------------------------------|
E:|----------------------------------------------------------|


e:|-12-----12-----12-----12-----12-----12-----12-----12------|
B:|-15^(16)15^(16)15^(16)15^(16)15^(16)15^(16)15^(16)15^(16)-|
G:|----------------------------------------------------------|
D:|----------------------------------------------------------|
A:|----------------------------------------------------------|
E:|----------------------------------------------------------|

e:|-12-----12-----12-----12-----12-----12-----12-----12------|
B:|-15^(16)15^(16)15^(16)15^(16)16^(17)16^(17)16^(17)16^(17)-|
G:|----------------------------------------------------------|
D:|----------------------------------------------------------|
A:|----------------------------------------------------------|
E:|----------------------------------------------------------|

e:|-------------------------------------------------------------|
B:|-------------------------------------------------------------|
G:|------------------------------------------------------11/13~-|
D:|-9/11-13-11-9/11~-13-11-9-7-9-11-7h9p7p6~-7-7-9/11-13--------|
A:|-------------------------------------------------------------|
E:|-------------------------------------------------------------|

e:|-16p14p12----16p14p12----16p14p12----16~-|
B:|----------12----------12----------12-----|
G:|-----------------------------------------|
D:|-----------------------------------------|
A:|-----------------------------------------|
E:|-----------------------------------------|

Gtr II (This is very very hard to hear, so it might be wrong)

e:|---------------------------------|
B:|---------------------------------|
G:|-6-6-6-6-5-5-5-5-----------------| (x4)
D:|-----------------6-6-6-6---------|
A:|-------------------------6-6-6-6-|
E:|---------------------------------|

(Slide the elevens here down the fretboard)

e:|-----------------------------------------|
B:|-----------------------------------------|
G:|-6-6-6-6-6-6-6-6-6-6-6-6-6-6-6-6---------|
D:|-6-6-6-6-6-6-6-6-6-6-6-6-6-6-6-6---------|
A:|-4-4-4-4-4-4-4-4-4-4-4-4-4-4-4-4-----11/-|
E:|---------------------------------11/-----|

Repeat Chorus (x2)

Outro:

Gtr I (x4) (I've not put how many time you strum each note, but you follow the vocal
so it's easy enough)

e:|-0-0-0-0-0-0-|
B:|-5-4-2-4-2-1-|
G:|-------------|
D:|-------------|
A:|-------------|
E:|-------------|

Gtr II (x4)

e:|-----------------------------------------------------------------|
B:|-----------------------------------------------------------------|
G:|-6-6-6-6-6-6-6-6-6-6-6-6-6-6-6-6---------------------------------|
D:|-6-6-6-6-6-6-6-6-6-6-6-6-6-6-6-6-7-7-7-7-7-7-7-7-7-7-7-7-7-7-7-7-|
A:|-4-4-4-4-4-4-4-4-4-4-4-4-4-4-4-4-7-7-7-7-7-7-7-7-7-7-7-7-7-7-7-7-|
E:|---------------------------------5-5-5-5-5-5-5-5-5-5-5-5-5-5-5-5-|

e:|-----------------------------------------------------------------|
B:|-----------------------------------------------------------------|
G:|-----------------------------------------------------------------|
D:|-4-4-4-4-4-4-4-4-4-4-4-4-4-4-4-4-6-6-6-6-6-6-6-6-6-6-6-6-6-6-6-6-|
A:|-4-4-4-4-4-4-4-4-4-4-4-4-4-4-4-4-6-6-6-6-6-6-6-6-6-6-6-6-6-6-6-6-|
E:|-2-2-2-2-2-2-2-2-2-2-2-2-2-2-2-2-4-4-4-4-4-4-4-4-4-4-4-4-4-4-4-4-|

End with:

Gtr I

e:|--------------------------------|
B:|--------------------------------|
G:|-6------------------------------|
D:|-6------------------------------|
A:|-4-4-4-4-4-4-4-4-4/////////////-|
E:|--------------------------------|
PM    * * * * * * * *

Gtr II

e:|---|
B:|---|
G:|-6-|
D:|-6-|
A:|-4-|
E:|---|

--------------------------------
V: Welcome To The Black Parade
--------------------------------

Gtr I: Ray Toro
Gtr II: Frank Iero

Intro I:

Gtr I (This is piano, but it's been transcribed for guitar)

e:|----------19----------15----------12-------10~-|
B:|-20~---19----17~---15----13~---12----10~-------|
G:|-----------------------------------------------| (x6)
D:|-----------------------------------------------|
A:|-----------------------------------------------|
E:|-----------------------------------------------|

Gtr II (This comes on on the third repeat of the piano)

e:|-----------------------------------------------------|
B:|-----------------15/17-15~~--------------------------|
G:|--------------16------------16-17-16~---16/14--------| (x3)
D:|-17~---16~~-----------------------------------17/19~-|
A:|-----------------------------------------------------|
E:|-----------------------------------------------------|

Intro II: (Solo)

Gtr I (Play everything before the bar three times)

e:|--------------------------------------------------------|
B:|-----------------------------------12-15^(17)r15-12-12~-|
G:|---------------12~----12/14~-12h14----------------------|
D:|-12^(14)r12-10-----12-----------------------------------|
A:|--------------------------------------------------------|
E:|--------------------------------------------------------|

e:|------------------------------------------|------|
B:|-15^(17)r15-12-12~--12^(13)r12-10---------|------|
G:|----------------------------------12/14~~-|-12~~-|
D:|------------------------------------------|------|
A:|------------------------------------------|------|
E:|------------------------------------------|------|


Gtr II (Play everything before the bar three times)

e:|--------------------------------------------------|-----|
B:|--------------------------------------------------|-----|
G:|--------------------------------------------------|-----|
D:|-------------------------5~~---5~~---2~~----------|-5~~-|
A:|-5~~---5~~---2~~---5~~---3~~---2~~---0~~---3/5~~~-|-5~~-|
E:|-3~~---2~~---0~~----------------------------------|-3~~-|

Intro III:

Gtr I

e:|-----------------------------------------------------------------|
B:|-----------------------------------------------------------------|
G:|-------------------------------------------------7-7-7-7-7-7-7-7-|
D:|-5-5-5-5-5-5-5-5-5-5-5-5-5-5-5-5-2-2-2-2-2-2-2-2-7-7-7-7-7-7-7-7-|
A:|-5-5-5-5-5-5-5-5-5-5-5-5-5-5-5-5-2-2-2-2-2-2-2-2-5-5-5-5-5-5-5-5-|
E:|-3-3-3-3-3-3-3-3-2-2-2-2-2-2-2-2-0-0-0-0-0-0-0-0-----------------|

e:|-----------------------------------------------------------------|
B:|-----------------------------------------------------------------|
G:|-5-5-5-5-5-5-5-5-5-5-5-5-5-5-5-5-7-7-7-7-7-7-7-7-7-7-7-7-7-7-7-7-|
D:|-5-5-5-5-5-5-5-5-5-5-5-5-5-5-5-5-7-7-7-7-7-7-7-7-7-7-7-7-7-7-7-7-|
A:|-3-3-3-3-3-3-3-3-3-3-3-3-3-3-3-3-5-5-5-5-5-5-5-5-5-5-5-5-5-5-5-5-|
E:|-----------------------------------------------------------------|

Gtr II

e:|---------------------------------------------------------------|
B:|---------------------------------------------------------------|
G:|-1212121212121212/1414141414141414-19191919/2121-16161616/1717-|
D:|--x-x-x-x-x-x-x-x--x-x-x-x-x-x-x-x--x-x-x-x--x-x--x-x-x-x--x-x-|
A:|-1010101010101010/1212121212121212-17171717/1919-14141414/1515-|
E:|---------------------------------------------------------------|

e:|------------------------------------------------------------------|
B:|------------------------------------------------------------------|
G:|-12121212121212121212121212121212-16161616/17/16/1414141414141414-|
D:|--x-x-x-x-x-x-x-x-x-x-x-x-x-x-x-x--x-x-x-x--x--x--x-x-x-x-x-x-x-x-|
A:|-10101010101010101010101010101010-14141414/15/14/1212121212121212-|
E:|------------------------------------------------------------------|

Verses:

Gtr I

e:|-------------------------------------------------|
B:|-------------------------------------------------|
G:|-------------------------------------------------|
D:|-------------------------------------------------|
A:|-5-5-5-5-5-5-5-5-5-5-5-5-5-5-5-5-5-5-5-5-5-5-5-5-|
E:|-3-3-3-3-3-3-3-3-2-2-2-2-2-2-2-2-1-1-1-1-1-1-1-1-|
PM: * * * * * * * * * * * * * * * * * * * * * * * *

e:|-------------------------------------------------|
B:|-------------------------------------------------|
G:|-----5-----5---5---------------------------------|
D:|-5-5-5-5-5-5-5-5-5-5-5-5-5-5-5-5-----------------|
A:|-3-3---3-3---3---3-3-3-3-3-3-3-3-5-5-5-5-5-5-5-5-|
E:|---------------------------------3-3-3-3-3-3-3-3-|
PM  * *   * *   *   * * * * * * * * * * * * * * * *

e:|---------------------------------|
B:|---------------------------------|
G:|---------------------------------|
D:|-7-7-7-7-7-7-7-7-7-7-7-7-7-7-7-7-|
A:|-5-5-5-5-5-5-5-5-5-5-5-5-5-5-5-5-|
E:|---------------------------------|
PM  * * * * * * * * * * * * * * * *

e:|-------------------------------------------------|
B:|-------------------------------------------------|
G:|-------------------------------------------------|
D:|-------------------------------------------------|
A:|-5-5-5-5-5-5-5-5-5-5-5-5-5-5-5-5-5-5-5-5-5-5-5-5-|
E:|-3-3-3-3-3-3-3-3-2-2-2-2-2-2-2-2-1-1-1-1-1-1-1-1-|
PM: * *   * *   *   * *   * *   *   * *   * *   *

e:|-------------------------------------------------|
B:|-------------------------------------------------|
G:|-----5-----5---5-----5-----5---5-----------------|
D:|-5-5-5-5-5-5-5-5-5-5-5-5-5-5-5-5-----5-----5---5-|
A:|-3-3---3-3---3---3-3---3-3---3---5-5-5-5-5-5-5-5-|
E:|---------------------------------3-3---3-3---3---|
PM  * *   * *   *   * *   * *   *   * *   * *   *

e:|---------------------------------|
B:|---------------------------------|
G:|---------------------------------|
D:|-7-7-7-7-7-7-7-7-7-7-7-7-7-7-7-7-|
A:|-5-5-5-5-5-5-5-5-5-5-5-5-5-5-5-5-|
E:|---------------------------------|

Gtr II

e:|-------------------------------------------------|
B:|-------------------------------------------------|
G:|-------------------------------------------------|
D:|-------------------------------------------------|
A:|-5-5-5-5-5-5-5-5-5-5-5-5-5-5-5-5-5-5-5-5-5-5-5-5-|
E:|-3-3-3-3-3-3-3-3-2-2-2-2-2-2-2-2-1-1-1-1-1-1-1-1-|
PM: * * * * * * * * * * * * * * * * * * * * * * * *

e:|-------------------------------------------------|
B:|-------------------------------------------------|
G:|-----5-----5---5---------------------------------|
D:|-5-5-5-5-5-5-5-5-5-5-5-5-5-5-5-5-----------------|
A:|-3-3---3-3---3---3-3-3-3-3-3-3-3-5-5-5-5-5-5-5-5-|
E:|---------------------------------3-3-3-3-3-3-3-3-|
PM  * *   * *   *   * * * * * * * * * * * * * * * *

e:|-----------------------------------|
B:|-----------------------<5>-----<5>-|
G:|-7-7--7/9-9--9-<5>-<5>-----<5>-----|
D:|-x-x--x-x-x--x---------------------|
A:|-5-5--5/7-7--7---------------------|
E:|-----------------------------------|


e:|-------------------------------------------------|
B:|-------------------------------------------------|
G:|-------------------------------------------------|
D:|-------------------------------------------------|
A:|-5-5-5-5-5-5-5-5-5-5-5-5-5-5-5-5-5-5-5-5-5-5-5-5-|
E:|-3-3-3-3-3-3-3-3-2-2-2-2-2-2-2-2-1-1-1-1-1-1-1-1-|
PM: * * * * * * * * * * * * * * * * * * * * * * * *

e:|-------------------------------------------------|
B:|-------------------------------------------------|
G:|-----5-----5---5---------------------------------|
D:|-5-5-5-5-5-5-5-5-5-5-5-5-5-5-5-5-----------------|
A:|-3-3---3-3---3---3-3-3-3-3-3-3-3-5-5-5-5-5-5-5-5-|
E:|---------------------------------3-3-3-3-3-3-3-3-|
PM  * *   * *   *   * * * * * * * * * * * * * * * *

e:|-------------------------------------------|
B:|-------------------------------------------|
G:|-----------------7-7-7-7-7-7-7-7-16/141414-|
D:|-----------------x-x-x-x-x-x-x-x--x--x-x-x-|
A:|-5-5-5-5-5-5-5-5-5-5-5-5-5-5-5-5-14/121212-|
E:|-3-3-3-3-3-3-3-3---------------------------|
PM  * * * * * * * *

Chorus:

Gtr I (x2)

e:|-----------------------------------------------------------------|
B:|-----------------------------------------------------------------|
G:|-------------------------------------------------7-7-7-7-7-7-7-7-|
D:|-5-5-5-5-5-5-5-5-5-5-5-5-5-5-5-5-2-2-2-2-2-2-2-2-7-7-7-7-7-7-7-7-|
A:|-5-5-5-5-5-5-5-5-5-5-5-5-5-5-5-5-2-2-2-2-2-2-2-2-5-5-5-5-5-5-5-5-|
E:|-3-3-3-3-3-3-3-3-2-2-2-2-2-2-2-2-0-0-0-0-0-0-0-0-----------------|

e:|-----------------------------------------------------------------|
B:|-----------------------------------------------------------------|
G:|-5-5-5-5-5-5-5-5-5-5-5-5-5-5-5-5-7-7-7-7-7-7-7-7-7-7-7-7-7-7-7-7-|
D:|-5-5-5-5-5-5-5-5-5-5-5-5-5-5-5-5-7-7-7-7-7-7-7-7-7-7-7-7-7-7-7-7-|
A:|-3-3-3-3-3-3-3-3-3-3-3-3-3-3-3-3-5-5-5-5-5-5-5-5-5-5-5-5-5-5-5-5-|
E:|-----------------------------------------------------------------|


Gtr II (x2)

e:|----------------------------------------------------------------------|
B:|----------------------------------------------------------------------|
G:|-1212121212121212/16161616/11111111-9-9-9-9-9-9-9-9-12121212/14141414-|
D:|--x-x-x-x-x-x-x-x--x-x-x-x--x-x-x-x-x-x-x-x-x-x-x-x--x-x-x-x--x-x-x-x-|
A:|-1010101010101010/14141414/-9-9-9-9-7-7-7-7-7-7-7-7-10101010/12121212-|
E:|----------------------------------------------------------------------|

e:|------------------------------------------------------------------|
B:|------------------------------------------------------------------|
G:|-12121212121212121212121212121212-16161616/17/16/1414141414141414-|
D:|--x-x-x-x-x-x-x-x-x-x-x-x-x-x-x-x--x-x-x-x--x--x--x-x-x-x-x-x-x-x-|
A:|-10101010101010101010101010101010-14141414/15/14/1212121212121212-|
E:|------------------------------------------------------------------|

Repeat Verse

Repeat Chorus (x2)

Bridge part I:

Gtr I

e:|--------------------------------------------------------------------|
B:|--------------------------------------------------------------------|
G:|-1111---11---11---1111---11---11-9-9-9-9/14141414/12121212/16161616-|
D:|--x-x----x----x----x-x----x----x-x-x-x-x--x-x-x-x--x-x-x-x--x-x-x-x-|
A:|--9-9-9--9-9--9-9--9-9-9--9-9--9-7-7-7-7/12121212/10101010/14141414-|
E:|--------------------------------------------------------------------|
PM       *    *    *      *    *

e:|--------------------------------------------------------------------|
B:|--------------------------------------------------------------------|
G:|-1111---11---11---1111---11---11-9-9-9-9/14141414/12121212/16161616-|
D:|--x-x----x----x----x-x----x----x-x-x-x-x--x-x-x-x--x-x-x-x--x-x-x-x-|
A:|--9-9-9--9-9--9-9--9-9-9--9-9--9-7-7-7-7/12121212/10101010/14141414-|
E:|--------------------------------------------------------------------|
PM       *    *    *      *    *

e:|-----------------------------------------|
B:|-----------------------------------------|
G:|-1717-16-14-12-121212/14-9~~-7~~-5~~-4~~-|
D:|--x-x--x--x--x--x-x-x--x-x---x---x---x---|
A:|-1515-14-12-10-101010/12-7~~-5~~-3~~-2~~-|
E:|-----------------------------------------|

Gtr I

e:|-----------------------------------------------------------|
B:|-----------------------------------------------------------|
G:|-----------------------------------------------------------|
D:|-4-4-4-4-4-4-4-4-4-4-4-4-4---------------------------------|
A:|-2-2-2-2-2-2-2-2-2-2-2-2-2-2-2-2-2-2-2-2-2-2-2-2-2-2-2-2-2-|
E:|---------------------------0-0-0-0-0-0-0-0-0-0-0-0-0-0-0-0-|
PM      *   *   *     *   *

e:|-----------------------------------------------------------|
B:|-----------------------------------------------------------|
G:|-----------------------------------------------------------|
D:|-4-4-4-4-4-4-4-4-4-4-4-4-4---------------------------------|
A:|-2-2-2-2-2-2-2-2-2-2-2-2-2-2-2-2-2-2-2-2-2-2-2-2-2-2-2-2-2-|
E:|---------------------------0-0-0-0-0-0-0-0-0-0-0-0-0-0-0-0-|
PM      *   *   *     *   *

e:|-------------------------------------------------|
B:|-------------------------------------------------|
G:|-------------------------------------------------|
D:|-5-5-5-5-5-5-5-5-5-5-5-5-5-5-5-5-----------------|
A:|-3-3-3-3-3-3-3-3-3-3-3-3-3-3-3-3-7~~-5~~-3~~-2~~-|
E:|-------------------------------------------------|

Bridge Pt II:

Gtr I

e:|--------------------------------------------------|
B:|--------------------------------------------------|
G:|--------------------------------------------------|
D:|--------------------------------------------------|
A:|-------5~~---------2~~---3~~---------3~~---3/5~~~-|
E:|-3~~---------0~~---------------3~~----------------|


e:|-----------------------------------|
B:|-----------------------------------|
G:|-----------------------------------|
D:|-----------------------------------|
A:|-------5~~---------2~~---3~~-------|
E:|-3~~---------0~~---------------3~~-|

Gtr II

e:|--------------------------------------------------|
B:|--------------------------------------------------|
G:|--------------------------------------------------|
D:|-------------------------5~~---------5~~----------|
A:|-5~~---------2~~---------3~~---------3~~---3/5~~~-|
E:|-3~~---------0~~----------------------------------|

e:|--------------------------------------------------|
B:|--------------------------------------------------|
G:|--------------------------------------------------|
D:|-------------------------5~~---------5~~----------|
A:|-5~~---------2~~---------3~~---------3~~---3/5~~~-|
E:|-3~~---------0~~----------------------------------|

Solo and Key Change:

Gtr I

e:|-------------------------------------------------------12h14h15/17-|
B:|----------------------------12h13h15----------12h13h15-------------|
G:|-------------------11h12h14----------11h12h14----------------------|
D:|----------10h12h14-------------------------------------------------|
A:|-10h12h14----------------------------------------------------------|
E:|-------------------------------------------------------------------|

e:|-19^(21)-19~-19-17-19-17-19^-19^-17-19p17------------------------------|
B:|------------------------------------------19~-17-19^(21)r19-17h19p7/15-|
G:|-----------------------------------------------------------------------|
D:|-----------------------------------------------------------------------|
A:|-----------------------------------------------------------------------|
E:|-----------------------------------------------------------------------|

e:|---------------------------------------------------------------------|
B:|---------14h17p14---------14h17h14---------14h17p14---------14h17h14-|
G:|-16^(18)----------16^(18)----------16^(18)----------16^(18)----------|
D:|---------------------------------------------------------------------|
A:|---------------------------------------------------------------------|
E:|---------------------------------------------------------------------|

e:|-----------19^(21)-19p17-19-14~~~-|
B:|----------------------------------|
G:|-14-------------------------------|
D:|----16~~--------------------------|
A:|----------------------------------|
E:|----------------------------------|

Gtr II

e:|------------------------------------|
B:|------------------------------------|
G:|------------------------------------|
D:|-------------------------7~~~-------|
A:|-7~~~--7~~~--4~~~--2~~~--5~~~--7~~~-|
E:|-5~~~--4~~~--2~~~--0~~~--------5~~~-|

e:|-------------------------------------------------------|
B:|-------------------------------------------------------|
G:|-------------------------------------------------------|
D:|-9-9-9-9-9-9-9-9-9-9-9-9-9-9-9-9-9-9-9-9-9-9-9-9-9-9-9-|
A:|-7-7-7-7-7-7-7-7-7-7-7-7-7-7-7-7-7-7-7-7-7-7-7-7-7-7-7-|
E:|-0-0-0-0-0-0-0-0-0-0-0-0-0-0-0-0-0-0-0-0-0-0-0-0-0-0-0-|
PM    * * * * * * * *   * * * * * * * *

Final Chorus:

Gtr I

e:|-----------------------------------------------------------------|
B:|-----------------------------------------------------------------|
G:|-----------------------------------------------------------------|
D:|-7-7-7-7-7-7-7-7-7-7-7-7-7-7-7-7-4-4-4-4-4-4-4-4-2-2-2-2-2-2-2-2-|
A:|-7-7-7-7-7-7-7-7-7-7-7-7-7-7-7-7-4-4-4-4-4-4-4-4-2-2-2-2-2-2-2-2-|
E:|-5-5-5-5-5-5-5-5-4-4-4-4-4-4-4-4-2-2-2-2-2-2-2-2-0-0-0-0-0-0-0-0-|

e:|-----------------------------------------------------------------|
B:|-----------------------------------------------------------------|
G:|-7-7-7-7-7-7-7-7-7-7-7-7-7-7-7-7-9-9-9-9-9-9-9-9-9-9-9-9-9-9-9-9-|
D:|-7-7-7-7-7-7-7-7-7-7-7-7-7-7-7-7-9-9-9-9-9-9-9-9-9-9-9-9-9-9-9-9-|
A:|-5-5-5-5-5-5-5-5-5-5-5-5-5-5-5-5-7-7-7-7-7-7-7-7-7-7-7-7-7-7-7-7-|
E:|-----------------------------------------------------------------|

e:|-----------------------------------------------------------------|
B:|-----------------------------------------------------------------|
G:|-----------------------------------------------------------------|
D:|-7-7-7-7-7-7-7-7-7-7-7-7-7-7-7-7-4-4-4-4-4-4-4-4-2-2-2-2-2-2-2-2-|
A:|-7-7-7-7-7-7-7-7-7-7-7-7-7-7-7-7-4-4-4-4-4-4-4-4-2-2-2-2-2-2-2-2-|
E:|-5-5-5-5-5-5-5-5-4-4-4-4-4-4-4-4-2-2-2-2-2-2-2-2-0-0-0-0-0-0-0-0-|

e:|-------------------------------------------------|
B:|-------------------------------------------------|
G:|-7-7-7-7-7-7-7-7-7-7-7-7-7-7-7-7-----------------|
D:|-7-7-7-7-7-7-7-7-7-7-7-7-7-7-7-7-2-2-2-2-2-2-2-2-|
A:|-5-5-5-5-5-5-5-5-5-5-5-5-5-5-5-5-2-2-2-2-2-2-2-2-|
E:|---------------------------------0-0-0-0-0-0-0-0-|

Gtr II

e:|--------------------------------------------------------------------|
B:|--------------------------------------------------------------------|
G:|-1414141414141414/1313131313131313/1111111111111111/9-9-9-9-9-9-9-9-|
D:|--x-x-x-x-x-x-x-x--x-x-x-x-x-x-x-x--x-x-x-x-x-x-x-x-x-x-x-x-x-x-x-x-|
A:|-1212121212121212/1111111111111111/-9-9-9-9-9-9-9-9/7-7-7-7-7-7-7-7-|
E:|--------------------------------------------------------------------|

e:|--------------------------------------------------------------------|
B:|--------------------------------------------------------------------|
G:|-19191919191919191919191919191919-1616161616161616/1818181818181818-|
D:|--x-x-x-x-x-x-x-x-x-x-x-x-x-x-x-x--x-x-x-x-x-x-x-x--x-x-x-x-x-x-x-x-|
A:|-17171717171717171717171717171717-1414141414141414/1616161616161616-|
E:|--------------------------------------------------------------------|

e:|--------------------------------------------------------------------|
B:|--------------------------------------------------------------------|
G:|-1414141414141414/1313131313131313/1111111111111111/9-9-9-9-9-9-9-9-|
D:|--x-x-x-x-x-x-x-x--x-x-x-x-x-x-x-x--x-x-x-x-x-x-x-x-x-x-x-x-x-x-x-x-|
A:|-1212121212121212/1111111111111111/-9-9-9-9-9-9-9-9/7-7-7-7-7-7-7-7-|
E:|--------------------------------------------------------------------|

e:|----------------------------------------------------|
B:|----------------------------------------------------|
G:|-19191919191919191919191919191919-18/19-18/19-18/16-|
D:|--x-x-x-x-x-x-x-x-x-x-x-x-x-x-x-x--x--x--x--x--x--x-|
A:|-17171717171717171717171717171717-16/17-16/17-16/14-|
E:|----------------------------------------------------|

Outro:

Gtr I (x2)

e:|---------------------------------------------------|
B:|---------------------------------------------------|
G:|-----------------------------7~~~------------------|
D:|-7~~~---7~~~---4~~~---2~~~---7~~~---7~~~---2-2-2-2-|
A:|-7~~~---7~~~---4~~~---2~~~---5~~~---7~~~---2-2-2-2-|
E:|-5~~~---4~~~---2~~~---0~~~----------5~~~---0-0-0-0-|

Gtr II (x2)

e:|----------------------------------------------------|
B:|----------------------------------------------------|
G:|-19/18-16/14--19/18-16/14--19/18-16/14--19/18-16/14-|
D:|--x--x--x--x---x--x--x--x---x--x--x--x---x--x--x--x-|
A:|-17/16-14/12--17/16-14/12--17/16-14/12--17/16-14/12-|
E:|----------------------------------------------------|

e:|----------------|
B:|----------------|
G:|-14/13-11/16-16-|
D:|--x--x--x--x--x-|
A:|-12/11--9/14-14-|
E:|----------------|

End on:

Both gtr's

e:|-------|
B:|-------|
G:|-------|
D:|-7~~~~-|
A:|-7~~~~-|
E:|-5~~~~-|

----------------------
VI: I Don't Love You
----------------------

Gtr I: Ray Toro
Gtr II: Frank Iero
Gtr III: Ray Toro (Overdubbed)

Intro Pt I:

Gtr I

e:|-12----12----12----12----12----12----12----12----|
B:|-13----13----13----13----13----13----13----13----|
G:|----12----12----12----12----12----12----12----12-|
D:|-------------------------------------------------|
A:|-------------------------------------------------|
E:|-------------------------------------------------|

Intro Pt II:

Gtr I

e:|-12----12----12----12----13----13----12----12----|
B:|-13----13----13----13----13----13----13----13----|
G:|----12----12----12----12----12----12----12----12-|
D:|-------------------------------------------------|
A:|-------------------------------------------------|
E:|-------------------------------------------------|

e:|-12----12----12----12----13----13----12----12----|
B:|-13----13----13----13----13----13----13----13----|
G:|----14----14----14----14----14----14----14----14-|
D:|-------------------------------------------------|
A:|-------------------------------------------------|
E:|-------------------------------------------------|

e:|-10----10----10----10----10----10----10----10----|
B:|-13----13----13----13----12----12----13----13----|
G:|----12----12----12----12----12----12----12----12-|
D:|-------------------------------------------------|
A:|-------------------------------------------------|
E:|-------------------------------------------------|

e:|-12----12----12----12----10----10----------------|
B:|-------------------------------------13----12----|
G:|----12----12----12----12----12----12----12----12-|
D:|-------------------------------------------------|
A:|-------------------------------------------------|
E:|-------------------------------------------------|

Gtr II

e:|-----------------------------------------------------------------|
B:|-1-1-1-1-1-1-1-1-1-1-1-1-1-1-1-1-1-1-1-1-1-1-1-1-1-1-1-1-1-1-1-1-|
G:|-0-0-0-0-0-0-0-0-0-0-0-0-0-0-0-0-2-2-2-2-2-2-2-2-2-2-2-2-2-2-2-2-|
D:|-2-2-2-2-2-2-2-2-2-2-2-2-2-2-2-2-2-2-2-2-2-2-2-2-2-2-2-2-2-2-2-2-|
A:|-3-3-3-3-3-3-3-3-3-3-3-3-3-3-3-3-0-0-0-0-0-0-0-0-0-0-0-0-0-0-0-0-|
E:|-----------------------------------------------------------------|

e:|-3-3-3-3-3-3-3-3-3-3-3-3-3-3-3-3-1-1-1-1-1-1-1-1-3-3-3-3-3-3-3-3-|
B:|-3-3-3-3-3-3-3-3-3-3-3-3-3-3-3-3-1-1-1-1-1-1-1-1-3-3-3-3-3-3-3-3-|
G:|-0-0-0-0-0-0-0-0-0-0-0-0-0-0-0-0-2-2-2-2-2-2-2-2-4-4-4-4-4-4-4-4-|
D:|-0-0-0-0-0-0-0-0-0-0-0-0-0-0-0-0-3-3-3-3-3-3-3-3-5-5-5-5-5-5-5-5-|
A:|-2-2-2-2-2-2-2-2-2-2-2-2-2-2-2-2-3-3-3-3-3-3-3-3-5-5-5-5-5-5-5-5-|
E:|-3-3-3-3-3-3-3-3-3-3-3-3-3-3-3-3-1-1-1-1-1-1-1-1-3-3-3-3-3-3-3-3-|

Verse I:

Gtr I

e:|--------------------------------------|
B:|-13~--3-3-3-3-3-3-3-3-3-3-3-3-3-3-3-3-|
G:|------5-5-5-5-5-5-5-5-5-5-5-5-5-5-5-5-|
D:|------5-5-5-5-5-5-5-5-5-5-5-5-5-5-5-5-|
A:|------0-0-0-0-0-0-0-0-0-0-0-0-0-0-0-0-|
E:|--------------------------------------|

e:|---------------------------------|
B:|---------------------------------|
G:|-5-5-5-5-5-5-5-5-4-4-4-4-4-4-4-4-|
D:|-5-5-5-5-5-5-5-5-5-5-5-5-5-5-5-5-|
A:|-3-3-3-3-3-3-3-3-5-5-5-5-5-5-5-5-|
E:|-3-3-3-3-3-3-3-3-3-3-3-3-3-3-3-3-|

e:|-----------------------------------|
B:|-5-5-5-5-5-5-5-5-5-5-5-5-5-5-------|
G:|-5-5-5-5-5-5-5-5-5-5-5-5-5-5-x-x-x-|
D:|-5-5-5-5-5-5-5-5-5-5-5-5-5-5-x-x-x-|
A:|-3-3-3-3-3-3-3-3-3-3-3-3-3-3-x-x-x-|
E:|-----------------------------------|

Gtr II

e:|----------------------------------------|
B:|----------------------------------------|
G:|----------------------------------------|
D:|-/3~-2--0--2--0------3/5--2~--0-2/3/2~~-|
A:|-----------------3~~--------------------|
E:|----------------------------------------|

e:|------------------------------------------|
B:|------------------------------------------|
G:|------------------------------------x-x-x-|
D:|-----2/3~-0-----------2h3~-5~~--3-2-x-x-x-|
A:|-2h3-------------2h3~---------------x-x-x-|
E:|------------3~~---------------------------|

Pre-Chorus I:

Gtr I

e:|---------------------------------|
B:|-5-5-5-5-5-5-5-5-5-5-5-5-5-5-5-5-|
G:|-5-5-5-5-5-5-5-5-5-5-5-5-5-5-5-5-|
D:|-5-5-5-5-5-5-5-5-5-5-5-5-5-5-5-5-|
A:|-3-3-3-3-3-3-3-3-3-3-3-3-3-3-3-3-|
E:|---------------------------------|

e:|---------------------------------|
B:|-3-3-3-3-3-3-3-3-3-3-3-3-3-3-3-3-|
G:|-5-5-5-5-5-5-5-5-5-5-5-5-5-5-5-5-|
D:|-5-5-5-5-5-5-5-5-5-5-5-5-5-5-5-5-|
A:|-0-0-0-0-0-0-0-0-0-0-0-0-0-0-0-0-|
E:|---------------------------------|

e:|---------------------------------|
B:|---------------------------------|
G:|-5-5-5-5-5-5-5-5-4-4-4-4-4-4-4-4-|
D:|-5-5-5-5-5-5-5-5-5-5-5-5-5-5-5-5-|
A:|-3-3-3-3-3-3-3-3-5-5-5-5-5-5-5-5-|
E:|-3-3-3-3-3-3-3-3-3-3-3-3-3-3-3-3-|

e:|---------------------------------|
B:|-5-5-5-5-5-5-5-5-5-5-5-5-5-5-5-5-|
G:|-5-5-5-5-5-5-5-5-5-5-5-5-5-5-5-5-|
D:|-5-5-5-5-5-5-5-5-5-5-5-5-5-5-5-5-|
A:|-3-3-3-3-3-3-3-3-3-3-3-3-3-3-3-3-|
E:|---------------------------------|

Gtr II

e:|------------------------------------|
B:|------------------------------------|
G:|-10/9-9/7-7/9/7/5--10/9-9/7-7/9/7/5-|
D:|--x-x-x-x-x-x-x-x---x-x-x-x-x-x-x-x-|
A:|--8/7-7/5-5/7/5/3---8/7-7/5-5/7/5/3-|
E:|------------------------------------|

e:|--------------------------------------------|
B:|--------------------------------------------|
G:|-12/10-10/9-7-7/9/7/5--12/10-10/9-7-7/9/7/5-|
D:|--x--x--x-x-x-x-x-x-x---x--x--x-x-x-x-x-x-x-|
A:|-10/-8--8/7-5-5/7/5/3--10/-8--8/7-5-5/7/5/3-|
E:|--------------------------------------------|

e:|------------------------|
B:|------------------------|
G:|-5-5-5-5-5-5/7-7-7-7/---|
D:|-x-x-x-x-x-x-x-x-x-x-5~-|
A:|-3-3-3-3-3-3/5-5-5-5/5~-|
E:|---------------------3~-|

e:|-----------------------------------------------------|
B:|-----------------------------------------------------|
G:|-5/7-7-7-7/9-9-9-9/7-7-7-7/10101010/9-9-7-7/9/7/5-10-|
D:|-x-x-x-x-x-x-x-x-x-x-x-x-x--x-x-x-x-x-x-x-x-x-x-x--x-|
A:|-3/5-5-5-5/7-7-7-7/5-5-5-5/-8-8-8-8/7-7-5-5/7/5/3--8-|
E:|-----------------------------------------------------|

Chorus:

Gtr I

e:|-----------------------------------------------------------------|
B:|-------------------------------------------------6-6-6-6-6-6-6-6-|
G:|-------------------------------------------------7-7-7-7-7-7-7-7-|
D:|-3-3-3-3-3-3-3-3-5-5-5-5-6-6-6-6-7-7-7-7-2-2-2-2-7-7-7-7-7-7-7-7-|
A:|-3-3-3-3-3-3-3-3-5-5-5-5-7-7-7-7-7-7-7-7-2-2-2-2-5-5-5-5-5-5-5-5-|
E:|-1-1-1-1-1-1-1-1-3-3-3-3-4-4-4-4-5-5-5-5-0-0-0-0-----------------|

e:|------------------------------------|
B:|---------------------------------5~-|
G:|---------------------------------5~-|
D:|-3-3-3-3-3-3-3-3-5-5-5-5-5-5-5-5-5~-|
A:|-3-3-3-3-3-3-3-3-5-5-5-5-5-5-5-5-3~-|
E:|-1-1-1-1-1-1-1-1-3-3-3-3-3-3-3-3----|

Gtr II

e:|---------------------------------|
B:|---------------------------------|
G:|-10--10-10/9--7--5/7--9-7-5/7--5-|
D:|--x---x--x-x--x--x-x--x-x-x-x--x-|
A:|--8---8--8/7--5--3/5--7-5-3/5--3-|
E:|---------------------------------|

e:|----------------------------------|
B:|----------------------------------|
G:|-5/7--9-7/5--5/9/7--5/4--4/5/7-5~-|
D:|-x-x--x-x-x--x-x-x--x-x--x-x-x-x--|
A:|-3/5--7-5/3--3/7/5--3/2--2/3/5-3~-|
E:|----------------------------------|

Verse II:

Gtr I

e:|---------------------------------|
B:|-------5-------5-------5-------5-|
G:|---5-------5-------5-------5-----|
D:|-5---5---5---5---5---5---5---5---|
A:|---------------------------------|
E:|---------------------------------|

e:|---------------------------------|
B:|-------3-------3-------3-------3-|
G:|---5-------5-------5-------5-----|
D:|-5---5---5---5---5---5---5---5---|
A:|---------------------------------|
E:|---------------------------------|


e:|---------------------------------|
B:|-------3-------3-------3-------3-|
G:|---4-------4-------4-------4-----|
D:|-5---5---5---5---5---5---5---5---|
A:|---------------------------------|
E:|---------------------------------|

e:|---------------------------------|
B:|-------5-------5-------5-------5-|
G:|---5-------5-------5-------5-----|
D:|-5---5---5---5---5---5---5---5---|
A:|---------------------------------|
E:|---------------------------------|

Gtr II

e:|---------------------------------------------|
B:|---------------------------------------------|
G:|---5-7-5---5-7-5------5-9-7-5-9-7^(9)r7-5----|
D:|-5-------5-------5--5---------------------7~-|
A:|---------------------------------------------|
E:|---------------------------------------------|

e:|-----------------------------------|
B:|-----------------------------------|
G:|-----------------------------------|
D:|-/5-3-2-----/5-3-2-3-5------2h3-5~-|
A:|--------3~-------------2h3~--------|
E:|-----------------------------------|

Pre-Chorus II:

Gtr I

e:|---------------------------------|
B:|-5-5-5-5-5-5-5-5-5-5-5-5-5-5-5-5-|
G:|-5-5-5-5-5-5-5-5-5-5-5-5-5-5-5-5-|
D:|-5-5-5-5-5-5-5-5-5-5-5-5-5-5-5-5-|
A:|-3-3-3-3-3-3-3-3-3-3-3-3-3-3-3-3-|
E:|---------------------------------|

e:|---------------------------------|
B:|-3-3-3-3-3-3-3-3-3-3-3-3-3-3-3-3-|
G:|-5-5-5-5-5-5-5-5-5-5-5-5-5-5-5-5-|
D:|-5-5-5-5-5-5-5-5-5-5-5-5-5-5-5-5-|
A:|-0-0-0-0-0-0-0-0-0-0-0-0-0-0-0-0-|
E:|---------------------------------|

e:|---------------------------------|
B:|---------------------------------|
G:|-5-5-5-5-5-5-5-5-4-4-4-4-4-4-4-4-|
D:|-5-5-5-5-5-5-5-5-5-5-5-5-5-5-5-5-|
A:|-3-3-3-3-3-3-3-3-5-5-5-5-5-5-5-5-|
E:|-3-3-3-3-3-3-3-3-3-3-3-3-3-3-3-3-|

e:|---------------------------------|
B:|-5-5-5-5-5-5-5-5-5-5-5-5-5-5-5-5-|
G:|-5-5-5-5-5-5-5-5-5-5-5-5-5-5-5-5-|
D:|-5-5-5-5-5-5-5-5-5-5-5-5-5-5-5-5-|
A:|-3-3-3-3-3-3-3-3-3-3-3-3-3-3-3-3-|
E:|---------------------------------|

Gtr II

e:|------------------------------------|
B:|------------------------------------|
G:|-10/9-9/7-7/9/7/5--10/9-9/7-7/9/7/5-|
D:|--x-x-x-x-x-x-x-x---x-x-x-x-x-x-x-x-|
A:|--8/7-7/5-5/7/5/3---8/7-7/5-5/7/5/3-|
E:|------------------------------------|

e:|--------------------------------------------|
B:|--------------------------------------------|
G:|-12/10-10/9-7-7/9/7/5--12/10-10/9-7-7/9/7/5-|
D:|--x--x--x-x-x-x-x-x-x---x--x--x-x-x-x-x-x-x-|
A:|-10/-8--8/7-5-5/7/5/3--10/-8--8/7-5-5/7/5/3-|
E:|--------------------------------------------|

e:|--------------------------------------------------------|
B:|--------------------------------------------------------|
G:|-5-5-5-5/12-12-12~--10101010/9-9-9-9/7-7-7-7/9-9-9-9/5~-|
D:|-x-x-x-x--x--x--x----x-x-x-x-x-x-x-x-x-x-x-x-x-x-x-x-x--|
A:|-3-3-3-3/10-10-10~---8-8-8-8/7-7-7-7/5-5-5-5/7-7-7-7/3~-|
E:|--------------------------------------------------------|


Repeat Chorus

Solo:

Gtr I

e:|---------------------------------------------------------|
B:|-10------10------10------10------10------13------13------|
G:|-12^(14)-12^(14)-12^(14)-12^(14)-12^(14)-15^(17)-15^(17)-|
D:|---------------------------------------------------------|
A:|---------------------------------------------------------|
E:|---------------------------------------------------------|

e:|---------------------------------------------------------------|
B:|-12------12------12------12------12------12--------------------|
G:|-14^(16)-14^(16)-14^(16)-14^(16)-14^(16)-14^(16)-14^(16)r14-12-|
D:|---------------------------------------------------------------|
A:|---------------------------------------------------------------|
E:|---------------------------------------------------------------|

e:|--------------------------------------------------------------|
B:|--8-------8------------9-------9------10------10------10------|
G:|-10^(12)-10^(12)-9h11-11^(13)-11^(13)-12^(14)-12^(14)-12^(14)-|
D:|--------------------------------------------------------------|
A:|--------------------------------------------------------------|
E:|--------------------------------------------------------------|

e:|------------------------------------------15----13----12----12-|
B:|-12h13p10-12h3-15^(17)-15p13h15~-15-13-13----13----13----12----|
G:|---------------------------------------------------------------|
D:|---------------------------------------------------------------|
A:|---------------------------------------------------------------|
E:|---------------------------------------------------------------|

e:|----10----10-----------10--------------------|
B:|-12----12----12~--12-12----12/10-10-10~-8-8~-|
G:|---------------------------------------------|
D:|---------------------------------------------|
A:|---------------------------------------------|
E:|---------------------------------------------|

Gtr II

e:|-----------------------------------------------------------|
B:|-----------------------------------------------------------|
G:|-----------------------------------------------------------|
D:|-7-7-7-7-7-7-7-7-5-5-5-5-5-5-5-5-5-5-5-5-5-2~-3~-2~--------|
A:|-5-5-5-5-5-5-5-5-5-5-5-5-5-5-5-5-3-3-2-2-2-0~-------3~-2h3-|
E:|-----------------3-3-3-3-3-3-3-3---------------------------|

e:|----------------------------------|
B:|-3-3-3-3-3------------------------|
G:|-2-2-2-2-2---------------------5~-|
D:|-0-0-0-0-0-----5-5-5-5-5-5-5-5-5~-|
A:|---------------5-5-5-5-5-5-5-5-3~-|
E:|-----------0h1-3-3-3-3-3-3-3-3----|

Before Outro:

Gtr II

e:|-----------------------------------------------------|
B:|-----------------------------------------------------|
G:|-----------------------------------------------------|
D:|-----------------------------------------------------|
A:|-/8-7/5~--3/5-7-5-3/5/3~--3/5/7-5/3~-3/7/5-3/2-2/3/5-|
E:|-----------------------------------------------------|

Outro:

Gtr I

e:|---------------------------------------------------------|
B:|---------------------------------------------------------|
G:|-5~--4~--2-2-2-2-----------------------------------------| (x2)
D:|-5~--5~--2-2-2-2-5-5-5-5-3-3-3-3-3-3-3-3-5-5-5-5-5-5-5-5-|
A:|-3~--2~--0-0-0-0-5-5-5-5-3-3-3-3-3-3-3-3-5-5-5-5-5-5-5-5-|
E:|-----------------3-3-3-3-1-1-1-1-1-1-1-1-3-3-3-3-3-3-3-3-|

Gtr II

e:|---------------------------------------------|
B:|---------------------------------------------|
G:|-12~--10~--10/9-9/7-7/5--10-9-7-5-10-9-5/7/9-|
D:|--x----x----x-x-x-x-x-x---x-x-x-x--x-x-x-x-x-|
A:|-10----8~---8/7-7/5-5/3---8-7-5-3--8-7-3/5/7-|
E:|---------------------------------------------|

e:|---------------------------------------------------|
B:|---------------------------------------------------|
G:|-12~--12/14~--14/12/10-9/10/7--9-7-5/7/9-7-5-4/5/7-|
D:|--x----x--x----x--x--x-x--x-x--x-x-x-x-x-x-x-x-x-x-|
A:|-10~--10/12~--12/10/-8-7/-8/5--7-5-3/5/7-5-3-2/3/5-|
E:|---------------------------------------------------|

Gtr III (Listen carefully for when this comes in)

e:|-12----12----12----12----10----10----10----10----|
B:|-13----13----13----13----12----12----13----13----|
G:|----12----12----12----12----12----12----12----12-| (x2)
D:|-------------------------------------------------|
A:|-------------------------------------------------|
E:|-------------------------------------------------|

End on:

Gtr I

e:|----|
B:|-5~-|
G:|-5~-|
D:|-5~-|
A:|-3~-|
E:|----|

Gtr II

e:|----|
B:|----|
G:|-5~-|
D:|-x--|
A:|-3~-|
E:|----|

Gtr III

e:|-12~-|
B:|-13~-|
G:|-12~-|
D:|-----|
A:|-----|
E:|-----|

----------------------
VII: House Of Wolves
-----------------------

Gtr I: Ray Toro
Gtr II: Frank Iero
Gtr III: Ray Toro (overdubbed)

Intro:

(The first part of the intro is just pick scrapes, until:)

Gtr I

e:|-------------------------------------------------|
B:|-------------------------------------------------|
G:|-------------------------------------------------|
D:|-9-9-x-7-7-x-5-5-x-4-4-4-9-9-x-7-7-x-5-5-x-4-4-4-|
A:|-7-7-x-5-5-x-3-3-x-2-2-2-7-7-x-5-5-x-3-3-x-2-2-2-|
E:|-------------------------------------------------|

e:|-------------------------------------------------|
B:|-------------------------------------------------|
G:|-------------------------------------------------|
D:|-9-9-x-7-7-x-5-5-x-4-4-4-9-9-x-7-7-x-5-5-x-4-4-4-|
A:|-7-7-x-5-5-x-3-3-x-2-2-2-7-7-x-5-5-x-3-3-x-2-2-2-|
E:|-------------------------------------------------|

Gtr II

e:|-------------------------------------------------|
B:|-------------------------------------------------|
G:|-9-9-x-7-7-x-5-5-x-4-4-4-9-9-x-7-7-x-5-5-x-4-4-4-|
D:|-x-x-x-x-x-x-x-x-x-x-x-x-x-x-x-x-x-x-x-x-x-x-x-x-|
A:|-7-7-x-5-5-x-3-3-x-2-2-2-7-7-x-5-5-x-3-3-x-2-2-2-|
E:|-------------------------------------------------|

e:|----------------------------|
B:|----------------------------|
G:|-9-9-x-1111-x-1212-x-111111-|
D:|-x-x-x--x-x-x--x-x-x--x-x-x-|
A:|-7-7-x--9-9-x-1010-x--9-9-9-|
E:|----------------------------|

e:|-------------------------|
B:|-------------------------|
G:|-9-9-x-7-7-x-5-5-x-4-4-4-|
D:|-x-x-x-x-x-x-x-x-x-x-x-x-|
A:|-7-7-x-5-5-x-3-3-x-2-2-2-|
E:|-------------------------|

Verse I Pt I:

Gtr I

e:|-------------------|
B:|-------------------|
G:|-------------------|
D:|-2~~~~~~~~~~~~~~~~-|
A:|-2~~~~~~~~~~~~~~~~-|
E:|-0~~~~~~~~~~~~~~~~-|


e:|-7--7--7--7--7--7--7--7--7--7--7--7--7--7-|
B:|-8--8--8--8--8--8--8--8--8--8--8--8--8--8-|
G:|-9--9--9--9--9--9--9--9--9--9--9--9--9--9-|
D:|-9--9--9--9--9--9--9--9--9--9--9--9--9--9-|
A:|-7--7--7--7--7--7--7--7--7--7--7--7--7--7-|
E:|------------------------------------------|

Gtr II

e:|-----------------------------------------|
B:|----------8---------8-----8~~----8~------|
G:|-9~~~~~~----9---------9-------------9----|
D:|-x------------9~~---------------------9~-|
A:|-7~~~~~~------7~~-------7-------------7~-|
E:|-----------------------------------------|

Pre-Chorus

Both Gtr's

e:|--------------------------------|
B:|--------------------------------|
G:|-----------4/5~~---5/7~~--7/8~~-|
D:|-4-4-4-4-4-4/5~~---5/7~~--7/8~~-|
A:|-2-2-2-2-2-2/3~~---3/5~~--5/6~~-|
E:|--------------------------------|

Chorus:

Gtr I

e:|---------------------------------------------------------------|
B:|---------------------------------------------------------------|
G:|-9-9-9-9-9-9-9-9-11/12-11/9-7/9-9-9-9-9-9-9-9-9-11/12-11/9-7/9-|
D:|-x-x-x-x-x-x-x-x--x--x--x-x-x-x-x-x-x-x-x-x-x-x--x--x--x-x-x-x-|
A:|-7-7-7-7-7-7-7-7--9/10--9/7-5/7-7-7-7-7-7-7-7-7--9/10--9/7-5/7-|
E:|---------------------------------------------------------------|

e:|-------------------------------------------------------------|
B:|-------------------------------------------------------------|
G:|-9-9-9-9-9-9-9-9-11/12-11/9-7/8-8-8-8-8-8-8-8-8-11/12-11/9/7-|
D:|-x-x-x-x-x-x-x-x--x--x--x-x-x-x-x-x-x-x-x-x-x-x--x--x--x-x-x-|
A:|-7-7-7-7-7-7-7-7--9/10--9/7-5/6-6-6-6-6-6-6-6-6--9/10--9/7/5-|
E:|-------------------------------------------------------------|

e:|---------------------------------------------------------------|
B:|---------------------------------------------------------------|
G:|-9-9-9-9-9-9-9-9-11/12-11/9-7/9-9-9-9-9-9-9-9-9-11/12-11/9-7/9-|
D:|-x-x-x-x-x-x-x-x--x--x--x-x-x-x-x-x-x-x-x-x-x-x--x--x--x-x-x-x-|
A:|-7-7-7-7-7-7-7-7--9/10--9/7-5/7-7-7-7-7-7-7-7-7--9/10--9/7-5/7-|
E:|---------------------------------------------------------------|

e:|-----------------------------------------------------------|
B:|-----------------------------------------------------------|
G:|-9-9-9-9-9-9-9-9-11/12-11/9-7/8-8-8-8-8-8-8-8-8-11/12/1414-|
D:|-x-x-x-x-x-x-x-x--x--x--x-x-x-x-x-x-x-x-x-x-x-x--x--x--x-x-|
A:|-7-7-7-7-7-7-7-7--9/10--9/7-5/6-6-6-6-6-6-6-6-6--9/10/1212-|
E:|-----------------------------------------------------------|

Gtr II

e:|-----------------------------------------------------------------|
B:|-----------------------------------------------------------------|
G:|-----------------------------------------------------------------|
D:|-9-9-9-9-9-9-9-9-9-9-9-9-9-9-9-9-5-5-5-5-5-5-5-5-5-5-5-5-5-5-5-5-|
A:|-7-7-7-7-7-7-7-7-7-7-7-7-7-7-7-7-3-3-3-3-3-3-3-3-3-3-3-3-3-3-3-3-|
E:|-----------------------------------------------------------------|

e:|-------------------------------------------------------------|
B:|-------------------------------------------------------------|
G:|-------------------------------------------------------------|
D:|-5-5-5-5-5-5-5-5-5-5-5-5-5-5-5-5-4-4-4-4-4-4-4-4-4-4-4-4-5-7-|
A:|-5-5-5-5-5-5-5-5-5-5-5-5-5-5-5-5-2-2-2-2-2-2-2-2-2-2-2-2-3-5-|
E:|-3-3-3-3-3-3-3-3-3-3-3-3-3-3-3-3-----------------------------|

e:|-----------------------------------------------------------------|
B:|-----------------------------------------------------------------|
G:|-----------------------------------------------------------------|
D:|-9-9-9-9-9-9-9-9-9-9-9-9-9-9-9-9-5-5-5-5-5-5-5-5-5-5-5-5-5-5-5-5-|
A:|-7-7-7-7-7-7-7-7-7-7-7-7-7-7-7-7-3-3-3-3-3-3-3-3-3-3-3-3-3-3-3-3-|
E:|-----------------------------------------------------------------|

e:|-------------------------------------------------------------|
B:|-------------------------------------------------------------|
G:|-------------------------------------------------------------|
D:|-5-5-5-5-5-5-5-5-5-5-5-5-5-5-5-5-4-4-4-4-4-4-4-4-4-4-4-4-5-7-|
A:|-5-5-5-5-5-5-5-5-5-5-5-5-5-5-5-5-2-2-2-2-2-2-2-2-2-2-2-2-3-5-|
E:|-3-3-3-3-3-3-3-3-3-3-3-3-3-3-3-3-----------------------------|

Pre-Verse:

Gtr I

e:|-------------------------------|
B:|-------------------------------|
G:|-------------------------------|
D:|-2~~~~~~~~~~~~-----------------|
A:|-2~~~~~~~~~~~~-2/7-5-3-3h5p3/2-|
E:|-0~~~~~~~~~~~~-----------------|

Gtr II just plays pick-scrapes

Verse II

Gtr I

e:|---------------|
B:|---------------|
G:|---------------|
D:|-2~~~~~~~~~~~~-|
A:|-2~~~~~~~~~~~~-|
E:|-0~~~~~~~~~~~~-|

e:|-7--7--7--7--7--7--7--7--7--7--7--7--7--7-|
B:|-8--8--8--8--8--8--7--7--8--8--8--8--8--8-|
G:|-9--9--9--9--9--9--8--8--9--9--9--9--9--9-|
D:|-9--9--9--9--9--9--9--9--9--9--9--9--9--9-|
A:|-7--7--7--7--7--7--9--9--7--7--7--7--7--7-|
E:|-------------------7--7-------------------|

Gtr II

e:|------------------------------------------------|
B:|-------8-----8------------------8-----8---------|
G:|-----9---9-----9--------------9---9-----9-------|
D:|---9-------------9----------9-------------9-----|
A:|-7---------7-------7~~----7---------7-------9~~-|
E:|------------------------------------------------|

e:|-7--7-7--7-7--7-7--7-7--7-7--7-7--7-7--7--7-7--7-7--7-7--7-7--7-7-|
B:|-8--8-8--8-8--8-8--8-8--8-8--7-7--7-7--8--8-8--8-8--8-8--8-8--8-8-|
G:|-9--9-9--9-9--9-9--9-9--9-9--8-8--8-8--9--9-9--9-9--9-9--9-9--9-9-|
D:|------------------------------------------------------------------|
A:|------------------------------------------------------------------|
E:|------------------------------------------------------------------|

Repeat Pre-Chorus

Repeat Chorus

Bridge:

Both Gtr's

e:|---------------------------------------------------|
B:|---------------------------------------------------|
G:|---------------------------------------------------|
D:|---------------------------------------------------|
A:|-2-2-2-2-5/7-2-2-2-2-5/7-2-2-2-2-5/7-2-2-2-2-5/7-2-|
E:|-0-0-0-0-3/5-0-0-0-0-3/5-0-0-0-0-3/5-0-0-0-0-3/5-0-|

e:|---------------------------|
B:|---------------------------|
G:|---------------------------|
D:|---------------------------|
A:|-2-2-2-2-5/7-2-2-2-2-5/7-2-|
E:|-0-0-0-0-3/5-0-0-0-0-3/5-0-|

e:|---------------------------|
B:|---------------------------|
G:|---------------------------|
D:|-4-4-4-4-7/9-4-4-4-4-7/9-9-|
A:|-2-2-2-2-5/7-2-2-2-2-5/7-7-|
E:|---------------------------|

Gtr I

e:|-------------------------------------------------------------|
B:|-------------------------------------------------------------|
G:|-----2-------------------------------------------------------|
D:|-----2-----------------------4-4-4-4-4-4-4-4/7-7-7-7-7-7-7-7-|
A:|-2-2-0-----------------------2-2-2-2-2-2-2-2/5-5-5-5-5-5-5-5-|
E:|-0-0---/////Pick-scrape\\\\\---------------------------------|

e:|-----------------------------|
B:|-----------------------------|
G:|-------------------------4/7-|
D:|-4-x-x-4-x-x-4-x-x-4-x-x-x-x-|
A:|-2-x-x-2-x-x-2-x-x-2-x-x-2/5-|
E:|-----------------------------|

Gtr II

e:|------------------------------------------------|
B:|------------------------------------------------|
G:|-----2--<5>~~~~---------------------------------|
D:|-----2--<5>~~~~-4-4-4-4-4-4-4-4/7-7-7-7-7-7-7-7-|
A:|-2-2-0--<5>~~~~-2-2-2-2-2-2-2-2/5-5-5-5-5-5-5-5-|
E:|-0-0--------------------------------------------|

e:|-----------------------------|
B:|-----------------------------|
G:|-----------------------------|
D:|-4-x-x-4-x-x-4-x-x-4-x-x-2-2-|
A:|-2-x-x-2-x-x-2-x-x-2-x-x-2-2-|
E:|-------------------------0-0-|

Repeat Chorus

solo:

I have NO idea what Gtr I plays here so you may have to refer to a different tab, but 
is Gtr II:

e:|-----------------------------------------------------------------|
B:|-----------------------------------------------------------------|
G:|-----------------------------------------------------------------|
D:|-9-9-9-9-9-9-9-9-9-9-9-9-9-9-9-9-5-5-5-5-5-5-5-5-5-5-5-5-5-5-5-5-|
A:|-7-7-7-7-7-7-7-7-7-7-7-7-7-7-7-7-3-3-3-3-3-3-3-3-3-3-3-3-3-3-3-3-|
E:|-----------------------------------------------------------------|

e:|-------------------------------------------------------------|
B:|-------------------------------------------------------------|
G:|-------------------------------------------------------------|
D:|-5-5-5-5-5-5-5-5-5-5-5-5-5-5-5-5-4-4-4-4-4-4-4-4-4-4-4-4-7-7-|
A:|-5-5-5-5-5-5-5-5-5-5-5-5-5-5-5-5-2-2-2-2-2-2-2-2-2-2-2-2-5-5-|
E:|-3-3-3-3-3-3-3-3-3-3-3-3-3-3-3-3-----------------------------|

Outro:

Gtr I

e:|-------------------------------------------------|
B:|-------------------------------------------------|
G:|-------------------------------------------------|
D:|-9-9-x-7-7-x-5-5-x-4-4-4-9-9-x-7-7-x-5-5-x-4-4-4-|
A:|-7-7-x-5-5-x-3-3-x-2-2-2-7-7-x-5-5-x-3-3-x-2-2-2-|
E:|-------------------------------------------------|

e:|-------------------------------------------------|
B:|-------------------------------------------------|
G:|-------------------------------------------------|
D:|-9-9-x-7-7-x-5-5-x-4-4-4-9-9-x-7-7-x-5-5-x-4-4-4-|
A:|-7-7-x-5-5-x-3-3-x-2-2-2-7-7-x-5-5-x-3-3-x-2-2-2-|
E:|-------------------------------------------------|

e:|-------------------------------------------------|
B:|-------------------------------------------------|
G:|-------------------------------------------------|
D:|-9-9-x-7-7-x-5-5-x-4-4-4-9-9-x-7-7-x-5-5-x-4-4-4-|
A:|-7-7-x-5-5-x-3-3-x-2-2-2-7-7-x-5-5-x-3-3-x-2-2-2-|
E:|-------------------------------------------------|

e:|---------------------|
B:|---------------------|
G:|---------------------|
D:|-9-9-x-7-7-x-5-7-5-4-|
A:|-7-7-x-5-5-x-3-5-3-2-|
E:|---------------------|
PM              * * * *

Gtr II

e:|-------------------------------------------------|
B:|-------------------------------------------------|
G:|-9-9-x-7-7-x-5-5-x-4-4-4-9-9-x-7-7-x-5-5-x-4-4-4-|
D:|-x-x-x-x-x-x-x-x-x-x-x-x-x-x-x-x-x-x-x-x-x-x-x-x-|
A:|-7-7-x-5-5-x-3-3-x-2-2-2-7-7-x-5-5-x-3-3-x-2-2-2-|
E:|-------------------------------------------------|

e:|----------------------------|
B:|----------------------------|
G:|-9-9-x-1111-x-1212-x-111111-|
D:|-x-x-x--x-x-x--x-x-x--x-x-x-|
A:|-7-7-x--9-9-x-1010-x--9-9-9-|
E:|----------------------------|

e:|---------------------------|
B:|---------------------------|
G:|-9-9-x-7-7-x-5-5-x-5-7-5-4-|
D:|-x-x-x-x-x-x-x-x-x-x-x-x-x-|
A:|-7-7-x-5-5-x-3-3-x-3-5-3-2-|
E:|---------------------------|
PM                    * * * *

Gtr III

e:|-12-----12-----12-----12-----12-----12-----12-----12------|
B:|-15^(17)15^(17)15^(17)15^(17)15^(17)15^(17)15^(17)15^(17)-|
G:|----------------------------------------------------------|
D:|----------------------------------------------------------|
A:|----------------------------------------------------------|
E:|----------------------------------------------------------|


e:|-14-----14-----14-----14-----14-----14-----14-----14------|
B:|-17^(19)17^(19)17^(19)15^(19)17^(19)17^(19)17^(19)17^(19)-|
G:|----------------------------------------------------------|
D:|----------------------------------------------------------|
A:|----------------------------------------------------------|
E:|----------------------------------------------------------|

e:|-15-----15-----15-----15-----15-----15-----15-----15------|
B:|-18^(20)18^(20)18^(20)18^(20)18^(20)18^(20)18^(20)18^(20)-|
G:|----------------------------------------------------------|
D:|----------------------------------------------------------|
A:|----------------------------------------------------------|
E:|----------------------------------------------------------|

e:|-19-----19-----19-----19--------------|
B:|-22^(24)22^(24)22^(24)22^(24)---------|
G:|--------------------------------------|
D:|------------------------------5-7-5-4-|
A:|------------------------------3-5-3-2-|
E:|--------------------------------------|
PM                               * * * *

End on:

Both Gtr's

e:|---|
B:|---|
G:|---|
D:|-2-|
A:|-2-|
E:|-0-|

--------------
VIII: Cancer
--------------

NOTE: This is the version from AOL sessions, as the album track has no guitar.

Gtr I: Ray Toro

Intro: (x2)

e:|----------------------7~--7~--7~-|
B:|----------------------7~--7~--7~-|
G:|-9---8---11---9---8~--8~--8~--8~-|
D:|-9---9----9---9---9~--9~--9~--9~-|
A:|---7---7----7---7-9~--9~--9~--9~-|
E:|------------------7~--7~--7~--7~-|

e:|------------------7~--7~--7~--7~-|
B:|------------------7~--7~--7~--7~-|
G:|-9---8---11---9---8~--8~--8~--8~-|
D:|-9---9----9---9---9~--9~--9~--9~-|
A:|---7---7----7---7-9~--9~--9~--9~-|
E:|------------------7~--7~--7~--7~-|

Verses: (x2)

e:|-----------------------------------------------------------------------|
B:|-0---0---0---0---4---4---5---4---5---5---5---5---------1---1---1---1---|
G:|-1---1---1---1---4---4---4---4---6---6---6---6-6-5-4-3-2---2---2---2---|
D:|-2---2---2---2---4---4---4---4---6---6---6---6-x-x-x-x-2---2---2---2---|
A:|-2---2---2---2---2-2-2-2-2-2-2-2-4-4-4-4-4-4-4-4-3-2-1-0-0-0-0-0-0-0-0-|
E:|---0---0---0---0-------------------------------------------------------|

Pre-Chorus I:

e:|-----------------------------------------------------------------|
B:|-2---2---2---2---4---4---4---4---5---5---5---5---1---1---1---1---|
G:|-2---2---3---3---4---4---5---5---6---6---6---6---2---2---2---2---|
D:|-2---2---4---4---4---4---6---6---6---6---6---6---2---2---2---2---|
A:|-0-0-0-0-1-1-1-1-2-2-2-2-3-3-3-3-4-4-4-4-4-4-4-4-0-0-0-0-0-0-0-0-|
E:|-----------------------------------------------------------------|

Chorus:

e:|---------------------------------|
B:|-2-2-2-2-4-5-5-4-4---4---5---4---|
G:|-3-3-3-3-3-3-3-3-4---4---4---4---|
D:|-4-4-4-4-4-4-4-4-4---4---4---4---|
A:|-4-4-4-4-4-4-4-4-2-2-2-2-2-2-2-2-|
E:|-2-2-2-2-2-2-2-2-----------------|

Pre-Verse:

e:|--------------------------------|
B:|-9~--9~--9~--9~--9~--9~--9~--9~-|
G:|-9~--9~--9~--9~--9~--9~--9~--9~-|
D:|-9~--9~--9~--9~--9~--9~--9~--9~-|
A:|-7~--7~--7~--7~--7~--7~--7~--7~-|
E:|--------------------------------|

Repeat Verse (x2)

Pre-Chorus II:

e:|-------------------------------------------------5-5-5-5-5-5-5-5-|
B:|-2---2---2---2---4---4---4---4---5---5---5---5---5-5-5-5-5-5-5-5-|
G:|-2---2---3---3---4---4---5---5---6---6---6---6---5-5-5-5-5-5-5-5-|
D:|-2---2---4---4---4---4---6---6---6---6---6---6---7-7-7-7-7-7-7-7-|
A:|-0-0-0-0-1-1-1-1-2-2-2-2-3-3-3-3-4-4-4-4-4-4-4-4-7-7-7-7-7-7-7-7-|
E:|-------------------------------------------------5-5-5-5-5-5-5-5-|

Bridge I:

e:|--------------------------------------------------|
B:|----------------------------------5-5-5-5-5-5-5-5-|
G:|----------------------------------6-6-6-6-6-6-6-6-|
D:|-9-9-9-9-9-9-9-9-1010101010101010-6-6-6-6-6-6-6-6-|
A:|-7-7-7-7-7-7-7-7--7-7-7-7-7-7-7-7-4-4-4-4-4-4-4-4-|
E:|-0-0-0-0-0-0-0-0--8-8-8-8-8-8-8-8-----------------|

e:|----------------------4--4-4-|
B:|---------------5--5-5-4--4-4-|
G:|-6--6-6-6--6-6-6--6-6-5--5-5-|
D:|-6--6-6-4--4-4-6--6-6-6--6-6-|
A:|-4--4-4-2--2-2-0--0-0-6--6-6-|
E:|----------------------4--4-4-|

Repeat Chorus

Bridge II:

e:|---------------------------------------------|
B:|-5--5-5-5-5-4--4-4-4-4-4--4-4-4-4-2--2-2-2-2-|
G:|-6--6-6-6-6-5--5-5-5-5-4--4-4-4-4-3--3-3-3-3-|
D:|-6--6-6-6-6-6--6-6-6-6-4--4-4-4-4-4--4-4-4-4-|
A:|-4--4-4-4-4-3--3-3-3-3-2--2-2-2-2-1--1-1-1-1-|
E:|---------------------------------------------|

Repeat Chorus

End on:

e:|-0~~~-|
B:|-0~~~-|
G:|-1~~~-|
D:|-2~~~-|
A:|-2~~~-|
E:|-0~~~-|

----------
IX: Mama
----------

Gtr I: Ray Toro
Gtr II: Frank Iero

Intro:

Gtr I

e:|-----------------------------------------------------------------|
B:|---8---8---8---8---8---8---8---8---8---8---8---8---7---7---7---7-|
G:|---9---9---9---9---9---9---9---9---9---9---9---9---8---8---8---8-|
D:|---9---9---9---9---9---9---9---9---9---9---9---9---9---9---9---9-|
A:|-7---7---7---7---7---7---7---7---7---7---7---7-----9---9---9---9-|
E:|-------------------------------------------------7---7---7---7---|
PM  *   *   *   *   *   *   *   *   *   *   *   *   *   *   *   *

e:|-----------------------------------------------------------------|
B:|---5---5---7---7---3---3---0---0---0---0---7---7---0---0---0---0-|
G:|---5---5---8---8---4---4---0---0---0---0---8---8---0---0---0---0-|
D:|---7---7---9---9---5---5---2---2---2---2---9---9---2---2---2---2-|
A:|---7---7---9---9---5---5---2---2---2---2---9---9---2---2---2---2-|
E:|-5---5---7---7---3---3---0---0---0---0---7---7---0---0---0---0---|
PM  *   *   *   *   *   *   *   *   *   *   *   *   *   *   *   *

Verses:

Gtr I plays the intro (x2)

On the second repeat of the verse, Gtr II comes in.

Gtr II

e:|--------------------------------------------------|
B:|--------------------------------------------------|
G:|--------------------------------------------------|
D:|-------------------------------5--5---------------|
A:|-7--7--7--7--7--7--7--7--7--7--------6--6--6--7/9-|
E:|--------------------------------------------------|

e:|-------------------------------------|
B:|-------------------------------------|
G:|-------------------------------------|
D:|------------7-5-4-5-4----------------|
A:|-7--7--9--9-----------7~--7--7--9--9-|
E:|-------------------------------------|

End Verse with:

Gtr I

e:|---|
B:|---|
G:|---|
D:|-2-|
A:|-2-|
E:|-0-|

Gtr II

e:|---|
B:|---|
G:|---|
D:|---|
A:|-7-|
E:|---|

Chorus I:

Gtr I

e:|-----------------------------------------------------------------|
B:|-----------------------------------------------------------------|
G:|-5-5-5-5-5-5-5-5-7-7-7-7-------------------------5-5-5-5---------|
D:|-5-5-5-5-5-5-5-5-7-7-7-7---------5-5-5-5-5-5-5-5-5-5-5-5---------|
A:|-3-3-3-3-3-3-3-3-5-5-5-5-5h7-5p0-5-5-5-5-5-5-5-5-3-3-3-3-3h5-3p0-|
E:|---------------------------------3-3-3-3-3-3-3-3-----------------|

e:|---------------------------------------3~~----------|
B:|---------------------------------------3~~----------|
G:|-------------5-4-4-4-4-4-4-4-4---------0~~----------|
D:|-3-3-3-3-3-3-5-4-4-4-4-4-4-4-4---------0~~----------|
A:|-3-3-3-3-3-3-3-2-2-2-2-2-2-2-2---------x----------2-|
E:|-1-1-1-1-1-1-------------------0~~-2~~-3~~--0-2-3---|

e:|------------------------7~~-|
B:|------------------------8~~-|
G:|-5~~---/8~~---/9~~~-----9~~-|
D:|-x------x------x------9-----|
A:|-3~~---/6~~---/7~~~-7-------|
E:|----------------------------|

Gtr II

e:|-----------------------------------------------------------------|
B:|-----------------------------------------------------------------|
G:|-5-5-5-5-5-5-5-5-7-7-7-7-------------------------5-5-5-5---------|
D:|-5-5-5-5-5-5-5-5-7-7-7-7---------5-5-5-5-5-5-5-5-5-5-5-5---------|
A:|-3-3-3-3-3-3-3-3-5-5-5-5-5h7-5p0-5-5-5-5-5-5-5-5-3-3-3-3-3h5-3p0-|
E:|---------------------------------3-3-3-3-3-3-3-3-----------------|

e:|------------------------------------------------------|
B:|------------------------------------------------------|
G:|-------------5-4-4-4-4-4-4-4-4------------------------|
D:|-3-3-3-3-3-3-5-4-4-4-4-4-4-4-4-2~~-4~~-5~~~~----------|
A:|-3-3-3-3-3-3-3-2-2-2-2-2-2-2-2-2~~-5~~-5~~~~--------2-|
E:|-1-1-1-1-1-1-------------------0~~-2~~-3~~~~--0-2-3---|

e:|-----------------------|
B:|-----------------------|
G:|-----------------------|
D:|-----------------------|
A:|-3~~---/6~~---/7~~~~~~-|
E:|-----------------------|

Repeat Verse (x2)

Chorus II:

There is only a SLIGHT change here. At the end of the chorus, Gtr II plays this:

Gtr II

e:|---------------------|
B:|---------------------|
G:|---------------------|
D:|--------------2~~~~--|
A:|-3~~---/6~~---2~~~~~-|
E:|--------------0~~~~~-|

Verse III:

Gtr I

e:|-----------------------------------------------------------------|
B:|-----------------------------------------------------------------|
G:|-------------------------------------------------4-4-4-4-4-4-4-4-|
D:|-2-2-2-2-2-2-2-2-2-2-2-2-2-2-2-2-2-2-2-2-2-2-2-2-4-4-4-4-4-4-4-4-|
A:|-2-2-2-2-2-2-2-2-2-2-2-2-2-2-2-2-2-2-2-2-2-2-2-2-2-2-2-2-2-2-2-2-|
E:|-0-0-0-0-0-0-0-0-0-0-0-0-0-0-0-0-0-0-0-0-0-0-0-0-----------------|

e:|------------------------------------------------------|
B:|------------------------------------------------------|
G:|-2-2-2-2-4-4-4-4-------------------------4-4-4-4------|
D:|-2-2-2-2-4-4-4-4-5-5-5-5-2-2-2-2-2-2-2-2-4-4-4-4-2~~~-|
A:|-0-0-0-0-2-2-2-2-5-5-5-5-2-2-2-2-2-2-2-2-2-2-2-2-2~~~-|
E:|-----------------3-3-3-3-0-0-0-0-0-0-0-0---------0~~~-|

Gtr II

e:|-------------------------------------------------------------------|
B:|-------------------------------------------------------------------|
G:|-xx-9-xx-10-xx-9-xx-10-xx-9-xx-10-xx-9-xx-10-xx-9-xx-10-xx-9-xx-10-|
D:|-xx-x-xx--x-xx-x-xx--x-xx-x-xx--x-xx-x-xx--x-xx-x-xx--x-xx-x-xx--x-|
A:|-xx-7-xx--7-xx-7-xx--7-xx-7-xx--7-xx-7-xx--7-xx-7-xx--7-xx-7-xx--7-|
E:|-------------------------------------------------------------------|

e:|-------------------------------------------------------|
B:|-------------------------------------------------------|
G:|-xx-12-xx-12-xx-8-xx-8-xx-8-9/11-9-xx-9-xx-11-xx-11-xx-|
D:|-xx--x-xx--x-xx-x-xx-x-xx-x-x--x-x-xx-x-xx--x-xx--x-xx-|
A:|-xx-10-xx-10-xx-6-xx-6-xx-6-7/-9-7-xx-7-xx--9-xx--9-xx-|
E:|-------------------------------------------------------|

e:|----------------------------------------------|
B:|----------------------------------------------|
G:|-14/12-11/12/11-9--9-xx-9-xx-11-xx-11-xx-9~~~-|
D:|--x--x--x--x--x-x--x-xx-x-xx--x-xx--x-xx-x----|
A:|-12/10--9/10/-9-7--7-xx-7-xx--9-xx--9-xx-7~~~-|
E:|----------------------------------------------|

Bridge Pt I:

Both Gtrs

e:|-----------------------------------------------------------------|
B:|-----------------------------------------------------------------|
G:|-----------------------------------------------------------------|
D:|-----------------------------------------------------------------|
A:|---7-------7-------7-------7-----2-3-0~--2-3-1~--2-3-0~--2-0-----|
E:|-0---5-7-0---5-7-0---5-7-0---5-7-----------------------------3-2-|

e:|--------------------------------------------------------|
B:|--------------------------------------------------------|
G:|--------------------------------------------------------|
D:|--------------------------------------------------------|
A:|---7-------7-------7-------7-----2-3-0~--2-3-1~--2-3-0~-|
E:|-0---5-7-0---5-7-0---5-7-0---5-7------------------------|

e:|------------------------|
B:|------------------------|
G:|-4~~--2~~---------------|
D:|-4~~--2~~--5~~----4~~~~-|
A:|-2~~--0~~--5~~----4~~~~-|
E:|-----------3~~----2~~~~-|

Bridge Pt II:

Gtr I

e:|---------------------------------7-7----7---------|
B:|---8-8---8-8---8-8---8-8---8-8---8-8------7-------|
G:|---9-9---9-9---9-9---9-9---9-9---9-9--------8-----|
D:|---9-9---9-9---9-9---9-9---9-9---9-9----------9---|
A:|-7-----7-----7-----7-----7-----7----------------9-|
E:|-------------------------------------7------------|

Gtr II

e:|--------|
B:|-<16>~~-|
G:|--------|
D:|--------|
A:|--------|
E:|--------|

Gtr I

e:|--------------------------------------------|
B:|--------------------------------------------|
G:|-2-2-2-4-4-4-------------------4-4-4-4~--4~-|
D:|-2-2-2-4-4-4-5-5-5-2-2-2-2-2-2-4-4-4-4~--4~-|
A:|-0-0-0-2-2-2-5-5-5-2-2-2-2-2-2-2-2-2-2~--2~-|
E:|-------------3-3-3-0-0-0-0-0-0--------------|
PM  * * * * * * * * * * * * * * * * * *

Gtr II

e:|-------------------------------------|
B:|-12^-12^-12^-10^-10^-10^-8^-8^-8^----|
G:|---------------------------------9-7-|
D:|-------------------------------------|
A:|-------------------------------------|
E:|-------------------------------------|

e:|------------------------------|
B:|------------------------------|
G:|------------------------------|
D:|-7-9-10-12-9-10-12-7-9~~--9~~-|
A:|------------------------------|
E:|------------------------------|

Outro:

Gtr I (x2)

e:|------------------------------------------------------------|
B:|------------------------------------------------------------|
G:|-------------------------4~--4~--2~--4~--------------4~--4~-|
D:|-2~--2~--2~--2~--2~--2~--4~--4~--2~--4~--5~--2~--2~--4~--4~-|
A:|-2~--2~--2~--2~--2~--2~--2~--2~--0~--2~--5~--2~--2~--2~--2~-|
E:|-0~--0~--0~--0~--0~--0~------------------3~--0~--0~---------|

Gtr II (x2)

e:|----------------------------------------|
B:|----------------------------------------|
G:|-9~--9~--9~--9/10~--9~--11~--8~--4/6/8~-|
D:|-x---x---x---x------x----x---x---x-x-x--|
A:|-7~--7~--7~--7~-----7~---9~--6~--2/4/6~-|
E:|----------------------------------------|

e:|-----------------------------------------|
B:|-----------------------------------<16>~-|
G:|-6~--8~--11/12-11/9~--9~--11~--8~--------|
D:|-x---x----x--x--x-x---x----x---x---------|
A:|-4~--6~---9/10--9/7~--7----9~--6~--------|
E:|-----------------------------------------|

End with: (I don't know what Gtr II plays here, there's a few harmonics but I'm not sure what)

Gtr I

e:|------------------------------|
B:|------------------------------|
G:|------------------------------|
D:|-2--------2--------2222222222-|
A:|-2-222222-2-222222-2222222222-|
E:|-0-000000-0-000000-0000000000-|

Then, after the instrumental, Gtr I just plats this (I think)

Gtr I

e:|-<12>~-|
B:|-------|
G:|-------|
D:|-------|
A:|-------|
E:|-------|

----------
X: Sleep
----------

Gtr I: Ray Toro
Gtr II: Frank Iero

Intro I:

Gtr I (Piano)

e:|---------------------------------|
B:|-1---1-----------1---1---0---0---|
G:|-0---0---1---1---0---0---0---0---| (x4)
D:|-2---2---3---3---2---2---2---2---|
A:|---3---3-3---3-------------------|
E:|-----------1---1---3---3---3---3-|

Intro II:

Gtr I

e:|---------------------------------------------------------------------|
B:|---------------------------------------------------------------------|
G:|-1212121212121212/13131313/15151515-12121212121212121313131312121010-|
D:|--x-x-x-x-x-x-x-x--x-x-x-x--x-x-x-x--x-x-x-x-x-x-x-x-x-x-x-x-x-x-x-x-|
A:|-1010101010101010/11111111/13131313-1010101010101010111111111010-8-8-|
E:|---------------------------------------------------------------------|

e:|-----------------------------------------------------------------------|
B:|-----------------------------------------------------------------------|
G:|-9/10/12121212-55/13131313/15151515-1212121212121212/13131313/10101010-|
D:|-x--x--x-x-x-x-xx--x-x-x-x--x-x-x-x--x-x-x-x-x-x-x-x-x-x-x-x---x-x-x-x-|
A:|-7/-8/10101010-33/11111111/13131313-1010101010101010/11111111/-8-8-8-8-|
E:|-----------------------------------------------------------------------|

Gtr II

e:|-----------------------------------------------------------------|
B:|-----------------------------------------------------------------|
G:|-5-5-5-5-5-5-5-5-------------------------------------------------| (x2)
D:|-5-5-5-5-5-5-5-5-3-3-3-3-3-3-3-3-5-5-5-5-5-5-5-5-5-5-5-5-5-5-5-5-|
A:|-3-3-3-3-3-3-3-3-3-3-3-3-3-3-3-3-5-5-5-5-5-5-5-5-5-5-5-5-5-5-5-5-|
E:|-----------------1-1-1-1-1-1-1-1-3-3-3-3-3-3-3-3-3-3-3-3-3-3-3-3-|

Verses:

Gtr I (I don't know the strumming pattern for this)

e:|---------------------------------|
B:|-1-1-1-1---------1-1-1-1-0-0-0-0-|
G:|-0-0-0-0-1-1-1-1-0-0-0-0-0-0-0-0-| (x4)
D:|-2-2-2-2-3-3-3-3-2-2-2-2-2-2-2-2-|
A:|-3-3-3-3-3-3-3-3-x-x-x-x-x-x-x-x-|
E:|---------1-1-1-1-3-3-3-3-3-3-3-3-|

Gtr II (This comes in after Gtr I has played the previous riff twice)

e:|--------------------------------------------------------------|
B:|--------------------------------------------------------------|
G:|------------------------------------------12/13/12-12^(13)r12-|
D:|--------------------------------------------------------------|
A:|-----11~~-10~~-------11~~-11/13~~-10~~------------------------|
E:|-8~~-------------8~~------------------------------------------|

Pre-Chorus:

Gtr I

e:|----------------------------------------------------------------------|
B:|-9---------------9----------------------------------------------------|
G:|---5-7-7^(8)r7-5---5-7^(8)r7-5-7/8/7/5~-1010-7-8~-7/8/7/5~-1010-7-5-3-|
D:|-------------------------------x-x-x-x---x-x-x-x--x-x-x-x---x-x-x-x-x-|
A:|-------------------------------5/6/5/3~--8-8-5-6~-5/6/5/3~--8-8-5-3-1-|
E:|----------------------------------------------------------------------|

e:|---------------------------------|
B:|-9-----------9-------------------|
G:|---5-7-8-7-5---5-7-8-7-5---------|
D:|---------------------------------|
A:|--------------------------3/12/3-|
E:|---------------------------------|

Gtr II

e:|-----------------------------------------------------------------|
B:|-----------------------------------------------------------------|
G:|---------------------------------5-5-5-5-5-5-5-5-3-3-3-3-3-3-3-3-|
D:|-6-6-6-6-6-6-6-6-3-3-3-3-3-3-3-3-5-5-5-5-5-5-5-5-3-3-3-3-3-3-3-3-|
A:|-6-6-6-6-6-6-6-6-3-3-3-3-3-3-3-3-3-3-3-3-3-3-3-3-1-1-1-1-1-1-1-1-|
E:|-4-4-4-4-4-4-4-4-1-1-1-1-1-1-1-1---------------------------------|

e:|---------------------------------|
B:|---------------------------------|
G:|---------------------------------|
D:|-6-6-6-6-6-6-6-6-3-3-3-3-3-3-3-3-|
A:|-6-6-6-6-6-6-6-6-3-3-3-3-3-3-3-3-|
E:|-4-4-4-4-4-4-4-4-1-1-1-1-1-1-1-1-|

Chorus:

Gtr I

e:|-----------------------------------------------------------------|
B:|-----------------------------------------------------------------|
G:|-5-5-5-5-5-5-5-5-5-5-5-5-5-5-5-5---------------------------------| (x2)
D:|-5-5-5-5-5-5-5-5-5-5-5-5-5-5-5-5-2-2-2-2-2-2-2-2-2-2-2-2-2-2-2-2-|
A:|-3-3-3-3-3-3-3-3-3-3-3-3-3-3-3-3-3-3-3-3-3-3-3-3-2-2-2-2-2-2-2-2-|
E:|---------------------------------0-0-0-0-0-0-0-0-0-0-0-0-0-0-0-0-|

Gtr II

e:|-----------------------------------------------------------------|
B:|-----------------------------------------------------------------|
G:|-12121212121212121212-10/9-9/7-7/5-5-5-5-5-5-5-5-4-4-4-4-4-4-4-4-| (x2)
D:|--x-x-x-x-x-x-x-x-x-x--x-x-x-x-x-x-x-x-x-x-x-x-x-x-x-x-x-x-x-x-x-|
A:|-10101010101010101010--8/7-7/5-5/3-3-3-3-3-3-3-3-2-2-2-2-2-2-2-2-|
E:|-----------------------------------------------------------------|

Both Gtr's

e:|-----------------------------------|
B:|-----------------------------------|
G:|-----------------------------------|
D:|-3-3-3-3-3-3-3-3-6-6-6-6-6-6-6-6-5-|
A:|-3-3-3-3-3-3-3-3-6-6-6-6-6-6-6-6-5-|
E:|-1-1-1-1-1-1-1-1-4-4-4-4-4-4-4-4-3-|

Repeat Verse

Repeat Pre-Chorus

Repeat Chorus

Repeat Intro I x4, and on the third repeat play this under it:

Gtr I

e:|-----------------------------------------------------------------|
B:|-----------------------------------------------------------------|
G:|-----------------------------------------------------------------| (x2)
D:|-5-5-5-5-5-5-5-5-------------------------------------------------|
A:|-3-3-3-3-3-3-3-3-3-3-3-3-3-3-3-3-5-5-5-5-5-5-5-5-5-5-5-5-5-5-5-5-|
E:|-----------------1-1-1-1-1-1-1-1-3-3-3-3-3-3-3-3-3-3-3-3-3-3-3-3-|
PM  * * * * * * * * * * * * * * * * * * * * * * * * * * * * * * * *

Gtr II

e:|---------------------------------|
B:|---------------------------------|
G:|---------------------------------| (x2)
D:|-----0-------0-------0-------0---|
A:|-3-3---2h3-3---2h3-3---2h3-3---2-|
E:|---------------------------------|
PM  * * * * * * * * * * * * * * * *

Repeat Intro II as many times as necessary and end it with:

Gtr I

e:|----------------------------|
B:|----------------------------|
G:|-17-17-17-17-19-19/20/19-17-|
D:|--x--x--x--x--x--x--x--x--x-|
A:|-15-15-15-15-17-17/18/17-15-|
E:|----------------------------|

Gtr II

e:|-----------------|
B:|-----------------|
G:|-----------------|
D:|-5-5-5-5-5-5-5-5-|
A:|-5-5-5-5-5-5-5-5-|
E:|-3-3-3-3-3-3-3-3-|

Repeat Chorus x4

End with:

Gtr I

e:|------------------------------------------------------|
B:|-20----------------------20---------------------------|
G:|----19-17----19-20-19-17----19-17----19-19^(20)r19-17-| (x4)
D:|----------17----------------------17------------------|
A:|------------------------------------------------------|
E:|------------------------------------------------------|

e:|--------|
B:|-20~~~~-|
G:|--------|
D:|--------|
A:|--------|
E:|--------|

Gtr II

e:|-------|
B:|-------|
G:|-5~~~~-|
D:|-5~~~~-|
A:|-3~~~~-|
E:|-------|

---------------
XI: Teenagers
---------------

Gtr I: Ray Toro
Gtr II: Frank Iero
Gtr III: Ray Toro (Overdubbed)

Intro:

Gtr I

e:|-------------0-------------0------------------------------------|
B:|-------------0-------------0------------------------------------|
G:|----------------------------------------------------------------|
D:|-2-2-2-2-------2-2-2-2-------2---2---2---2----9-9-9--9----------|
A:|-2-2-4-2-------2-2-4-2-------2---4---5---4----9-9-11-9--------9-|
E:|-0-0-0-0-2h4---0-0-0-0-2h4-----0---0---0---0--7-7-7--7-7-9h11---|
PM  * * * * *     * * * * *     * * * * * * * *  * * *

e:|-----------------------------------------------------------------0-|
B:|-----------------------------------------------------------------0-|
G:|-----------------9-9-9--9------------------------------------------|
D:|-7-7-7-7---------9-9-11-9---------9-9-9--9-9--9-9--9-2-2-2-2-------|
A:|-7-7-9-7---------7-7-7--7-7-----7-9-9-11-9-12-9-11-9-2-2-4-2-------|
E:|-5-5-5-5-5-7h9p7------------7h9---7-7-7--7-7--7-7--7-0-0-0-0-2h4---|
PM  * * *           * * *            * * *  * *  * *  * * * * * *

Verses:

Gtr I plays the intro.

Gtr II

e:|--------------------------------------------------|
B:|--------------------------------------------------|
G:|--------------------------------------------------|
D:|--------------------------------------------------|
A:|-7-7-7-7---7-7-7-7---7-7-7-7-11-11-11-11-9-9-11-9-|
E:|--------------------------------------------------|
PM  * * * *   * * * *   * * * * *  *  *  *  * * *  *

e:|----------------------------------------------------|
B:|----------------------------------------------------|
G:|----------------------------------------------------|
D:|----------------------------------------------------|
A:|-12-12-12-12--12-11--9-11-9-7--7-7--6-6-7-9--11-9-7-|
E:|----------------------------------------------------|
PM   *  *  *  *   *  *  *  * * *  * *  * * * *   * * *

Pre-Chorus:

Gtr I

e:|-----3-----2-----0-|
B:|-------------------|
G:|-2/3---3/2---2/1---|
D:|-------------------|
A:|-------------------|
E:|-------------------|

Chorus:

Gtr I

e:|-------------0-------------0------------------------------------|
B:|-------------0-------------0------------------------------------|
G:|----------------------------------------------------------------|
D:|-2-2-2-2-------2-2-2-2-------2---2---2---2----9-9-9--9----------|
A:|-2-2-4-2-------2-2-4-2-------2---4---5---4----9-9-11-9--------9-|
E:|-0-0-0-0-2h4---0-0-0-0-2h4-----0---0---0---0--7-7-7--7-7-9h11---|

e:|-------------------------------------------------------|
B:|-------------------------------------------------------|
G:|-----------------9-9-9--9------------------------------|
D:|-7-7-7-7---------9-9-11-9---------9-9-9--9-9--9-9--9-2-|
A:|-7-7-9-7---------7-7-7--7-7-----7-9-9-11-9-12-9-11-9-2-|
E:|-5-5-5-5-5-7h9p7------------7h9---7-7-7--7-7--7-7--7-0-|

Gtr II

e:|----------------------------------------------------------------|
B:|----------------------------------------------------------------|
G:|-9-9-8/9--------9-9-8/9--------9-9-9-9/13131313-1111/13/11-1111-|
D:|-x-x-x-x--------x-x-x-x--------x-x-x-x--x-x-x-x--x-x--x--x--x-x-|
A:|-7-7-6/7--------7-7-6/7--------7-7-7-7/11111111--9-9/11/-9--9-9-|
E:|---------7h9/11---------7h9/11----------------------------------|

e:|--------------------------------------------------|
B:|--------------------------------------------------|
G:|-14141414-14/13-11/13/11/9-9-9-8-8/9-9-11/13/11-9-|
D:|--x-x-x-x--x--x--x--x--x-x-x-x-x-x-x-x--x--x--x-x-|
A:|-12121212-12/11--9/11/-9/7-7-7-6-6/7-7--9/11/-9-7-|
E:|--------------------------------------------------|

Repeat Verse

Repeat Chorus

Before Solo:

Gtr I

e:|------------|
B:|------------|
G:|------------|
D:|---------1~-|
A:|-2~--4~-----|
E:|------------|

Solo:

Gtr I

e:|-------------------------------------12----------------12-|
B:|--------------------------7--7-7h9p7-12----------------12-|
G:|-9---9^(11)-9p7-7/9--5-6--7--7-7-7-7-----14^(15)r14-13----|
D:|-11-------------7/9--7-7----------------------------------|
A:|----------------------------------------------------------|
E:|----------------------------------------------------------|

e:|-----------------------------------------------------|
B:|-15^(17)-15^(17)-13h15p13/12----12-------------------|
G:|-----------------------------14----14p12-11h12p11----|
D:|--------------------------------------------------14-|
A:|-----------------------------------------------------|
E:|-----------------------------------------------------|

e:|-0------------0----------------0-0---|
B:|-5--5---------5--5-x-5---------5-5---|
G:|-4--4^(5)r4-6----4-x-4^(5)r4-6-----6-|
D:|-------------------------------------|
A:|-------------------------------------|
E:|-------------------------------------|

e:|--------------------------------------|
B:|-7--7--7-----7-----7-----7------------|
G:|-9--9--9^(11)9^(11)9^(11)9^(11)-9~~~~-|
D:|--------------------------------------|
A:|--------------------------------------|
E:|--------------------------------------|

Gtr II

e:|-------------------------------------------------------------------|
B:|-------------------------------------------------------------------|
G:|-14141414141414141414141414141414-9-9/1111-13/11/9-9-11/13-13/11/9-|
D:|--x-x-x-x-x-x-x-x-x-x-x-x-x-x-x-x-x-x--x-x--x--x-x-x--x--x--x--x-x-|
A:|-12121212121212121212121212121212-7-7/-9-9-11/-9/7-7--9/11-11/-9/7-|
E:|-------------------------------------------------------------------|

e:|-------------------------------------------------------------------|
B:|-------------------------------------------------------------------|
G:|-14141414141414141414141414141414-16161616/191919/1616161616161616-|
D:|--x-x-x-x-x-x-x-x-x-x-x-x-x-x-x-x--x-x-x-x--x-x-x--x-x-x-x-x-x-x-x-|
A:|-12121212121212121212121212121212-14141414/171717/1414141414141414-|
E:|-------------------------------------------------------------------|

e:|------|
B:|------|
G:|-9~~~-|
D:|-x----|
A:|-7~~~-|
E:|------|

Gtr III

e:|-----------------------------------------------------------------|
B:|-----------------------------------------------------------------|
G:|-----------------------------------------------------------------|
D:|-7-7-7-7-7-7-7-7-7-7-7-7-7-7-7-7-2-2-2-2-2-2-2-2-2-2-2-2-2-2-2-2-|
A:|-7-7-7-7-7-7-7-7-7-7-7-7-7-7-7-7-2-2-2-2-2-2-2-2-2-2-2-2-2-2-2-2-|
E:|-5-5-5-5-5-5-5-5-5-5-5-5-5-5-5-5-0-0-0-0-0-0-0-0-0-0-0-0-0-0-0-0-|
PM    * *   * *   * *   * *   * *     * *   * *   * *   * *   * *

e:|-----------------------------------------------------------------|
B:|-----------------------------------------------------------------|
G:|-----------------------------------------------------------------|
D:|-7-7-7-7-7-7-7-7-7-7-7-7-7-7-7-7-9-9-9-9-9-9-9-9-9-9-9-9-9-9-9-9-|
A:|-7-7-7-7-7-7-7-7-7-7-7-7-7-7-7-7-9-9-9-9-9-9-9-9-9-9-9-9-9-9-9-9-|
E:|-5-5-5-5-5-5-5-5-5-5-5-5-5-5-5-5-7-7-7-7-7-7-7-7-7-7-7-7-7-7-7-7-|
PM    * *   * *   * *   * *   * *     * *   * *   * *   * *   * *

e:|------|
B:|------|
G:|------|
D:|-2~~~-|
A:|-2~~~-|
E:|-0~~~-|

Repeat Chorus (x3) (first time, there is no guitar)

Before the third repeat of the chorus, this is played:

Gtr I

e:|---------------------------|
B:|---------------------------|
G:|---------------------------|
D:|-x-x--x-x-x--x-x-x--x-x-x--|
A:|-x-x--x-x-x--x-x-x--x-x-x--|
E:|-x-x--x-x-x--x-x-x--x-x-x--|

Gtr II

e:|---------------------------|
B:|---------------------------|
G:|-9-9--9-9-9--9-9-9--9-9-9--|
D:|-x-x--x-x-x--x-x-x--x-x-x--|
A:|-7-7--7-7-7--7-7-7--7-7-7--|
E:|---------------------------|

Finish off with Pre-chorus, and end on:

Both Gtr's

e:|---|
B:|---|
G:|---|
D:|-2-|
A:|-2-|
E:|-0-|

-------------------
XII: Disenchanted
-------------------

Gtr I: Ray Toro
Gtr II: Frank Iero

Intro:

Gtr I

e:|------------------------------------------------------------------|
B:|-3---3---3------------------------3---3---3-----------------------|
G:|---2---2---2-0---0---0---0-2-0------2---2---2-0---0---0---0-2-0---|
D:|-0-------------4---4---4-------4----------------4---4---4-------4-|
A:|-----------------5----------------2---------------2---------------|
E:|------------------------------------------------------------------|

e:|------------------------------------------------------------------|
B:|-3---3---3------------------------3---3---3-----------------------|
G:|---2---2---2-0---0---0---0-2-0------2---2---2-0---0---0---0-------|
D:|---------------4---4---4-------4----------------4---4---4---4-2-0-|
A:|----------------------------------0---------------0---------------|
E:|-3---------------3------------------------------------------------|


Verse I:

Gtr I

e:|----------------------------------|
B:|----------------------------------|
G:|-7~~~~--4~~~~---------2~~~--------|
D:|-7~~~~--4~~~~--5~~~~--2~~~--------|
A:|-5~~~~--2~~~~--5~~~~--0~~~--0~-1~-|
E:|---------------3~~~~--------------|

Gtr II

e:|-2~~~~---------3~~~~--------------|
B:|-3~~~~--3~~~~--3~~~~--2~~~--------|
G:|-2~~~~--4~~~~--0~~~~--2~~~--------|
D:|-0~~~~--4~~~~--0~~~~--2~~~--------|
A:|--------2~~~~--2~~~~--0~~~--0~-1~-|
E:|---------------3~~~~--------------|

Pre-Chorus:

Gtr I

e|---------------------------------------|
B|-3~~---------------------------3~~-----|
G|-4~~-------2~~-----------------4~~-----|
D|-4~~--2~~--2~~--7-7--7-7-7--7--4~~-----|
A|-2~~--2~~--0~~--5-5--5-4-4--4--2~~-----|
E|------0~~--------------------------3~~-|

e:|---------------------------------|
B:|---------------------------------|
G:|---------------------------------|
D:|-2-2-2-2-2-2-2-2-2-2-2-2-2-2-2-2-|
A:|-0-0-0-0-0-0-0-0-0-0-0-0-0-0-0-0-|
E:|---------------------------------|

Gtr II

e:|-------------------------------------------------|
B:|-------------------------------------------------|
G:|-------------------------------------------------|
D:|-4-4-4-4-4-4-4-4-----------------2-2-2-2-2-2-2-2-|
A:|-2-2-2-2-2-2-2-2-2-2-2-2-2-2-2-2-0-0-0-0-0-0-0-0-|
E:|-----------------0-0-0-0-0-0-0-0-----------------|

e:|------------------------------------------------|
B:|------------------------------------------------|
G:|------------------------------------------------|
D:|-7-7--7-7-7--7--4-4-4-4-4-4-4-4-----------------|
A:|-5-5--5-4-4--4--2-2-2-2-2-2-2-2-5-5-5-5-5-5-5-5-|
E:|--------------------------------3-3-3-3-3-3-3-3-|

e:|---------------------------------|
B:|---------------------------------|
G:|-2-2-2-2/4-4-4-4/6-6-6-6/7-7/9-9-|
D:|-x-x-x-x-x-x-x-x-x-x-x-x-x-x-x-x-|
A:|-0-0-0-0/2-2-2-2/4-4-4-4/5-5/7-7-|
E:|---------------------------------|

Chorus:

Gtr I

e:|-----------------------------------------------------------------|
B:|-8-8-8-7-7-7-7-7-8-8-8-7-7-7-7-7-8-8-8-7-7-7-7-7-8-8-8-7-7-7-7-7-|
G:|-7-7-7-7-7-7-7-7-7-7-7-7-7-7-7-7-7-7-7-7-7-7-7-7-7-7-7-7-7-7-7-7-|
D:|-x-x-x-x-x-x-x-x-x-x-x-x-x-x-x-x-x-x-x-x-x-x-x-x-x-x-x-x-x-x-x-x-|
A:|-5-5-5-5-5-5-5-5-5-5-5-5-5-5-5-5-x-x-x-x-x-x-x-x-x-x-x-x-x-x-x-x-|
E:|---------------------------------7-7-7-7-7-7-7-7-7-7-7-7-7-7-7-7-|

e:|-----------------------------------------------------------------|
B:|---------------------------------2-2-2-2-2-2-2-2-2-2-2-2-2-2-2-2-|
G:|-4-4-4-4-4-4-4-4-4-4-4-4-4-4-4-4-2-2-2-2-2-2-2-2-2-2-2-2-2-2-2-2-|
D:|-2-2-2-2-2-2-2-2-2-2-2-2-2-2-2-2-2-2-2-2-2-2-2-2-2-2-2-2-2-2-2-2-|
A:|-2-2-2-2-2-2-2-2-2-2-2-2-2-2-2-2-0-0-0-0-0-0-0-0-0-0-0-0-0-0-0-0-|
E:|-0-0-0-0-0-0-0-0-0-0-0-0-0-0-0-0---------------------------------|

Gtr II

e:|------------------------------------------------------------------------|
B:|------------------------------------------------------------------------|
G:|-121212/1111111111-121212/14/11111111-9-9-9/1111111111-9-9-9/11/7-7-7-7-|
D:|--x-x-x--x-x-x-x-x--x-x-x-x--x-x-x-x--x-x-x--x-x-x-x-x-x-x-x--x-x-x-x-x-|
A:|-101010/-9-9-9-9-9-101010/12/9-9-9-9--7-7-7/-9-9-9-9-9-7-7-7/-9/5-5-5-5-|
E:|------------------------------------------------------------------------|

e:|-----------------------------------------------------------------|
B:|-----------------------------------------------------------------|
G:|---------9-9-9-9---------9-9-9-9-2-2-2-2-2-2-2-2-2-2-2-2-2-2-2-2-|
D:|-2-2-2-2-x-x-x-x-2-2-2-2-x-x-x-x-2-2-2-2-2-2-2-2-2-2-2-2-2-2-2-2-|
A:|-2-2-2-2-7-7-7-7-2-2-2-2-7-7-7-7-0-0-0-0-0-0-0-0-0-0-0-0-0-0-0-0-|
E:|-0-0-0-0-0-0-0-0-0-0-0-0-0-0-0-0---------------------------------|


Verse II:

Gtr I

e:|----------------------------------|
B:|----------------------------------|
G:|-7~~~~----------------------------|
D:|-7~~~~--4~~~~---------2~~~--------|
A:|-5~~~~--2~~~~--5~~~~--0~~~--0~-1~-|
E:|---------------3~~~~--------------|

Gtr II

e:|-------14-----------10----------------------0--------|
B:|----------15-----------10--------------3-2-----------|
G:|-------------14~~~~-------12~~~------2---------------|
D:|-0~~~------------------------------2-----------------|
A:|---------------------------------0-------------0~-1~-|
E:|-----------------------------------------------------|


Repeat Pre-Chorus

Repeat Chorus

Solo: (Not sure)

Gtr I

e:|-17~~~~-18~~~~-20^(22)-18-17~~~~-18~~~~-20^(22)-18-|
B:|---------------------------------------------------|
G:|---------------------------------------------------|
D:|---------------------------------------------------|
A:|---------------------------------------------------|
E:|---------------------------------------------------|

e:|-21^(23)r21^(23)-19^(21)-19^(21)-19p17p15-17p15p14----15-|
B:|---------------------------------------------------17----|
G:|---------------------------------------------------------|
D:|---------------------------------------------------------|
A:|---------------------------------------------------------|
E:|---------------------------------------------------------|

e:|---------14---------14---------14-------------------------------------|
B:|-17^(19)----17^(19)----17^(19)----15h17p15p14h15p14----14-------------|
G:|----------------------------------------------------16----16-14h16p14-|
D:|----------------------------------------------------------------------|
A:|----------------------------------------------------------------------|
E:|----------------------------------------------------------------------|

e:|--------------------------------10~~~~-|
B:|---------------------------------------|
G:|----14--------------------11h12--------|
D:|-16----16-14h16p14-12~~~~--------------|
A:|---------------------------------------|
E:|---------------------------------------|

Gtr II

e:|------------------------------------|
B:|------------------------------------|
G:|-7~~---------------7~~--------------|
D:|-x------------8~~--x------------8~~-|
A:|-5~~----5-7-9-x----5~~----5-7-9-x---|
E:|------5-------6~~-------5-------6~~-|

e:|-------------------------------------------------------------|
B:|-------------------------------------------------------------|
G:|-------------------------------------------------------------|
D:|-7-7--7-7-7--7-4-4--4-2-2--2---------------------------------|
A:|-5-5--5-4-4--4-2-2--2-0-0--0-5-5-5-5-5-5-5-5-7-7-7-7-7-7-7-7-|
E:|-----------------------------3-3-3-3-3-3-3-3-5-5-5-5-5-5-5-5-|

Bridge:

Gtr I

e:|------------------------------------------------------------------|
B:|-3---3---3------------------------3---3---3-----------------------|
G:|---2---2---2-0---0---0---0-2-0------2---2---2-0---0---0---0-2-0---|
D:|-0-------------4---4---4-------4----------------4---4---4-------4-|
A:|-----------------5----------------2---------------2---------------|
E:|------------------------------------------------------------------|

e:|-----------------------------------------------------------------|
B:|-3---3---3-------------------------------------------------------|
G:|---2---2---2-0---0---0---0-2-0-----------------------------------|
D:|---------------4---4---4-------4-2-2-2-2-2-2-2-2-2-2-2-2-2-2-2-2-|
A:|---------------------------------0-0-0-0-0-0-0-0-0-0-0-0-0-0-0-0-|
E:|-3---------------3-----------------------------------------------|
PM                                  * * * * * * * * * * * * * * * *

Gtr II

e:|-----------------------------------------------------------------|
B:|-----------------------------------------------------------------|
G:|-----------------------------------------------------------------|
D:|-7-7-7-7-7-7-7-7-7-7-7-7-7-7-7-7-4-4-4-4-4-4-4-4-4-4-4-4-4-4-4-4-|
A:|-5-5-5-5-5-5-5-5-5-5-5-5-5-5-5-5-2-2-2-2-2-2-2-2-2-2-2-2-2-2-2-2-|
E:|-----------------------------------------------------------------|

e:|-------------------------------------------------|
B:|-------------------------------------------------|
G:|-------------------------------------------------|
D:|---------------------------------2-2-2-2-2-2-2-2-|
A:|-5-5-5-5-5-5-5-5-5-5-5-5-5-5-5-5-0-0-0-0-0-0-0-0-|
E:|-3-3-3-3-3-3-3-3-3-3-3-3-3-3-3-3-----------------|
PM                                  * * * * * * * *

e:|-------------------------------|
B:|-------------------------------|
G:|-2/4-4-4-4/6-6-6-6/7-7-7-7/6/4-|
D:|-x-x-x-x-x-x-x-x-x-x-x-x-x-x-x-|
A:|-0/2-2-2-2/4-4-4-4/5-5-5-5/4/2-|
E:|-------------------------------|

Repeat Chorus x2 (On the second repeat, there are a number of changes, I don't have them
so here is all I have for it)

Gtr I

e:|-----------------------------------------------------------------|
B:|-8-8-8-7-7-7-7-7-8-8-8-7-7-7-7-7-8-8-8-7-7-7-7-7-8-8-8-7-7-7-7-7-|
G:|-7-7-7-7-7-7-7-7-7-7-7-7-7-7-7-7-7-7-7-7-7-7-7-7-7-7-7-7-7-7-7-7-|
D:|-x-x-x-x-x-x-x-x-x-x-x-x-x-x-x-x-x-x-x-x-x-x-x-x-x-x-x-x-x-x-x-x-|
A:|-5-5-5-5-5-5-5-5-5-5-5-5-5-5-5-5-x-x-x-x-x-x-x-x-x-x-x-x-x-x-x-x-|
E:|---------------------------------7-7-7-7-7-7-7-7-7-7-7-7-7-7-7-7-|

e:|-----------------------------------------------------------------|
B:|---------------------------------2-2-2-2-2-2-2-2-2-2-2-2-2-2-2-2-|
G:|-4-4---4-4-4---4-4-4---4-4-4---4-2-2-2-2-2-2-2-2-2-2-2-2-2-2-2-2-|
D:|-2-2---2-2-2---2-2-2---2-2-2---2-2-2-2-2-2-2-2-2-2-2-2-2-2-2-2-2-|
A:|-2-2---2-2-2---2-2-2---2-2-2---2-0-0-0-0-0-0-0-0-0-0-0-0-0-0-0-0-|
E:|-0-0---0-0-0---0-0-0---0-0-0---0---------------------------------|

Gtr II

e:|------------------------------------------------------------------------|
B:|------------------------------------------------------------------------|
G:|-121212/1111111111-121212/14/11111111-9-9-9/1111111111-9-9-9/11/7-7-7-7-|
D:|--x-x-x--x-x-x-x-x--x-x-x-x--x-x-x-x--x-x-x--x-x-x-x-x-x-x-x--x-x-x-x-x-|
A:|-101010/-9-9-9-9-9-101010/12/9-9-9-9--7-7-7/-9-9-9-9-9-7-7-7/-9/5-5-5-5-|
E:|------------------------------------------------------------------------|

e:|-----------------------------------------------------------------|
B:|-----------------------------------------------------------------|
G:|---------------------------------2-2-2-2-2-2-2-2-2-2-2-2-2-2-2-2-|
D:|-2-2---2-2-2---2-2-2---2-2-2---2-2-2-2-2-2-2-2-2-2-2-2-2-2-2-2-2-|
A:|-2-2---2-2-2---2-2-2---2-2-2---2-0-0-0-0-0-0-0-0-0-0-0-0-0-0-0-0-|
E:|-0-0---0-0-0---0-0-0---0-0-0---0---------------------------------|

Outro:

Gtr I

e:|------------------------------------------------------------------|
B:|-3---3---3------------------------3---3---3-----------------------|
G:|---2---2---2-0---0---0---0-2-0------2---2---2-0---0---0---0-2-0---|
D:|-0-------------4---4---4-------4----------------4---4---4-------4-|
A:|-----------------5----------------2---------------2---------------|
E:|------------------------------------------------------------------|

e:|--------------------------------------------------------------------2~~-|
B:|-3---3---3------------------------3---3---3-------------------------3~~-|
G:|---2---2---2-0---0---0---0-2-0------2---2---2-0---0---0---0---------2~~-|
D:|---------------4---4---4-------4----------------4---4---4---4-2-0~--0~~-|
A:|----------------------------------0---------------0---------------------|
E:|-3---------------3------------------------------------------------------|

Gtr II

e:|-------|
B:|-------|
G:|-7~~~~-|
D:|-x-----|
A:|-5~~~~-|
E:|-------|

-------------------------
XIII: Famous Last Words
-------------------------

Gtr I: Ray Toro
Gtr II: Frank Iero

Intro:

Gtr I

e:|-----------------------------------------------------------------|
B:|-6-6-------------------------------------------------------------|
G:|-7-7-------------------------------------------------------------|
D:|-7-7-7-7-7-7-7-7-7-7-7-7-7-7-7-7-3-3-3-3-3-3-3-3-3-3-3-3-3-3-3-3-|
A:|-5-5-5-5-5-5-5-5-5-5-5-5-3-3-3-3-1-1-1-1-1-1-1-1-1-1-1-1-0-0-0-0-|
E:|-----------------------------------------------------------------|
PM      * * * * * * * * * * * * * * * * * * * * * * * * * * * * * *

e:|------------------------------------------------------------------|
B:|------------------------------------------------------------------|
G:|-5-5-5-5-3-3-3-3--------------------------------------------------|
D:|-5-5-5-5-5-5-5-5--------------------------------------------------|
A:|-5-5-5-5-5-5-5-5-7-7-7-7-10101010-8-8-8-8-8-8-8-8-8-8-8-8-7-7-7-7-|
E:|-3-3-3-3-3-3-3-3-5-5-5-5--5-5-5-5-6-6-6-6-6-6-6-6-8-8-8-8-8-8-8-8-|
PM  * * * * * * * * * * * *  * * * * * * * * * * * * * * * * * * * *

Gtr II

e:|-----|
B:|-----|
G:|-7-7-|
D:|-7-7-|
A:|-5-5-|
E:|-----|

Gtr I

e:|-----------------------------------------------------------------|
B:|-6-6-------------------------------------------------------------|
G:|-7-7-----------------------------3-3-----------------------------|
D:|-7-7-7-7-7-7-7-7-7-7-7-7-7-7-7-7-3-3-3-3-3-3-3-3-3-3-3-3-3-3-3-3-|
A:|-5-5-5-5-5-5-5-5-5-5-5-5-3-3-3-3-1-1-1-1-1-1-1-1-1-1-1-1-0-0-0-0-|
E:|-----------------------------------------------------------------|
PM      * * * * * * * * * * * * * *     * * * * * * * * * * * * * *

e:|------------------------------------------------------------------|
B:|------------------------------------------------------------------|
G:|-5-5-5-5-3-3-3-3--------------------------------------------------|
D:|-5-5-5-5-5-5-5-5--------------------------------------------------|
A:|-5-5-5-5-5-5-5-5-7-7-7-7-10101010-8-8-8-8-8-8-8-8-8-8-8-8-7-7-7-7-|
E:|-3-3-3-3-3-3-3-3-5-5-5-5--5-5-5-5-6-6-6-6-6-6-6-6-8-8-8-8-8-8-8-8-|
PM      * * * * * * * * * *  * * * *

Gtr II

e:|-----------------------------------------------------------------|
B:|-----------------------------------------------------------------|
G:|-7-7------3-3----------------------------------------------------|
D:|-7-7------3-3--------5-5--------8-8-8-8-8-8-8-8-1010101010101010-|
A:|-5-5------1-1--------5-5--------8-8-8-8-8-8-8-8-1010101010101010-|
E:|---------------------3-3--------6-6-6-6-6-6-6-6--8-8-8-8-8-8-8-8-|

Pre-Verse:

Gtr I

e:|----------------------------------------------------|
B:|----------------------------------------------------|
G:|----------------------------------------------------|
D:|-----------3^r3-------------3-5^r5-----------3^r3---|
A:|-5-5-5-3-5------3-5-5-5-3-5--------5-5-5-3-5------3-|
E:|----------------------------------------------------|

e:|-----------------|
B:|-----------------|
G:|-----------------|
D:|-7-7-7-7-7-7-7-7-|
A:|-5-5-5-5-5-5-5-5-|
E:|-----------------|
PM  * * * * * * * *

Gtr II

e:|-------------------------------------------------------|
B:|-------------------------------------------------------|
G:|-7-7------7-7------7-7---------------------------------|
D:|-7-7------7-7------7-7-------3^r3----------------------|
A:|-5-5------5-5------5-5-5-3-5------3--------------------|
E:|-------------------------------------///Pick-Scrape\\\-|

Verse I:

Gtr I

e:|-----------------------------------------------------------------|
B:|-----------------------------------------------------------------|
G:|-----------------------------------------------------------------|
D:|-7-7-7-7-7-7-7-7-7-7-7-7-7-7-7-7-3-3-3-3-3-3-3-3-3-3-3-3-3-3-3-3-|
A:|-5-5-5-5-5-5-5-5-5-5-5-5-3-3-3-3-1-1-1-1-1-1-1-1-1-1-1-1-0-0-0-0-|
E:|-----------------------------------------------------------------|


e:|------------------------------------------------------------------|
B:|------------------------------------------------------------------|
G:|-5-5-5-5-3-3-3-3--------------------------------------------------|
D:|-5-5-5-5-5-5-5-5--------------------------------------------------|
A:|-5-5-5-5-5-5-5-5-7-7-7-7-10101010-8-8-8-8-8-8-8-8-8-8-8-8-7-7-7-7-|
E:|-3-3-3-3-3-3-3-3-5-5-5-5--5-5-5-5-6-6-6-6-6-6-6-6-8-8-8-8-8-8-8-8-|

e:|-----------------------------------------------------------------|
B:|-6-6-------------------------------------------------------------|
G:|-7-7-------------------------------------------------------------|
D:|-7-7-7-7-7-7-7-7-7-7-7-7-7-7-7-7-3-3-3-3-3-3-3-3-3-3-3-3-3-3-3-3-|
A:|-5-5-5-5-5-5-5-5-5-5-5-5-3-3-3-3-1-1-1-1-1-1-1-1-1-1-1-1-0-0-0-0-|
E:|-----------------------------------------------------------------|


e:|------------------------------------------------------------|
B:|------------------------------------------------------------|
G:|-5-5-5-5-3-3-3-3--------------------------------------------|
D:|-5-5-5-5-5-5-5-5--------------------------------------------|
A:|-5-5-5-5-5-5-5-5-7-7-7-7-10101010-8-8-8-8-8-8-8-8-8-8-8-8-7-|
E:|-3-3-3-3-3-3-3-3-5-5-5-5--5-5-5-5-6-6-6-6-6-6-6-6-8-8-8-8-8-|


Gtr II

e:|-------------------------------------------------------------------|
B:|-------------------------------------------------------------------|
G:|-7-7-7-7-7-7-7-7/10101010/9-9-9-9-7-7-7-7-7-7-7-7/10101010/9-9-9-9-|
D:|-x-x-x-x-x-x-x-x--x-x-x-x-x-x-x-x-x-x-x-x-x-x-x-x--x-x-x-x-x-x-x-x-|
A:|-5-5-5-5-5-5-5-5/-8-8-8-8/7-7-7-7-5-5-5-5-5-5-5-5/-8-8-8-8/7-7-7-7-|
E:|-------------------------------------------------------------------|

e:|------------------------------------------------------------------|
B:|------------------------------------------------------------------|
G:|-7-7-7-7-7-7-7-7-5-5-5-5/9-9-9-9-7-7-7-7-7-7-7-7/10101010/9-9-9-9-|
D:|-x-x-x-x-x-x-x-x-x-x-x-x-x-x-x-x-x-x-x-x-x-x-x-x--x-x-x-x-x-x-x-x-|
A:|-5-5-5-5-5-5-5-5-3-3-3-3/7-7-7-7-5-5-5-5-5-5-5-5/-8-8-8-8/7-7-7-7-|
E:|------------------------------------------------------------------|

e:|--------------------------------------------------------------------|
B:|--------------------------------------------------------------------|
G:|-7-7-7-7-7-7-7-7/10101010/9-9-9-9-7-7-7-7-7-7-7-7/10101010/12121212-|
D:|-x-x-x-x-x-x-x-x--x-x-x-x-x-x-x-x-x-x-x-x-x-x-x-x--x-x-x-x-x-x-x-x--|
A:|-5-5-5-5-5-5-5-5/-8-8-8-8/7-7-7-7-5-5-5-5-5-5-5-5/-8-8-8-8/10101010-|
E:|--------------------------------------------------------------------|

e:|---------------------------------------------------------------|
B:|---------------------------------------------------------------|
G:|-7-7-7-7-7-7-7-7-5-5-5-5/9-9-9-9-10101010/9-9/5-5-5/1212121212-|
D:|-x-x-x-x-x-x-x-x-x-x-x-x-x-x-x-x--x-x-x-x-x-x-x-x-x-x-x-x-x-x--|
A:|-5-5-5-5-5-5-5-5-3-3-3-3/7-7-7-7--8-8-8-8/7-7/3-3-3/1010101010-|
E:|---------------------------------------------------------------|

Chorus:

Gtr I

e:|------------------------------------------------------------------|
B:|------------------------------------------------------------------|
G:|------------------------------------------------------------------|
D:|-10101010101010101010101010101010-7-7-7-7-7-7-7-7-7-7-7-7---------|
A:|--8-8-8-8-8-8-8-8-8-8-8-8-7-7-7-7-5-5-5-5-5-5-5-5-5-5-5-5-8-8-8-8-|
E:|----------------------------------------------------------5-5-5-5-|

e:|------------------------------------------------------------------|
B:|------------------------------------------------------------------|
G:|------------------------------------------------------------------|
D:|--------------------------------------------------5-5-5-5-5-5-5-5-|
A:|-8-8-8-8-8-8-8-8-1010101010101010-5-5-5-5-5-5-5-5-3-3-3-3-3-3-3-3-|
E:|-6-6-6-6-6-6-6-6--8-8-8-8-8-8-8-8-3-3-3-3-3-3-3-3-----------------|

Gtr II

e:|-----------------------------------------------------------------------|
B:|-----------------------------------------------------------------------|
G:|-141414141414141414141414/1212/1010-141414141414141414141414/1212/1010-|
D:|--x-x-x-x-x-x-x-x-x-x-x-x--x-x--x-x--x-x-x-x-x-x-x-x-x-x-x-x--x-x--x-x-|
A:|-121212121212121212121212/1010/-8-8-121212121212121212121212/1010/-8-8-|
E:|-----------------------------------------------------------------------|

e:|-----------------------------------|
B:|-----------------------------------|
G:|-1010101010101010/1212121212121212-|
D:|--x-x-x-x-x-x-x-x--x-x-x-x-x-x-x-x-|
A:|--8-8-8-8-8-8-8-8/1010101010101010-|
E:|-----------------------------------|

e:|----------------------------------|
B:|----------------------------------|
G:|-10101010/9-9-9-9/5-5-5-5-5-5-5-5-|
D:|--x-x-x-x-x-x-x-x-x-x-x-x-x-x-x-x-|
A:|--8-8-8-8/7-7-7-7/3-3-3-3-3-3-3-3-|
E:|----------------------------------|

Repeat Pre-Verse

Verse II:

Gtr I

e:|-----------------------------------------------------------------|
B:|-----------------------------------------------------------------|
G:|-----------------------------------------------------------------|
D:|-7-7-7-7-7-7-7-7-7-7-7-7-7-7-7-7-3-3-3-3-3-3-3-3-3-3-3-3-3-3-3-3-|
A:|-5-5-5-5-5-5-5-5-5-5-5-5-3-3-3-3-1-1-1-1-1-1-1-1-1-1-1-1-0-0-0-0-|
E:|-----------------------------------------------------------------|


e:|------------------------------------------------------------------|
B:|------------------------------------------------------------------|
G:|-5-5-5-5-3-3-3-3--------------------------------------------------|
D:|-5-5-5-5-5-5-5-5--------------------------------------------------|
A:|-5-5-5-5-5-5-5-5-7-7-7-7-10101010-8-8-8-8-8-8-8-8-8-8-8-8-7-7-7-7-|
E:|-3-3-3-3-3-3-3-3-5-5-5-5--5-5-5-5-6-6-6-6-6-6-6-6-8-8-8-8-8-8-8-8-|

e:|-----------------------------------------------------------------|
B:|-----------------------------------------------------------------|
G:|-----------------------------------------------------------------|
D:|-7-7-7-7-7-7-7-7-7-7-7-7-7-7-7-7-3-3-3-3-3-3-3-3-3-3-3-3-3-3-3-3-|
A:|-5-5-5-5-5-5-5-5-5-5-5-5-3-3-3-3-1-1-1-1-1-1-1-1-1-1-1-1-0-0-0-0-|
E:|-----------------------------------------------------------------|


e:|------------------------------------------------------------|
B:|------------------------------------------------------------|
G:|-5-5-5-5-3-3-3-3--------------------------------------------|
D:|-5-5-5-5-5-5-5-5--------------------------------------------|
A:|-5-5-5-5-5-5-5-5-7-7-7-7-10101010-8-8-8-8-8-8-8-8-8-8-8-8-7-|
E:|-3-3-3-3-3-3-3-3-5-5-5-5--5-5-5-5-6-6-6-6-6-6-6-6-8-8-8-8-8-|

Gtr II

e:|---------------------------------------------------|
B:|---------------------------------------------------|
G:|----------------10^r10-------------------10^r10----|
D:|-12-12-12-10-12--------10-12-12-12-10-12--------10-|
A:|---------------------------------------------------|
E:|---------------------------------------------------|

e:|------------------------------------------------|
B:|------------------------------------------------|
G:|----------------10^r10-------------------12^r12-|
D:|-12-12-12-10-12--------10-12-12-12-10-12--------|
A:|------------------------------------------------|
E:|------------------------------------------------|

e:|---------------------------------------------|
B:|---------------------------------------------|
G:|----------------10^r10----9-9-9-9-9-9h10p9/7-|
D:|-12-12-12-10-12--------10--------------------|
A:|---------------------------------------------|
E:|---------------------------------------------|

e:|----------------------------------------------|
B:|----------------------------------------------|
G:|-10-10-10-9-9----------10-10-10-9-9-9h10p9----|
D:|--------------12-12-12---------------------12-|
A:|----------------------------------------------|
E:|----------------------------------------------|

e:|---------------------------------------------------|
B:|---------------------------------------------------|
G:|----------------10^r10-------------------10^r10----|
D:|-12-12-12-10-12--------10-12-12-12-10-12--------10-|
A:|---------------------------------------------------|
E:|---------------------------------------------------|

e:|------------------------------------------------|
B:|------------------------------------------------|
G:|----------------10^r10-------------------12^r12-|
D:|-12-12-12-10-12--------10-12-12-12-10-12--------|
A:|------------------------------------------------|
E:|------------------------------------------------|

e:|---------------------------------------------|
B:|---------------------------------------------|
G:|----------------10^r10----9-9-9-9-9-9h10p9/7-|
D:|-12-12-12-10-12--------10--------------------|
A:|---------------------------------------------|
E:|---------------------------------------------|

e:|----------------------------------|
B:|----------------------------------|
G:|-10-10-10-9-9----------1212121212-|
D:|--------------12-12-12--x-x-x-x-x-|
A:|-----------------------1010101010-|
E:|----------------------------------|

Repeat Chorus (x2)

On the second repeat, Gtr II changes to this:

e:|-----------------------------------------------------------------------|
B:|-----------------------------------------------------------------------|
G:|-141414141414141414141414/1212/1010-141414141414141414141414/1212/1010-|
D:|--x-x-x-x-x-x-x-x-x-x-x-x--x-x--x-x--x-x-x-x-x-x-x-x-x-x-x-x--x-x--x-x-|
A:|-121212121212121212121212/1010/-8-8-121212121212121212121212/1010/-8-8-|
E:|-----------------------------------------------------------------------|

e:|-----------------------------------------------------------------|
B:|-----------------------------------------------------------------|
G:|-1010101010101010/1212121212121212-10101010/9-9/5-5-1010/9-9/5-5-|
D:|--x-x-x-x-x-x-x-x--x-x-x-x-x-x-x-x--x-x-x-x-x-x-x-x--x-x-x-x-x-x-|
A:|--8-8-8-8-8-8-8-8/1010101010101010--8-8-8-8/7-7/3-3--8-8/7-7/3-3-|
E:|-----------------------------------------------------------------|

Solo:

Gtr I

e:|--------------------------------------------------------|
B:|-15~-15-15p13----18-18~-15-15~-18p15/13-17p15-13/15~-15-|
G:|--------------14----------------------------------------|
D:|--------------------------------------------------------|
A:|--------------------------------------------------------|
E:|--------------------------------------------------------|

e:|-------------------------------------------------------------------|
B:|-13-----13---------------------------------------------------------|
G:|----14~----14-12-14p12/10-12p10/9-10101010-99999-12121212-10101010-|
D:|-------------------------------------------------------------------|
A:|-------------------------------------------------------------------|
E:|-------------------------------------------------------------------|

e:|----------------------------------------------------------|
B:|----------------------------------------------------------|
G:|-1414-12-15^-15^-15-15-15/14-14/12-10-10h12p10/9-9h10p9/7-|
D:|----------------------------------------------------------|
A:|----------------------------------------------------------|
E:|----------------------------------------------------------|

e:|-----------------------------------------------------------------------|
B:|-----------------------------------------------------------------------|
G:|-7~--7~--7~--7~--5/3----------------------2h3h5-7-9~-10-10-12-14/15/17-|
D:|----------------------------------0h2-3h5------------------------------|
A:|----------------------------0h1h3--------------------------------------|
E:|----------------------0h1h3--------------------------------------------|

e:|---------13-13~-10-10~-12^(14)r12-10-|
B:|-15~-15~-----------------------------|
G:|-------------------------------------|
D:|-------------------------------------|
A:|-------------------------------------|
E:|-------------------------------------|

e:|----------------------------------------------------------|
B:|-13^(15)13^(15)13^(15)13^(15)13^(15)13^(15)13^(15)13^(15)-|
G:|----------------------------------------------------------|
D:|----------------------------------------------------------|
A:|----------------------------------------------------------|
E:|----------------------------------------------------------|

e:|-13^(15)13^(15)13^(15)13^(15)13^(15)13^(15)13^(15)13^(15)-|
B:|----------------------------------------------------------|
G:|----------------------------------------------------------|
D:|----------------------------------------------------------|
A:|----------------------------------------------------------|
E:|----------------------------------------------------------|

e:|-13-----13------|
B:|-17^(18)17^(18)-|
G:|----------------|
D:|----------------|
A:|----------------|
E:|----------------|

Gtr II

e:|------------------------------------------------------|
B:|------------------------------------------------------|
G:|-7-7-5-5-3-3-2-2--------------------------------------|
D:|-7-7-5-5-3-3-2-2-3-3-5-5-5-5-5-5-5-5-7-7-7-7-8-8/1010-|
A:|-5-5-3-3-1-1-0-0-3-3-5-5-5-5-5-5-5-5-7-7-7-7-x-x--x-x-|
E:|-----------------1-1-3-3-3-3-3-3-3-3-5-5-5-5-6-6/-8-8-|

e:|------------------------------------------------------|
B:|------------------------------------------------------|
G:|-7-7-5-5-3-3-2-2--------------------------------------|
D:|-7-7-5-5-3-3-2-2-3-3-5-5-5-5-5-5-5-5-7-7-7-7-8-8/1010-|
A:|-5-5-3-3-1-1-0-0-3-3-5-5-5-5-5-5-5-5-7-7-7-7-x-x--x-x-|
E:|-----------------1-1-3-3-3-3-3-3-3-3-5-5-5-5-6-6/-8-8-|

e:|-------------------------------------------------------|
B:|-------------------------------------------------------|
G:|-7-7/9-9/1010-9-9-7/5----------------------------------|
D:|-x-x-x-x--x-x-x-x-x-x-5-5-5-5-5-5-5-5-7-7-7-7-8-8/1010-|
A:|-5-5/7-7/-8-8-7-7-5/3-5-5-5-5-5-5-5-5-7-7-7-7-x-x--x-x-|
E:|----------------------3-3-3-3-3-3-3-3-5-5-5-5-6-6/-8-8-|

e:|------------------------------------------------------------|
B:|------------------------------------------------------------|
G:|-7-7/9-9/1010-9-9-7/5----------------------------------1010-|
D:|-x-x-x-x--x-x-x-x-x-x-5-5-5-5-5-5-5-5-7-7-7-7-8-8/1010--x-x-|
A:|-5-5/7-7/-8-8-7-7-5/3-5-5-5-5-5-5-5-5-7-7-7-7-x-x--x-x--8-8-|
E:|----------------------3-3-3-3-3-3-3-3-5-5-5-5-6-6/-8-8------|


Bridge Pt I:

Gtr I

e:|------------------------------------------------------------------|
B:|------------------------------------------------------------------|
G:|------------------------------------------------------------------|
D:|-10101010101010101010101010101010-7-7-7-7-7-7-7-7-7-7-7-7---------|
A:|--8-8-8-8-8-8-8-8-8-8-8-8-7-7-7-7-5-5-5-5-5-5-5-5-5-5-5-5-8-8-8-8-|
E:|----------------------------------------------------------5-5-5-5-|
PM   * * * * * * * * * * * * * * * * * * * * * * * * * * * * * * * *

e:|-------------------------------------------------------------------|
B:|-------------------------------------------------------------------|
G:|-------------------------------------------------------------------|
D:|-------------------------------------------------------------------|
A:|-8-8-8-8-8-8-8-8-1010101010101010-5-5-5-5-5-5-5-5-1010101010101010-|
E:|-6-6-6-6-6-6-6-6--8-8-8-8-8-8-8-8-3-3-3-3-3-3-3-3--8-8-8-8-6-6-6-6-|
PM  * * * * * * * *  * * * * * * * * * * * * * * * *  * * * * * * * *

e:|-----------------------------------------------------------------|
B:|-----------------------------------------------------------------|
G:|-----------------------------------------------------------------|
D:|---------------------------------7-7-7-7-7-7-7-7-7-7-7-7-5-5-5-5-|
A:|-8-8-8-8-8-8-8-8-8-8-8-8-8-8-8-8-5-5-5-5-5-5-5-5-5-5-5-5-3-3-3-3-|
E:|-5-5-5-5-5-5-5-5-5-5-5-5-8-8-8-8---------------------------------|
PM  * * * * * * * * * * * * * * * * * * * * * * * * * * * * * * * *

e:|-------------------------------------------------------------------|
B:|-------------------------------------------------------------------|
G:|-------------------------------------------------------------------|
D:|-------------------------------------------------------------------|
A:|-8-8-8-8-8-8-8-8-1010101010101010-5-5-5-5-5-5-5-5-1010101010101010-|
E:|-6-6-6-6-6-6-6-6--8-8-8-8-8-8-8-8-3-3-3-3-3-3-3-3--8-8-8-8-6-6-6-6-|
PM  * * * * * * * *  * * * * * * * * * * * * * * * *  * * * * * * * *

Gtr II

e:|------------------------------------------------|
B:|------------------------------------------------|
G:|-10~~--12/10/12/14~~--12/14/12/10~~--12~~--14~~-|
D:|--x-----x--x--x--x-----x--x--x--x-----x-----x---|
A:|--8~~--10/-8/10/12~~--10/12/10/-8~~--10~~--12~~-|
E:|------------------------------------------------|

Bridge Pt II:

Gtr I

e:|------------------------------------------------------------------|
B:|------------------------------------------------------------------|
G:|------------------------------------------------------------------|
D:|-10101010101010101010101010101010-7-7-7-7-7-7-7-7-7-7-7-7---------|
A:|--8-8-8-8-8-8-8-8-8-8-8-8-7-7-7-7-5-5-5-5-5-5-5-5-5-5-5-5-8-8-8-8-|
E:|----------------------------------------------------------5-5-5-5-|

e:|-------------------------------------------------------------------|
B:|-------------------------------------------------------------------|
G:|-------------------------------------------------------------------|
D:|-------------------------------------------------------------------|
A:|-8-8-8-8-8-8-8-8-1010101010101010-5-5-5-5-5-5-5-5-1010101010101010-|
E:|-6-6-6-6-6-6-6-6--8-8-8-8-8-8-8-8-3-3-3-3-3-3-3-3--8-8-8-8-6-6-6-6-|

e:|-----------------------------------------------------------------|
B:|-----------------------------------------------------------------|
G:|-----------------------------------------------------------------|
D:|---------------------------------7-7-7-7-7-7-7-7-7-7-7-7-5-5-5-5-|
A:|-8-8-8-8-8-8-8-8-8-8-8-8-8-8-8-8-5-5-5-5-5-5-5-5-5-5-5-5-3-3-3-3-|
E:|-5-5-5-5-5-5-5-5-5-5-5-5-8-8-8-8---------------------------------|

e:|-------------------------------------------------------------------|
B:|-------------------------------------------------------------------|
G:|-------------------------------------------------------------------|
D:|-------------------------------------------------------------------|
A:|-8-8-8-8-8-8-8-8-1010101010101010-5-5-5-5-5-5-5-5-1010101010101010-|
E:|-6-6-6-6-6-6-6-6--8-8-8-8-8-8-8-8-3-3-3-3-3-3-3-3--8-8-8-8-6-6-6-6-|

Gtr II

e:|-------------------------------------------------------------------|
B:|-------------------------------------------------------------------|
G:|-171717171717171717171717-14/15-1414141414141414-17/19-16/17/16/14-|
D:|--x-x-x-x-x-x-x-x-x-x-x-x--x--x--x-x-x-x-x-x-x-x--x--x--x--x--x--x-|
A:|-151515151515151515151515-12/13-1212121212121212-15/17-14/15/14/12-|
E:|-------------------------------------------------------------------|

e:|----------------------------------------|
B:|----------------------------------------|
G:|-1010101010101010/1414/1212121212121212-|
D:|--x-x-x-x-x-x-x-x--x-x--x-x-x-x-x-x-x-x-|
A:|--8-8-8-8-8-8-8-8/1212/1010101010101010-|
E:|----------------------------------------|

e:|----------------------------------|
B:|----------------------------------|
G:|-10101010/9-9-9-9/7-7-7-7/5-5-5-5-|
D:|--x-x-x-x-x-x-x-x-x-x-x-x-x-x-x-x-|
A:|--8-8-8-8/7-7-7-7/5-5-5-5/3-3-3-3-|
E:|----------------------------------|

e:|-------------------------------------------------------------|
B:|-------------------------------------------------------------|
G:|-171717171717171717171717-14/15-1414141414141414-14/15-14/12-|
D:|--x-x-x-x-x-x-x-x-x-x-x-x--x--x--x-x-x-x-x-x-x-x--x--x--x--x-|
A:|-151515151515151515151515-12/13-1212121212121212-12/13-12/10-|
E:|-------------------------------------------------------------|

e:|--------------------------------------|
B:|--------------------------------------|
G:|-1010101010101010/9-9/7-7-7-7-7-7-7-7-|
D:|--x-x-x-x-x-x-x-x-x-x-x-x-x-x-x-x-x-x-|
A:|--8-8-8-8-8-8-8-8/7-7/5-5-5-5-5-5-5-5-|
E:|--------------------------------------|

e:|----------------------------------|
B:|----------------------------------|
G:|-10101010/9-9/7-7/5-5-5-5/7-7-7-7-|
D:|--x-x-x-x-x-x-x-x-x-x-x-x-x-x-x-x-|
A:|--8-8-8-8/7-7/5-5/3-3-3-3/5-5-5-5-|
E:|----------------------------------|

Final Chorus:

e:|------------------------------------------------------------------|
B:|------------------------------------------------------------------|
G:|------------------------------------------------------------------|
D:|-10101010101010101010101010101010-7-7-7-7-7-7-7-7-7-7-7-7---------|
A:|--8-8-8-8-8-8-8-8-8-8-8-8-7-7-7-7-5-5-5-5-5-5-5-5-5-5-5-5-8-8-8-8-|
E:|----------------------------------------------------------5-5-5-5-|

e:|-------------------------------------------------------------------|
B:|-------------------------------------------------------------------|
G:|-------------------------------------------------------------------|
D:|-------------------------------------------------------------------|
A:|-8-8-8-8-8-8-8-8-1010101010101010-5-5-5-5-5-5-5-5-1010101010101010-|
E:|-6-6-6-6-6-6-6-6--8-8-8-8-8-8-8-8-3-3-3-3-3-3-3-3--8-8-8-8-8-8-8-8-|

e:|-----------------------------------------------------------------|
B:|-----------------------------------------------------------------|
G:|-----------------------------------------------------------------|
D:|---------------------------------7-7-7-7-7-7-7-7-7-7-7-7-5-5-5-5-|
A:|-8-8-8-8-8-8-8-8-8-8-8-8-8-8-8-8-5-5-5-5-5-5-5-5-5-5-5-5-3-3-3-3-|
E:|-5-5-5-5-5-5-5-5-5-5-5-5-8-8-8-8---------------------------------|

e:|-------------------------------------------------------------------|
B:|-------------------------------------------------------------------|
G:|-------------------------------------------------------------------|
D:|-------------------------------------------------------------------|
A:|-8-8-8-8-8-8-8-8-1010101010101010-5-5-5-5-5-5-5-5-1010101010101010-|
E:|-6-6-6-6-6-6-6-6--8-8-8-8-8-8-8-8-3-3-3-3-3-3-3-3--8-8-8-8-8-8-8-8-|

Gtr II (x8)

e:|-------------------------------------|
B:|-13----13----13----13----10h11-10h11-|
G:|----10----10----10----10-------------|
D:|-------------------------------------|
A:|-------------------------------------|
E:|-------------------------------------|

End with: (Yes I'm aware the song fades out, so this part is just for the video version 
the song)

Gtr I

e:|-------|
B:|-------|
G:|-------|
D:|-3~~~~-|
A:|-3~~~~-|
E:|-1~~~~-|

Gtr II

e:|--------|
B:|--------|
G:|-10~~~~-|
D:|--x-----|
A:|--8~~~~-|
E:|--------|
comments
print report bad tab
3 comments total.
0 reply
f1f2 wrote on April 6 2008, 01:49 am

the tabs look familiar.. but anyway, nice job, cant wait for mcr's next album :D

0 reply
mcr_01_fan wrote on April 6 2008, 01:40 pm

f1f2:

That's probably because I already posted some of these tabs on here :) "The end., Dead!, This is how I disappear, I don't love you, and sleep" and also most of the tabs on this website were near perfect anyway, so there wasn't much I could do.

But thanks for looking into my tab! and hell yeah the next album should be awesome :D

0 reply
Seto-Blade wrote on July 24 2008, 11:38 pm

Best Mama tab out there.

I want to post or [tab]
guest
You may want to rate the tab now too:
select rating
Please do not post tabs as comments. Select "correction" instead!