Oops, an error
Loading. Please wait.

Three Cheers For Sweet Revenge Bass Tab

ver1
ver1

Album

Interactive

More versions @911Tabs.com
9,335 views 27 this week
10 commentsread comments
1 2 3 4 5
accurate
x 10
Autoscroll
+/-
esc
set tempo
stop
Contributor
Difficulty
intermediate
Hey! There's an official Ultimate Guitar app which is ideal
for learning songs when you're away from computer. Get the app
WARNING: You are trying to view
                                    content from Ultimate-Guitar.com
                                    in an unauthorized application,
                                    which is prohibited.

                                    Please use an official Ultimate
                                    Guitar Tabs application for iPhone,
                                    iPad or Android to access legitimate
                                    chords, guitar, bass, and drum tabs
                                    from Ultimate-Guitar.com database.

                                    Type "ultimate guitar tabs" in Apple
                                    App Store's or Android Market's
                                    search to find the application.
My Chemical Romance
Three Cheers For Sweet Revenge

Thankyou for you Work If I Used Your Tab, I Did This With The Black Parade Also, But i 
Contribute Much, On This Album I Did A Few Tracks Because I Did Not Think The Ones On UG 
Correct Sorry, But Thankyou Ever So Much If I Used Your Work

1.Helena[Unregisterd]
2.Give 'Em Hell Kid
3.To The End
4.You Know What They Do To Guys Like Us In Prison
5.Im Not Okay(I Promise)[HorridxHopes]
6.The Ghost Of You [SLIP(SIC)KNOT]
7.The Jetset Life Is Gonna Kill You [Unregisterd]
8.Interlude [No Tab]
9.Thankyou For The Venom
10.Hang 'Em High [kiefermatot]
11.It's Not A Fashion Statement, It's A Fucking Death Wish[rip_sid_v]
12.Cemetery Drive [Blink182mestfan]
13.I Never Told You What I Did For A Living[Unregisterd]


1.Helena [Unregistered]

Verse [00:14]
G|------------------------------------------------|
D|------------------------------------------------|
A|4444444444444444-00000000-2222------------------|
E|------------------------------4444-5555555555555|

Verse II
G|--------------------------------------------------------------------|
D|--------------------------------------------------------------------|
A|44444444-222222222------------------44444444-22222222---------------|
E|-------------------44444444-55555555-----------------444444455555555|

Pre-Chorus
G|-----------------|
D|-----------------|
A|44444444/66666666|
E|-----------------|

Chorus
G|----------------------------------------------------------------------|
D|----------------------------------------------------------------------|
A|7777777777777777----------------------------------------------------7~|
E|----------------77777777-88888888-9999999999999999-8888888888888888---|

Verse
G|------------------------------------------------|
D|------------------------------------------------|
A|4444444444444444-00000000-2222------------------|
E|------------------------------4444-5555555555555|

Verse II
G|--------------------------------------------------------------------|
D|--------------------------------------------------------------------|
A|44444444-222222222------------------44444444-22222222---------------|
E|-------------------44444444-55555555-----------------444444455555555|

Pre-Chorus
G|-----------------|
D|-----------------|
A|44444444/66666666|
E|-----------------|

Chorus
G|----------------------------------------------------------------------|
D|----------------------------------------------------------------------|
A|7777777777777777----------------------------------------------------7~|
E|----------------77777777-88888888-9999999999999999-8888888888888888---|

Chorus II [The '10' Play 16 times]
G|----------------------------------------------------------|
D|----------------------------------------------------------|
A|8888888888888888----------------------------------------8~|
E|----------------88888888-99999999-'10'-9999999999999999---|

Bridge/Breakdown
G|--------------------------------------------------|
D|--------------------------------------------------|
A|--------------------------------------------------|
E|---000----000--99999999-77777777-55555555-77777777|

Brige/Breakdown II
G|-----------------------------------|
D|-----------------------------------|
A|-----------------------------------|
E|99999999-77777777-55555555-77777777|

Bridge/Breakdown III
G|--------------------------------------------|
D|--------------------------------------------|
A|------------------------------------44444444|
E|99999999-77777777-55555555-77777777---------|

Chorus
G|----------------------------------------------------------------------|
D|----------------------------------------------------------------------|
A|7777777777777777----------------------------------------------------7~|
E|----------------77777777-88888888-9999999999999999-8888888888888888---|

Outro [10x8, 11x16, 10x8]
G|------------------------------------------|
D|------------------------------------------|
A|9999999999999999------------------------9~|
E|-----------------99999999-'10'-'11'-'10'--|


2. Give 'Em Hell Kid [Underoathxthurs]

Intro [x3] [00:08]
G|------------------------------|
D|------------------------------|
A|7777--------------7777----6666|x3
E|----7777-8888-5555----8888----|

Verse [x2] [Faster]
G|------------------------------|
D|------------------------------|
A|7777--------------7777----6666|x2
E|----7777-8888-5555----8888----|

Chorus
G|--------------------------------------------------|
D|--------------------------------------------------|
A|--------------------666666------555555------333333|
E|33333-222222-000000-------3333330-----000000------|

Post-Chorus
G|----------|
D|----------|
A|---333-666|
E|0~--------|

Verse [x2]
G|------------------------------|
D|------------------------------|
A|7777--------------7777----6666|x2
E|----7777-8888-5555----8888----|

Chorus
G|--------------------------------------------------|
D|--------------------------------------------------|
A|--------------------666666------555555------333333|
E|33333-222222-000000-------3333330-----000000------|

Bridge [x2]
G|---------------------------------------------------------|
D|---------------------------------------------------------|
A|3333333333333333-5555555555555555-2222222222222222-------|
E|---------------------------------------------------x7x7x7|

G|----------------------------------------------------------|
D|----------------------------------------------------------|
A|3333333333333333-5555555555555555-------------------------|
E|----------------------------------5-5-5-5-5-5-5-5-33333333|

Chorus
G|--------------------------------------------------|
D|--------------------------------------------------|
A|--------------------666666------555555------333333|
E|33333-222222-000000-------3333330-----000000------|

Outro
G|--------------------------------------|
D|--------------------------------------|
A|----------------------------------6666|
E|0000-7777-8888-5555-0000-7777-8888----|

End Note
G|--|
D|--|
A|-7|
E|--|

3.To The End [Underoathxthurs]

Intro Guitar/Drum Only

Pre-Chorus [0:25]
G|--------------------------|
D|--------------------------|
A|--------------------------|
E|3~-1~-)~-55555555/99999999|

Chorus
G|---------------------------------------------------|
D|---------------------------------------------------|
A|5-55-55-55-5-3-33-33-33-3-0-00-00-00-0-1-11-11-11-1|
E|---------------------------------------------------|

Fill
G|------|
D|------|
A|5-55-5|
E|------|

Verse
G|--------------------------------------------------|
D|--------------------------------------------------|
A|5-55-55-55-5-4-44-44-44-4-1-11-11-11-1---------0-4|
E|---------------------------------------3-33-33----|

Verse II
G|-----------------------------------------------|
D|-----------------------------------------------|
A|5-55-55-55-5-4-44-44-44-4-1-11-11-11-1---------|
E|---------------------------------------3-33-35~|

Pre-Chorus
G|--------------------------|
D|--------------------------|
A|--------------------------|
E|3~-1~-)~-55555555/99999999|

Chorus [x2]
G|------------------------------------------------------------|
D|------------------------------------------------------------|
A|5-55-55-55-5-3-33-33-33-3-0000000000000000-1111111111111111-|x2
E|------------------------------------------------------------|

Bridge
G|---------------------------------------------------------------|
D|---------------------------------------------------------------|
A|5-5-5-5-1-1-1-1-0-0-0-0-1-1-1-1-5-5-5-5-1-1-1-1-0-0-0-0-1-1-1-1|
E|---------------------------------------------------------------|

Bridge II
G|--------------------------------------------------------------------|
D|--------------------------------------------------------------------|
A|55555555-1111111-00000000-1111111-55555555-11111111-----------------|
E|---------------------------------------------------33333333/88888888|

Chorus [x2]
G|------------------------------------------------------------|
D|------------------------------------------------------------|
A|5-55-55-55-5-3-33-33-33-3-0000000000000000-1111111111111111-|x2
E|------------------------------------------------------------|

Outro
G|--------------------------------------------------------------------|
D|--------------------------------------------------------------------|
A|3333333333333333-555555555555555-1111111111111111-3333333333333333-5|
E|--------------------------------------------------------------------|

4.You Know What they do To Guys Like Us In Prison

Intro [00:10] [slowish]
G|-------------------------------------------|
D|-------------------------------------------|
A|-------------6666-6-5--------55555555-3-1-0|
E|0-2-3-3333333----5-4-55555555--------------|

G|---------------------------------------|
D|---------------------------------------|
A|---------66666666--------55555555-3-1-0|
E|333333333--------55555555--------------|

G|----------------------------------------|
D|----------------------------------------|
A|--------6666-88-66--------55555555-3-1-0|
E|33333333----------55555555--------------|

Chorus
G|----------------------------------------------|
D|----------------------------------------------|
A|----------------3333333333333333-1111111111111|
E|3333333333333333------------------------------|

G|----------------------------------------------------------------------|
D|----------------------------------------------------------------------|
A|----------------555555555555555----------------55555555555555555-3-1-0|
E|1111111111111111---------------1111111111111111-----------------------|

Verse
G|-------------------------------------------|
D|-------------------------------------------|
A|-----------------3333333333333333-111111111|
E|33333333333333333--------------------------|

G|--------------------------------|
D|--------------------------------|
A|----------------5555555555555555|
E|1111111111111111----------------|

G|----------------------------------------|
D|----------------------------------------|
A|------------33333333333333-1111111111111|
E|-33-33-33-33----------------------------|

G|-------------------------------------|
D|-------------------------------------|
A|----------------555555555555555-3-1-0|
E|1111111111111111---------------------|

Chorus
G|----------------------------------------------|
D|----------------------------------------------|
A|----------------3333333333333333-1111111111111|
E|3333333333333333------------------------------|

G|----------------------------------------------------------------------|
D|----------------------------------------------------------------------|
A|----------------555555555555555----------------55555555555555555-3-1-0|
E|1111111111111111---------------1111111111111111-----------------------|

Bridge [x2]
G|-----------------------------------------------------------------|
D|-----------------------------------------------------------------|
A|---------------------------------5555555555555555----------------|
E|6666666666666666-8888888888888888----------------5555555555555555|

G|--------------------------------------------------|
D|--------------------------------------------------|
A|---------------------------------5555555555555555-|
E|6666666666666666-8888888888888888----------------5|

G|-----------------------------------------------------------------|
D|-----------------------------------------------------------------|
A|-----------------6666666666666666----------------5555555555555555|
E|33333333333333333----------------5555555555555555----------------|

Outro
G|---------------------------------------------------------------------|
D|---------------------------------------------------------------------|
A|3333333333333333-5555555555555555----------------3333333333-111111111|
E|---------------------------------3333333333333333--------------------|

G|---------------------------------------------------------|
D|---------------------------------------------------------|
A|--------------------555555555555555-3-1-0----------------|
E|11111111111111111111----------------------333333333333333|

5.Im Not Okay (I Promise) [HorridxHopes]

Intro
G:----------------|
D:----------------|
A:-55555555555555-|
E:----------------|
Intro/Chorus
G:-------------------------------------------------------------------|
D:-------------------------------------------------------------------|
A:-55555555555555555555555555555555-22222222222222222222222222222222-|
E:-------------------------------------------------------------------|

G:-------------------------------------------------------------------|
D:-------------------------------------------------------------------|
A:-------------------------------------------------------------------|
E:-33333333333333333333333333333333-55555555555555555555555555555555-|

Verse
G:-------------------------------------------------------------------|
D:-------------------------------------------------------------------|
A:-55555555555555555555555555555555-22222222222222222222222222222222-|
E:-------------------------------------------------------------------|

G:-------------------------------------------------------------------|
D:-------------------------------------------------------------------|
A:-77777777777777777777777777777777----------------------------------|
E:----------------------------------55555555555555555555555555555555-|

Chorus
Verse
Chorus

Guitar Solo
G:--------------------------|
D:--------------------------|
A:--------------------------| x3
E:-5-5-5-5-3-3-3-3-00000000-|

G:------------------------------------------------------------------r---|
D:------------------------------------------------------------------e---|
A:------------------------------------------------------------------s---|
E:-5555555555555555555555555555555555555555555555555555555555555555-t-5~|

Pre-Chorus
G:-----------------r-|
D:-----------------e-|
A:-----------------s-|
E:-5-5-5-5-5-5-5-5-t-|

Chorus

Outro
G:-----|
D:-----|
A:--5~-|
E:-----|

6.The Ghost Of you [SLIP(SIC)KNOT]

Intro (very softly)
G|--44444444444444444444444444444444---------------------------|
D|-----------------------------------2222222222222222-4-444-4~-|
A|-------------------------------------------------------------|
E|-------------------------------------------------------------|


Verse 0:13 X2
G|--------------------------------------------------------------------|
D|--------------------------------------------------------------------|
A|--------------------------------------------------------------------|
E|-777777777777777777777777-9999/10101010-0000000000000000-2222222-2~-|


1st Chorus
G|--------------------------------------------------------------------|
D|--------------------------------------------------------------------|
A|--------------------------------------------------------------------|
E|-3333333333333333-0000000000000000-7777777777777777-5555555555555-7-|

G|--------------------------------------|
D|--------------------------------------|
A|--------------------------------------|
E|-3333333333333p2h3p2-0000000000000000-|

Verse x2
G|--------------------------------------------------------------------|
D|--------------------------------------------------------------------|
A|--------------------------------------------------------------------|
E|-777777777777777777777777-9999/10101010-0000000000000000-2222222-2~-|


2nd Chorus
G|--------------------------------------------------------------------|
D|--------------------------------------------------------------------|
A|--------------------------------------------------------------------|
E|-3333333333333333-0000000000000000-7777777777777777-5555555555555-7-|

G|-----------------------------------------------------------------------|
D|-----------------------------------------------------------------------|
A|-----------------------------------------------------------------------|
E|-3333333333333p2h3p2-0000000000000000-7777777777777777-5555555555555-7-|

G|--------------------------------------|
D|--------------------------------------|
A|--------------------------------------|
E|-3333333333333p2h3p2-0000000000000000-|


Bridge x4
G|--------------------------------------|
D|--------------------------------------|
A|--------------------------------------|
E|--77777777-33333333-99999999-22222222-|


Final Chorus
G|--------------------------------------------------------------------|
D|--------------------------------------------------------------------|
A|--------------------------------------------------------------------|
E|-3333333333333333-0000000000000000-7777777777777777-5555555555555-7-|

G|-----------------------------------------------------------------------|
D|-----------------------------------------------------------------------|
A|-----------------------------------------------------------------------|
E|-3333333333333p2h3p2-0000000000000000-7777777777777777-5555555555555-7-|

G|--------------------------------------|
D|--------------------------------------|
A|--------------------------------------|
E|-3333333333333p2h3p2-0000000000000000-|


7.The Jetset Life Is Gonna Kill You [Unregisterd]

Verse
G|---------------------------------------------------|
D|---------------------------------------------------|
A|---------------------------------------------------| 2x
E|-10-10-10-10-10-10-10-10-88888888-6666666666666666-|

G|---------------------------------------------------------------------|
D|---------------------------------------------------------------------|
A|---------------------------------------------------------------------|
E|-10-10-10-10-10-10-10-10-12-12-12-12-12-12-12-12-12-6666666666666666-|

G|---------------------------------------------------|
D|---------------------------------------------------|
A|---------------------------------------------------|
E|-10-10-10-10-10-10-10-10-88888888-6666666666666666-|

Chorus
G|---------------------------------------------------|
D|---------------------------------------------------|
A|---------------------------------------------------| 2x
E|-10-10-10-10-13-13-9999-10-10-66666666-33333-------|

BREAK

G|-----------|
D|-----------|
A|-----------|
E|-10~--10~--|

Verse #2
G|---------------------------------------------------|
D|---------------------------------------------------|
A|---------------------------------------------------| 2x
E|-10-10-10-10-10-10-10-10-88888888-6666666666666666-|

G|---------------------------------------------------------------------|
D|---------------------------------------------------------------------|
A|---------------------------------------------------------------------|
E|-10-10-10-10-10-10-10-10-12-12-12-12-12-12-12-12-6666666666666666----|

G|---------------------------------------------------|
D|---------------------------------------------------|
A|---------------------------------------------------|
E|-10-10-10-10-10-10-10-10-88888888-6666666666666666-|

Bridge "Pull The Plug"
G|------------------------------------------|
D|------------------------------------------|
A|------------------------------------------|
E|-10-10-10-10-10-10-10-10-33333333-88888888|

G|----------------------------------------------------------|
D|----------------------------------------------------------|
A|----------------------------------10-10-10-10-10-10-10-10-|
E|-99999999-10-10-10-10-10-10-10-10-------------------------|

G|-------------------|
D|-------------------|
A|-------------------|
E|-88888888-99999999-|

"Slip into this tragedy"
G|-------------------------------------------------------------|
D|-------------------------------------------------------------|
A|-------------------------------------------------------------|
E|-66666666-88888888-99999999-10-10-10-10-10-10-10-10-66666666-|

G|----------------------------------|
D|----------------------------------|
A|----------------------------------|
E|-88888888-12-12-12-12-12-12-12-12-|

Repeat chorus 4x

Outro "pull The Plug"
G|---------------------------------------------------|
D|---------------------------------------------------|
A|---------------------------------------------------|
E|-10-10-10-10-10-13-13-13-99999-10-10-10-66666666---|

8.Interlude [Acoustic/Gerard vocals Only]

9.Thankyou For The Venom [Underoathxthurs]

Intro
G|-------------|
D|-------------|
A|22-----------|
E|----00--22-22|

Intro II
G|--------------------------------------------------------------------|
D|--------------------------------------------------------------------|
A|222222222222222222--------------2222222222222222-55555555-7777777777|
E|------------------00000002222222------------------------------------|

~Pre-Verse Guitar Break~

Verse
G|---------------------------------|
D|---------------------------------|
A|---------------555555-77-44444444|
E|22222-3-22222-3------------------|

Break [Love It Or Leave It]
G|-------------------------------|
D|-------------------------------|
A|22-222-222-222-222-222-222-2222|
E|-------------------------------|

Verse
G|---------------------------------|
D|---------------------------------|
A|---------------555555-77-44444444|
E|22222-3-22222-3------------------|

Break [Wouldnt Front The scene If You Paid Me]
G|-------------------------------|
D|-------------------------------|
A|22222222222-5-0-22222222222-5-0|
E|-------------------------------|
Verse
G|---------------------------------|
D|---------------------------------|
A|---------------555555-77-44444444|
E|22222-3-22222-3------------------|


G|-------------------------------|
D|-------------------------------|
A|22-222-222-222-222-222-222-2222|
E|-------------------------------|


G|---------------------------------|
D|---------------------------------|
A|---------------555555-77-44444444|
E|22222-3-22222-3------------------|

Pre-Chorus
G|----------------------------------------------------------------------|
D|----------------------------------------------------------------------|
A|----------------------------------------------------------------------|
E|333333335555-7777-66666666-7777-9999-3333333333333333-5555555555555555|


Chorus
G|---------------------------------------------------------------------|
D|---------------------------------------------------------------------|
A|5555555555555555-444444444444444-2222222222222222--------------------|
E|-------------------------------------------------33333333333333333333|

G|---------------------------------------------------------------------|
D|---------------------------------------------------------------------|
A|55555555-7777-9999-44444444-5555-7777-2222222222222222---------------|
E|------------------------------------------------------333333333333333|

Repeat:
Verse
Pre-Chorus
Chorus [x2]

Solo
G|-------------------------------------|
D|-------------------------------------|
A|22222222-----------------------------|x2
E|--------33333333-22-1111111-2222-6666|

G|--------------------------------------------------------------------|
D|--------------------------------------------------------------------|
A|---------------------------------------------------0000000-111111111|
E|3333333333333333-0000000000000000-11111111-22222222-----------------|

Rest For Guitar Break

Bass Comes In At "Better Card To Lead"
G|----------|
D|----------|
A|----------|
E|-7777-9999|

Pre-Chorus
G|----------------------------------------------------------------------|
D|----------------------------------------------------------------------|
A|----------------------------------------------------------------------|
E|333333335555-7777-66666666-7777-9999-3333333333333333-5555555555555555|


Chorus [x4]
G|---------------------------------------------------------------------|
D|---------------------------------------------------------------------|
A|5555555555555555-444444444444444-2222222222222222--------------------|
E|-------------------------------------------------33333333333333333333|

G|---------------------------------------------------------------------|
D|---------------------------------------------------------------------|
A|55555555-7777-9999-44444444-5555-7777-2222222222222222---------------|
E|------------------------------------------------------333333333333333|

Outro/End Notes
G|--------|
D|--------|
A|22----22|
E|--------|

10. Hang 'Em High[kiefermatot]

FIG. 1

G---------------------------------------------------------|
D-0-0-0-0-0-0-0-0-0-0-0-0-0-0-0-0-------------------------|
A----------------------------------3-3-3------------------|
E-----------------------------------------1-1-1-1-1-1-1-1-|
*Continued here*
G-------------------------|
D-0-0-0-0-0-0-0-0-0-0-0-0-|
A-------------------------|
E-------------------------|

FIG. 2

G-------------------------------------------------------|
D---0-0-0-0-0-0-0-0-0-0-0-0-0-0-0-0-0-------------------|
A-------------------------------------------------------|
E-------------------------------------1-1-1-1-1-1-1-1-1-|
*Continued here*
G---------------------------------|
D-0-0-0-0-0-0-0-0-0-0-0-0-0-0-0-0-|
A---------------------------------|
E---------------------------------|

FIG. 3

G--------------------------------------------------------------------|
D---0-0-0-0-0-0-0-0-0-0-0-0-0-0-0-0-3-3-3-3-3-3-3-3--3-3-3-3-3-3-3---|
A--------------------------------------------------------------------|
E--------------------------------------------------------------------|

G-------------------------------------|
D-------------------------------------|
A---0-0-0-0-0-0-0-0-4-4-4-4-4-4-4-4---|
E-------------------------------------|

FIG. 4

G-----------------------------------------------------|
D---0-0-0-0-0-0-0-0-0-0-0-0-0-0-0-0-0-0-0-0-0-0-0-0---|
A-----------------------------------------------------|
E-----------------------------------------------------|

FIG. 5

G---------------------------------------------------------------------|
D---------------------------------------------------------------------|
A-----------------------------------0-0-0-0-0-0-0-0-0-0-0-0-0-0-0-0---|
E---1-1-1-1-1-1-1-1-1-1-1-1-1-1-1-1-----------------------------------|

G---------------------------------------------------------------------|
D---0-0-0-0-0-0-0-0-0-0-0-0-0-0-0-0-----------------------------------|
A---------------------------------------------------0-0-0-0-0-0-0-0---|
E-----------------------------------1-1-1-1-1-1-1-1-------------------|

G---------------------------------------------------------------------|
D---------------------------------------------------------------------|
A-----------------------------------0-0-0-0-0-0-0-0-0-0-0-0-0-0-0-0---|
E---1-1-1-1-1-1-1-1-1-1-1-1-1-1-1-1-----------------------------------|

FIG. 6

G---------------------------------------------------0-0-0-0-0-0-0-0---|
D---0-0-0-0-3-3-3-3-----------------0-0-0-0-3-3-3-3-------------------|
A-------------------0-0-0-0-0-0-0-0-----------------------------------|(X2)
E---------------------------------------------------------------------|

FIG. 7

G---------------------------------------------------------------------|
D---0-0-0-0-0-0-0-0-0-0-0-0-0-0-0-0-0-0-0-0-0-0-0-0-0-0-0-0-0-0-0-0---|
A---------------------------------------------------------------------|
E---------------------------------------------------------------------|

FIG. 8

G---------------------------------------------------------------------|
D---0-0-0-0-0-0-0-0-3-3-3-3-3-3-3-3-----------------------------------|
A-----------------------------------0-0-0-0-0-0-0-0-0-0-0-0-0-0-0-0---|
E---------------------------------------------------------------------|

G-----------------------------------0-0-0-0-0-0-0-0-0-0-0-0-0-0-0-0---|
D---0-0-0-0-0-0-0-0-3-3-3-3-3-3-3-3-----------------------------------|
A---------------------------------------------------------------------|(x2)
E---------------------------------------------------------------------|

Order

FIG. 1
FIG. 2
FIG. 3
FIG. 4
FIG. 5
FIG. 3
FIG. 4
FIG. 5
FIG. 6
FIG. 7 (x2)
FIG. 3 (x4)
FIG. 6
FIG. 8
FIG. 7

11.Its Not A Fashion Statement, Its A Fucking Death Wish [rip_sid_v]

Intro
G|-----------------------------------------------------------------------|
D|-----------------------------------------------------------------------|
A|-----------------------------------------------------------------------|
E|--9---5---7--7--7--7--44444444--99999999--55555555--77777777--44444444-|


Verse  start at the words "when we met"
G|-----------------------------------------------------------------------|
D|-----------------------------------------------------------------------|
A|-----------------------------------------------------------------------|
E|--55555555--77777777--44444444--99999999--55555555--77777777--44444444-|


Pre Chorus "The Damage You've Inflicted"
G|-------------------------------------------------------------|
D|-------------------------------------------------------------|
A|-------------------------------------------------------------|
E|--55555555--77777777--44444444--55555555--99999999--77777777-|

G|-----------------------------------------------------------------|
D|-----------------------------------------------------------------|
A|-----------------------------------7777--6666--44444444----------|
E|-44444444---5-7-5-5-5h7p5---5--5-7----------------------55555555-|

G|---------------------|R|--------------------|
D|---------------------|E|--------------------|
A|----------7777--6666-|S|--------------------|
E|-77777777------------|T|-55555555--77777777-|


Verse #2
G|-----------------------------------------|
D|-----------------------------------------|
A|-----------------------------------------| 2x
E|-99999999--55555555--77777777--44444444--|


Bridge "I will avenge my ghost"
G|-------------------------------------------------------|
D|-------------------------------------------------------|
A|-------------------------------------------------------|
E|--4-4-4-4-4-4-4-4--5-5-5-5-5-5-5-5--99999999--77777777-|

G|---------------------------|
D|---------------------------|
A|---------------------------|
E|--44444444--5-7-5-5-5h7p5--|


"This hole you put me in"
G|-------------------------------------|
D|-------------------------------------|
A|-7~--0~--1~--2~--4~-------------9999-|
E|---------------------4444--5555------|

"When You Go..."
G|----------------------------------------------------|
D|----------------------------------------------------|
A|--77777777--00000000--11111111--22222222--44444444--|
E|----------------------------------------------------|

G|--------------------------------|
D|--------------------------------|
A|----------------------99999999--|
E|--44444444--55555555------------|

12.Cemetery Drive [Blink182mestfan]

Verse: 00:08
G------------------------------------|
D------------------------------------|  X3
A--------------4~---2~---------------|
E---5~----2~-------------------------|

G------------------------------------|
D------------------------------------|
A--------------4~---222222222222-----|
E---5~----2~-------------------------|

Chorus: 00:42
G------------------------------------|
D------------------------------------|
A-----------------444444--222222-----|
E-222222--000000---------------------|

G------------------------------------|
D------------------------------------|
A-----------------444444--222222-----|
E-555555--222222---------------------|

Verse: 00:58

G------------------------------------|
D------------------------------------|  x2
A-----------------444-4h6--222-2h4p2-|
E--5555-55--222-0--------------------|

G------------------------------------|
D------------------------------------|
A--------------4~---2~---------------|
E---5~----2~-------------------------|

G------------------------------------|
D------------------------------------|
A--------------4~---222222222222-----|
E---5~----2~-------------------------|

Chorus: 1:31

G------------------------------------|
D------------------------------------|
A-----------------444444--222222-----|
E-222222--000000---------------------|

G------------------------------------|
D------------------------------------|
A-----------------444444--222222-----|
E-555555--222222---------------------|


Bridge: 1:47

G------------------------------------|
D------------------------------------|  x2
A--------------4-x12--2-x12----------|
E-5-x12--2-x12-----------------------|


Chorus: 2:04

G------------------------------------|
D------------------------------------|
A-----------------444444--222222-----|
E-222222--000000---------------------|
                                        x1
G------------------------------------|
D------------------------------------|
A-----------------444444--222222-----|
E-555555--222222---------------------|


G------------------------------------|
D------------------------------------|
A-----------------444444--222222-----|
E-222222--000000---------------------|


G--------------------------------------|
D--------------------------------------|
A-----------------444444--222222-------|
E-555/151515--222222-------------------|
(these are 15^)


Outro: 2:37

G------------------------------------|
D------------------------------------|  X2
A--------------4~---2~---------------|
E---5~----2~-------------------------|

G------------------------------------|
D------------------------------------|
A------------------------------------|
E---5~-------------------------------|

13.I Never Told You What I Did For A Living [Unregisterd]

Intro[x1]
G------------------------------------------|
D------------------------------------------|
A---2R-------------------------------------|
E------------0R--------3R--------2R--------|

Verse Riff I[x1]
G-------------------------------------------------------------------|
D-------------------------------------------------------------------|
A---xx2-x2-x2-x2-x2-------------------------------------------------|
E-------------------xx0-x0-x0-x0-x0--xx3-x3-x3-x3-x3--xx2-x2-x2-x2--|x2

Verse RiffII [x2]
G------------------------------------------------------------------|
D------------------------------------------------------------------|
A--2-22222222222222------------------------------------------------|
E-------------------0-00000000000000--3-33333333333333---2-2-2-2-2-|

Verse Riff III [x1]
G---------------------------------------------|
D---------------------------------------------|
A-----------------2---------------------------|
E---3R-----5R----------5---4-4-44-------------|

G-----------------|
D-----------------|
A-----------------|
E---3R-----5R-----|

RIFF 1(x1)
RIFF 2(x2)
RIFF 3(X1)

Verse Riff IIII[x5]
G-------------------------------------------|
D-------------------------------------------|
A--2-222-2-222-2-222-2-222------------------|
E-------------------------------------------|

Verse Riff IV[x4]
G-------------------------------------------|
D-------------------------------------------|
A--2-222-2-222-2-222--5-4-------------------|
E-------------------------5-----------------|

RIFF 3[x1]

REST "And Never Again.."

Verse Riff 6 [x2]
G----------------------------------------------------------|
D----------------------------------------------------------|
A---------------------------2-2-2-2-2-2--------------------|
E--3-3-3-3-3-3--5-5-5-5-5-5--------------3-3-3-3-3-3-3-----|

Verse Riff 7[x2]
G----------------------------------------------------------|
D----------------------------------------------------------|
A---------------------------2-2-2-2-2-2--------------------|
E--3-3-3-3-3-3--5-5-5-5-5-5--------------3-3-3-3-3-3-3-----|
comments
print report bad tab
10 comments total. Showing first comments.
0 reply
derekwalden_-33 wrote on October 30 2007, 07:06 pm

all good but i dont like the give em hell kid intro but thats just my opinion

+1 reply
SoftParade1967 wrote on November 15 2007, 05:49 pm

Damn man, awesome. thanks for putting this tab together!

0 reply
evaliciousxmcr wrote on July 27 2008, 05:42 pm

mm im not sre about the song prison in the chorus

I want to post or [tab]
guest
You may want to rate the tab now too:
select rating
Please do not post tabs as comments. Select "correction" instead!