Oops, an error
Loading. Please wait.

Three Cheers For Sweet Revenge Tab

ver1
ver1

Album

Interactive

More versions @911Tabs.com
15,153 views 15 this week
14 commentsread comments
1 2 3 4 5
not so good
x 24
Autoscroll
+/-
esc
set tempo
stop
Contributor
Hey! There's an official Ultimate Guitar app which is ideal
for learning songs when you're away from computer. Get the app
WARNING: You are trying to view
                                    content from Ultimate-Guitar.com
                                    in an unauthorized application,
                                    which is prohibited.

                                    Please use an official Ultimate
                                    Guitar Tabs application for iPhone,
                                    iPad or Android to access legitimate
                                    chords, guitar, bass, and drum tabs
                                    from Ultimate-Guitar.com database.

                                    Type "ultimate guitar tabs" in Apple
                                    App Store's or Android Market's
                                    search to find the application.
HELENA
intro:
e|--------------------------------------------------------------------------|
B|--------------------------------------------------------------------------|
G|--------------------------------------------------------------------------|
D|-14-x8-11-x8--13-x8--9-x4--11-x2--13-x2--14-x8--11-x8--9-x4--11-x4--13-x8-|
A|--------------------------------------------------------------------------|
E|--------------------------------------------------------------------------|
  PM ********************************************************************

verse
e|---------------------------------------------------------------------|
B|---------------------------------------------------------------------|
G|------------6-------------4-----------------------------6------4-----|
D|--x-x-x-x---6-x16--2------4-x4--------------------------6-x8---4-x8--|
A|--x-x-x-x---4------2-x8---2-----7-----7-----7-----7-----4------2-----|
E|--x-x-x-x----------0------------4-x4--5-x8--4x1---5-x8---------------|

pre chorus
e|------------------------------------------------------------|
B|------------------------------------------------------------|
G|------------6------4------------6---------------------------|
D|------------6-x8---4-x8---------6---9--X-X-X-X--------------|
A|-7-----7----4------2----7---7---4---6--X-X-X-X--------------|
E|-4-x8--5-x8-------------4---5----------X-X-X-X--------------|

 CHORUS
e|----------------------------------------------------------|
B|----------------------------------------------------------|
G|--9-------------------------------------------------------|
D|--9-x16-9-------------11----------------------------------|
A|--7-----9-x8---9-x8---11-x16----9-x16---------------------|
E|--------7------8-------9--------8-------------------------|

clean part just after chorus
e|----------------------------------------------------------|
B|---9-------9----------------------------------------------|
G|-------9-------9------------------------------------------|
D|----------------------------------------------------------|
A|-7---7---7---7--------------------------------------------|
E|----------------------------------------------------------|

BRIDGE
e|--------------------------------------------------------------------|
B|--------------------------------------------------------------------|
G|--------------------------------------------------------------------|
D|--------------------------------------------------------------------|
A|-7X8-6X4-7X2-9X2-11X8-9X8-7X8-6X4-7X2-9X2-11X8-9X4-11x2-12X2--14-X8-|
E|--------------------------------------------------------------------|
 PM*******************************************************************


 BRIDGE CONTINUED
e|-----------------------------------------------------------|
B|-----------------------------------------------------------|
G|-----------------------------------------------------------|
D|-----------------------------------------------------------|
A|-11-X8--9-X6--7-X2--11-X4--9-X4--7-X8--6-X4--7-X4----------|
E|-----------------------------------------------------------|
   *********************************************

PART AFTER BRIDGE
e|---------------------------------------------|
B|---------------------------------------------|
G|---------------------------------------------|
D|-999999999999999999999999999999999999--------|
A|-999999999999999999999999999999999999--------|
E|-777777777777777777777777777777777777--------|
 PM************************************

 ENDING
e|----------------------------------|
B|----------------------------------|
G|----------------------------------|
D|-------------------------------7~-|
A|-7-X16--14-X4--11-X4--7-X4-----7~-|
E|-------------------------------5~-|
 PM**********************

    SONG STRUCTURE:

    INTRO X1
    VERSE X1
    PRE CHORUS X1
    CHORUS X1
    CLEAN X1
    VERSE X1
    PRE CHORUS X1
    CHORUS X2
    BRIDGE
    PART AFTER BRIDGE X1
    CHORUS X2
    ENDING
------------------------------------------------------------------------



-----Intro-(0:05)------------------------------------------------

GIV'EM HELL KID
Starts with bass only

Guitar 1:
e|-----------0-------------------0------------------------------|
B|---------------0-------------------0--------------------------|
G|-------------------0-------------------0---5--5--5--8--8--8---|
D|---2~~-----------------2~~-----------------5--5--5--8--8--8---|
A|---2~~-----------------2~~-----------------3--3--3--6--6--6---|
E|---0~~-----------------0~~------------------------------------|

Guitar 2:
e|--------------------------------------------------------------|
B|--------------------------------------12---10-------10--------|
G|---9b~-8b~-9b~-8b~-----9-12------9-12---------12-12----12-----|
D|----------------------------12----------------------------12\-|
A|--------------------------------------------------------------|
E|--------------------------------------------------------------|


-----Verse-(0:15)---------------------------------------------------------------

Guitar 1:
e|--------------------------------------------------------------------------
B|--------------------------------------------------------------------------
G|--------------------------------------------------------------------------
D|-2-2-2-2-9-9-9-9-10-10-10-10-7-7-7-7-2-2-2-2-9-9-9-9-10-10-10-10-13-13-13-
A|-2-2-2-2-9-9-9-9-10-10-10-10-7-7-7-7-2-2-2-2-9-9-9-9-10-10-10-10-13-13-13-
E|-0-0-0-0-7-7-7-7--8--8--8--8-5-5-5-5-0-0-0-0-7-7-7-7--8--8--8--8-11-11-11- X2

Guitar 2:
e|--------------------------------------------------------------------------
B|--------------------------------------------------------------------------
G|-9-9-9-9-----------------------------9-9-9-9------------------------------
D|-9-9-9-9-9-9-9-9-10-10-10-10-7-7-7-7-9-9-9-9-9-9-9-9-10-10-10-10-13-13-13-
A|-7-7-7-7-9-9-9-9-10-10-10-10-7-7-7-7-7-7-7-7-9-9-9-9-10-10-10-10-13-13-13-
E|---------7-7-7-7--8--8--8--8-5-5-5-5---------7-7-7-7--8--8--8--8-11-11-11- X2

-----Chorus-(0:26)---------------------------------------------------

Guitar 1 & 2:
e|------------------------------------------------------------------|
B|------------------------------------------------------------------|
G|-------------------------8-8-8-8----------7-7-7-7---------5-5-5-5-|
D|-5-5-5-5-4-4-4-4-2-2-2-2-8-8-8-8--5-5-5-5-7-7-7-7-2-2-2-2-5-5-5-5-|
A|-5-5-5-5-5-5-5-5-2-2-2-2-6-6-6-6--5-5-5-5-5-5-5-5-2-2-2-2-3-3-3-3-|
E|-3-3-3-3-2-2-2-2-0-0-0-0----------3-3-3-3---------0-0-0-0---------|

-----PostChorus-(0:36)----------------------

Guitar 1:
e|-----------0------------------------------|
B|---------------0--------------------------|
G|-------------------0---5--5--5--8--8--8---|
D|---2~~-----------------5--5--5--8--8--8---|
A|---2~~-----------------3--3--3--6--6--6---|
E|---0~~------------------------------------|

Guitar 2:
e|------------------------------------------|
B|------------------------------------------|
G|---9b~-8b~-9b~--------11-11-11-11-11-11\--|
D|------------------------------------------|
A|------------------------------------------|
E|------------------------------------------|

-----Verse-(0:41)---------------------------------------------------------------

Guitar 1:
e|--------------------------------------------------------------------------
B|--------------------------------------------------------------------------
G|--------------------------------------------------------------------------
D|-2-2-2-2-9-9-9-9-10-10-10-10-7-7-7-7-2-2-2-2-9-9-9-9-10-10-10-10-13-13-13-
A|-2-2-2-2-9-9-9-9-10-10-10-10-7-7-7-7-2-2-2-2-9-9-9-9-10-10-10-10-13-13-13-
E|-0-0-0-0-7-7-7-7--8--8--8--8-5-5-5-5-0-0-0-0-7-7-7-7--8--8--8--8-11-11-11- X2

Guitar 2:
e|--------------------------------------------------------------------------
B|--------------------------------------------------------------------------
G|-9-9-9-9-----------------------------9-9-9-9------------------------------
D|-9-9-9-9-9-9-9-9-10-10-10-10-7-7-7-7-9-9-9-9-9-9-9-9-10-10-10-10-13-13-13-
A|-7-7-7-7-9-9-9-9-10-10-10-10-7-7-7-7-7-7-7-7-9-9-9-9-10-10-10-10-13-13-13-
E|---------7-7-7-7--8--8--8--8-5-5-5-5---------7-7-7-7--8--8--8--8-11-11-11- X2

-----Chorus-(0:52)---------------------------------------------------

Guitar 1 & 2:
e|------------------------------------------------------------------|
B|------------------------------------------------------------------|
G|-------------------------8-8-8-8----------7-7-7-7---------5-5-5-5-|
D|-5-5-5-5-4-4-4-4-2-2-2-2-8-8-8-8--5-5-5-5-7-7-7-7-2-2-2-2-5-5-5-5-|
A|-5-5-5-5-5-5-5-5-2-2-2-2-6-6-6-6--5-5-5-5-5-5-5-5-2-2-2-2-3-3-3-3-|
E|-3-3-3-3-2-2-2-2-0-0-0-0----------3-3-3-3---------0-0-0-0---------| X2

-----Bridge-(1:13)---------------------------------------------------

Guitar 1:
e|---------------------------------------------------------------------|
B|---------------------------------------------------------------------|
G|-5-5-5-5-5-5-5-5-7-7-7-7-7-7-7-7-4-4-4-4-4-4-4-4-------------7-7-7-7-|
D|-5-5-5-5-5-5-5-5-7-7-7-7-7-7-7-7-4-4-4-4-4-4-4-4---2-2-2-2---7-7-7-7-|
A|-3-3-3-3-3-3-3-3-5-5-5-5-5-5-5-5-2-2-2-2-2-2-2-2---2-2-2-2---5-5-5-5-|
E|---------------------------------------------------0-0-0-0-----------| X2

Guitar 2:                            (1st time: A A   -   2nd time: A B)
e|-------------------------------------------------|----A----|----B----|
B|-------------------------------------------------|---------|---------|
G|-5-5-5-5-5-5-5-5-7-7-7-7-9-9-7-7-7-7-7-7-7-7-7-7-|---------|---------|
D|-5-5-5-5-5-5-5-5-x-x-x-x-x-x-x-x-5-5-5-5-4-4-4-4-|-5-4-5s7b|-5-4-5s9b|
A|-3-3-3-3-3-3-3-3-5-5-5-5-7-7-5-5-----------------|---------|---------|
E|-------------------------------------------------|---------|---------| X2

-----Bridge2-(1:34)----------------------------

Guitar 1:
e|--------------------------------------------|
B|---------------------------/------pm------\-|
G|-5555555577777777--FLANGER-5555555577777777-|
D|-5555555577777777--EFFECT--5555555577777777-|
A|-3333333355555555----------3333333355555555-|
E|--------------------------------------------|

Guitar 2:
e|--------------------------------------------|
B|--------------------------------------------|
G|-5555555577777777--10b~~~~~~~~~~~------10\--|
D|-5555555577777777---------------------------|
A|-3333333355555555---------------------------|
E|--------------------------------------------|

-----Chorus-(1:44)---------------------------------------------------

Guitar 1 & 2:
e|------------------------------------------------------------------|
B|------------------------------------------------------------------|
G|-------------------------8-8-8-8----------7-7-7-7---------5-5-5-5-|
D|-5-5-5-5-4-4-4-4-2-2-2-2-8-8-8-8--5-5-5-5-7-7-7-7-2-2-2-2-5-5-5-5-|
A|-5-5-5-5-5-5-5-5-2-2-2-2-6-6-6-6--5-5-5-5-5-5-5-5-2-2-2-2-3-3-3-3-|
E|-3-3-3-3-2-2-2-2-0-0-0-0----------3-3-3-3---------0-0-0-0---------| X2

-----Ending-(2:05)---------------------------------------------------

Guitar 1:
e|--------------------------------------------------------------------------
B|--------------------------------------------------------------------------
G|------4444-5555-2222------4444-5555-2222------4444-5555-2222------4444-5555-8888---|
D|-2222-4444-5555-2222-2222-4444-5555-2222-2222-4444-5555-2222-2222-4444-5555-8888-2~|
A|-2222-2222-3333-0000-2222-2222-3333-0000-2222-2222-3333-0000-2222-2222-3333-6666-2~|
E|-0000----------------0000----------------0000----------------0000----------------0~|

Guitar 2:
e|----------------------------------------->
B|----------------------------------------->
G|---------------------9999-9999-999999999->
D|----------------------------------------->
A|----------------------------------------->
E|----------------------------------------->

>------------------------------------------------------------------------------------->
>-12-12-12-12-10-10-10-10-8-8-8-8---------12-12-12-12-10-10-10-10-8-8-8-8-10-10-10-10->
>---------------------------------9-9-9-9--------------------------------------------->
>------------------------------------------------------------------------------------->
>------------------------------------------------------------------------------------->
>------------------------------------------------------------------------------------->

>-------------------------------------------------------------------------------------|
>-12-12-12-12-10-10-10-10-8-8-8-8------------------------8-8-8-8-10-10-10-10----------|
>---------------------------------9-9-9-9-7-7-7-7-9-9-9-9-----------------------9~~~--|
>-------------------------------------------------------------------------------------|
>-------------------------------------------------------------------------------------|
>-------------------------------------------------------------------------------------|

----------------------------------------------------------------------------

My Chemical Romance-To the end
Intro                                                                                    
                     X2
e|-----------------------------------|-------------------------------|
B|-----------------------------------|-------------------------------|
G|-7-7--12-12-12--14-14-14--10-10-10-|--9-9-9---9-9-9—-7-7-7—-6-6-6--|
D|-x-x---x--x--x---x--x--x---x--x--x-|--x-x-x---x-x-x—-x-x-x--x-x-x--|
A|-5-5--10-10-10--12-12-12---8--8--8-|--7-7-7---7-7-7--5-5-5-—4-4-4--|
E|-----------------------------------|-------------------------------|

e|------------------------------------|
B|------------------------------------|
G|-7-7-7—-9-9-9—-9-9-9—-10-10-10------|
D|-x-x-x—-x-x-x--x-x-x—--x--x—-x------|  Play this whole thing twice
A|-5-5-5—-7-7-7—-7-7-7-—-8--8--8------|
E|------------------------------------|

(Guitar 2)this plays after the whole intro has been played once
e|------------------------------------------|
B|------------------------------------------|
G|------------------------------------------|
D|-10-12-15--17--19-17---10-12-15-17-14-15--|X4
A|------------------------------------------|
E|------------------------------------------|

Pre-chorus
e|--------------------------|
B|--------------------------|
G|-7~---5~------------------|
D|-7~---5~---7~----77777777-|
A|-5~---3~---7~----77777777-|
E|-----------5~----55555555-|

Chorus
e|-------------------------------------------------------------------|
B|-------------------------------------------------------------------|
G|-77-777-777-777---55-555-555-555-----------------------------------|
D|-77-777-777-777---55-555-555-555---77-777-777-777---88-888-888-888-|
A|-55-555-555-555---33-333-333-333---77-777-777-777---88-888-888-888-|
E|-----------------------------------55-555-555-555---66-666-666-666-|

Play just at the end of the chorus
e|-------------|
B|-7---77---77-|
G|-7---77---77-|
D|-5---55---55-|
A|-------------|
E|-------------|

Verse
e|-----------------------------------|-------------------------------|
B|-----------------------------------|-------------------------------|
G|-7-7--12-12-12--14-14-14--10-10-10-|--9-9-9---9-9-9—-7-7-7—-6-6-6--|
D|-x-x---x--x--x---x--x--x---x--x--x-|--x-x-x---x-x-x—-x-x-x--x-x-x--|
A|-5-5--10-10-10--12-12-12---8--8--8-|--7-7-7---7-7-7--5-5-5-—4-4-4--|
E|-----------------------------------|-------------------------------|

e|------------------------------------|
B|------------------------------------|
G|-7-7-7—-9-9-9—-9-9-9—-10-10-10------|
D|-x-x-x—-x-x-x--x-x-x—--x--x—-x------|  Play this whole thing twice
A|-5-5-5—-7-7-7—-7-7-7-—-8--8--8------|
E|------------------------------------|

Pre chorus
e|----------------------------------|
B|----------------------------------|
G|-7-------5------------------------|
D|-7(x16)—-5(x16)—-7-------77777777-|
A|-5-------3-------7(x16)—-77777777-|
E|-----------------5-------55555555-|

Chorus
e|-----------------------------------------------------------------------|
B|-----------------------------------------------------------------------|
G|-77-777-777-777---55-555-555-555---------------------------------------|
D|-77-777-777-777---55-555-555-555---7777777777777777---8888888888888888-|
A|-55-555-555-555---33-333-333-333---7777777777777777---8888888888888888-|
E|-----------------------------------5555555555555555---6666666666666666-|

Solo
e|--------------------------------------------------------------------------|
B|--------------------------------------------------------------------------|
G|-------------------------12-----------12-14-------12-14-15-12-14----12-14-|
D|-12-14-15-15-12-14-15-15----14-15-15--------15-15----------------15-------|
A|--------------------------------------------------------------------------|
E|--------------------------------------------------------------------------|

e|--------------------------------|
B|--------------------------------|
G|--------------------------------|
D|--------12----------------------|
A|-15-15-----13-15-12-----12------|
E|---------------------15-----13~-|

e|--------------------------------------------------------------------------|
B|--------------------------------------------------------------------------|
G|-------------------------12-----------12-14-------12-14-15-12-14----12-14-|
D|-12-14-15-15-12-14-15-15----14-15-15--------15-15----------------15-------|
A|--------------------------------------------------------------------------|
E|--------------------------------------------------------------------------|

e|----------------------------------|
B|----------------------------------|
G|-15-15-12-14-12-14-12-14-----12~~-|
D|-------------------------15-------|
A|----------------------------------|
E|----------------------------------|

Final Chorus
e|-----------------------------------------------------------------------|
B|-----------------------------------------------------------------------|
G|-77-777-777-777---55-555-555-555---------------------------------------|
D|-77-777-777-777---55-555-555-555---7777777777777777---8888888888888888-|X4
A|-55-555-555-555---33-333-333-333---7777777777777777---8888888888888888-|
E|-----------------------------------5555555555555555---6666666666666666-|


------------------------------------------==--------------------------------



My Chemical Romance - You Know What They Do To Guys Like Us In Prison
From the album "Three Cheers For Sweet Revenge"

----------------
Key:
^ - bend string
/ - slide
h - hammer on
p - pull off
. - palm mute
* - natural harmonic
[-] - artificial harmonic
~ - vibrate string
----------------

-------------------
- Intro/verse one -
-------------------

[RHYTHM]

Guitar one - played throughout the first verse (four times)

e|:|---------------------|
B|:|---------------------|
G|:|--3---8--8--8--7--7--|
D|:|--5--10--8--9--8--7--|
A|:|---------------------|
E|:|---------------------|
      x8  x6 x2 x8 x4 x4

[LEAD]

Guitar two - played after the rhythm is played once (two times)

e|:|-0--|-------------------------------------------------------------|
B|:|-4*-|-------------------1------/3-3-3-4-3^------------------------|
G|:|----|-/2-2-2-2p0-/2-2-2---3^-2--------------3-5p3-3-3-3h5p3-2^----|
D|:|----|----------------------------------------------------------3~-|
A|:|----|-------------------------------------------------------------|
E|:|----|-------------------------------------------------------------|

Guitar two - played after playing the lead twice, up to the chorus (one time)

e|:|-------------------------------------------------------------|
B|:|-------------------1------/3-3-3-4-3^--3/4/3/4/3h4p3/1-------|
G|:|-/2-2-2-2p0-/2-2-2---3^-2------------------------------3-2-0-|
D|:|-------------------------------------------------------------|
A|:|-------------------------------------------------------------|
E|:|-------------------------------------------------------------|


----------
- Chorus -
----------

[RHYTHM & LEAD] (two times)

e|:|----------------------|
B|:|-----5----------------|
G|:|-----5-----/7/9/11/12-|
D|:|--5--5--3-------------|
A|:|--5--3--3--/5/7/9/-10-|
E|:|--3-----1-------------|
     x8  x8 x8


-------------
- Verse two -
-------------

[RHYTHM]

Guitar one - similar to the chorus riff (one time)

e|:|--------------------------|
B|:|--------------------------|
G|:|--------------------------|
D|:|-------5----5------5----7-|
A|:|--5----3----1------3----5-|
E|:|--3----------------1------|
      .    .    .      .    .
      x16  x12  x4     x16  x16

Guitar one - at "...I miss my mom..." (one time)

e|:|---------------------------------|
B|:|---------------------------------|
G|:|-------------------------------7-|
D|:|-----5----5----5----5--5-5--5--7-|
A|:|--55-5-55-5-55-5-55-5--3-1--3--5-|
E|:|--33-3-33-3-33-3-33-3-------1----|
      ..   ..   ..   ..    . .  .
                           |same strum patter as above from here

[LEAD]

Guitar two - played with fast alternating picking. Hard to get the timing right, listen 
the track (one time)

e|:|--------------------------------------|
B|:|--3-----------------------------------|
G|:|-----2-3-0--4*--2-3-2-/5/3/2-2-3-2-0--| harmonic at "...push ups..."
D|:|--------------------------------------|
A|:|--------------------------------------|
E|:|--------------------------------------|

Guitar two - at "...I miss my mom..." (one time)

                           | stop alternating |
                           |   picking here   |
e|:|-----------------------|------------------|
B|:|--3--3-6-4-3-4-1-------|--3/4/3/4/1-------|
G|:|-----------------2-3-2-|------------3-2-0-|
D|:|-----------------------|------------------|
A|:|-----------------------|------------------|
E|:|-----------------------|------------------|

----------
- Chorus -
----------

[RHYTHM & LEAD] (two times)

e|:|----------------------|
B|:|-----5----------------|
G|:|-----5-----/7/9/11/12-|
D|:|--5--5--3-------------|
A|:|--5--3--3--/5/7/9/-10-|
E|:|--3-----1-------------|
     x8  x8 x8

----------
- Bridge -
----------

(PART ONE)

[RHYTHM]

Guitar one - after the chorus, at "To your room..." (one time)

e|:|-----------------|
B|:|-----------------|
G|:|-----------------|
D|:|------5---7------|
A|:|--5---1---5---7--|
E|:|--3-----------5--|
      .   .   .   .
      x16 x16 x16 x16

[LEAD]


Guitar two - over guitar one (one time)

e|:|--------------------------------------------|
B|:|--/8-10/11/8--8-10/11/8--/10-8-6--/8-10/11--|
G|:|--------------------------------------------|
D|:|--------------------------------------------|
A|:|--------------------------------------------|
E|:|--------------------------------------------|

(PART TWO)

Guitar two - clean, played before solo (one time)

e|:|----------------------------------------------|
B|:|--15p11---15p11---15p11---15p11---15p11---11--|
G|:|-------12------12------12------12------12-----|
D|:|----------------------------------------------|
A|:|----------------------------------------------|
E|:|----------------------------------------------|

e|:|--11----11----11----11----11--------|
B|:|----12----12----12----12----12--12--|
G|:|------13----13----13----13----13----|
D|:|------------------------------------|
A|:|------------------------------------|
E|:|------------------------------------|

e|:|-------------------------------------------|
B|:|--15p12---15p12---15p11---15p12---15p12----|
G|:|-------11------11------11------11------11--|
D|:|-------------------------------------------|
A|:|-------------------------------------------|
E|:|-------------------------------------------|

Guitar one - silent through lead riff, until "...Why remember" when this chord is played 
time)

e|:|-----|
B|:|-----|
G|:|-----|
D|:|--5--|
A|:|--5--|
E|:|--3--|

--------
- solo -
--------

[RHYTHM]

Guitar one - played throughout the solo (two times)

e|:|--------------|
B|:|-----8--------|
G|:|-----8-----7--|
D|:|--5--8--7--7--|
A|:|--5--6--7--5--|
E|:|--3-----5-----|
      x8 x8 x8 x8

[LEAD]

e|:|------------------------------------------------|
B|:|------------------------------------------------|
G|:|--/7-5-----------5^(7)-----------6^(7)----------|
D|:|-------8-7h8-5~--------8-7-5-3~-------8/7-5-[4]-|
A|:|------------------------------------------------|
E|:|------------------------------------------------|

e|:|--------------------------------------------------------8h11h12p8h12--|
B|:|--------------------------8h10p8h11----------------8h11---------------|
G|:|---------------------8h10-----------8h10------8h10--------------------|
D|:|--6p4-7p5-7/8~--8h10---------------------8h10-------------------------|
A|:|----------------------------------------------------------------------|
E|:|----------------------------------------------------------------------|

e|:|--13--12--10--------------------------------------10^-12^-14^-16^-20^/--|
B|:|10--10--10---10-13-10-12-10h12p10---------10^-12^-----------------------|
G|:|----------------------------------12--11^-------------------------------|
D|:|------------------------------------------------------------------------|
A|:|------------------------------------------------------------------------|
E|:|------------------------------------------------------------------------|


---------
- outro -
---------

(PART ONE)

[RHYTHM]

Guitar one - played at "life is but..." (one time)

   |clean|
   |     |
e|:|-----|-------------------------------|
B|:|-----|-------------------------------|
G|:|--3--|--555x-55-55-55----/7/9/11/12--|
D|:|--5--|--555x-55-55-55----------------|
A|:|-----|--333x-33-33-33----/5/7/9 /10--|
E|:|-----|-------------------------------|
     x8

[LEAD]

Guitar two - first harmonic played at "life is but..", three harmonics played at "... I 
go down..." (one time)

e|:|16*------------------------|
B|:|-----------4*--------------|
G|:|-------4*------/7/9/11/12--|
D|:|---------5*----------------|
A|:|---------------/5/7/9 /10--|
E|:|---------------------------|

(PART TWO)

[RHYTHM]

Guitar one - played during "now now now" to the end of the song (one time)

e|:|-------------------------------------------------------|
B|:|-----5-------------------------------------------------|
G|:|-----5-----/7/9/11/12--xx---xx---xx---xx---xx---xx-----|
D|:|--5--5--3--------------xx-5-xx-5-xx-5-xx-5-xx-5-xx--5--|
A|:|--5--3--3--/5/7/9/-10--xx-5-xx-5-xx-5-xx-5-xx-5-xx--5--|
E|:|--3-----1--------------xx-3-xx-3-xx-3-xx-3-xx-3-xx--3--|
      x8 x8 x8

[LEAD]

Guitar two - same as guitar one, except ending (one time)

e|:|------------------------------------------------------------------------|
B|:|-----5------------------------------------------------------------------|
G|:|-----5-----/7/9/11/12--xx------xx------xx------xx------xx------xx-------|
D|:|--5--5--3--------------xx------xx------xx------xx------xx------xx-------|
A|:|--5--3--3--/5/7/9/-10--xx------xx------xx------xx------xx------xx-------|
E|:|--3-----1--------------xx-3/15-xx-3/15-xx-3/15-xx-3/15-xx-3/15-xx-3/15--|
     x8  x8 x8


----------------------------------------------------------------------------


Artist: My Chemical Romance
Track: I'm not ok (I promise)
Album: Three cheers for sweet revenge

I read the other tabs and they didn't sound quite right so I attempted it myself. Hope this helps!


Intro pt 1

E ------|
B ------|
G --7---| Strum about 20 times
D --x---
A --5---|
D ------|

Intro pt 2/Chorus (Guitar 1)

E -------------------------------------------------|
B -------------------------------------------------|
G --19-19-19-19-19-19-19--14-14-14-14-14-14-14-----|
D ---x--x--x--x--x--x--x---x--x--x--x--x--x--x-----|
A --17-17-17-17-17-17-17--12-12-12-12-12-12-12-----|
D -------------------------------------------------|

E -------------------------------------------------|
B -------------------------------------------------|
G --12-12-12-12-12-12-12--11-11-11-11-11-11-11-----|
D ---x--x--x--x--x--x--x---x--x--x--x--x--x--x-----|
A --10-10-10-10-10-10-10---9--9--9--9--9--9--9-----|
D -------------------------------------------------|

Repeat

E --------------------------------------------------------------|
B --------------------------------------------------------------|
G --12-12-12-12-12-12-12--14-14-14-14-14-14-14--9-9-9-9-9-9-9---|
D ---x--x--x--x--x--x--x---x--x--x--x--x--x--x--x-x-x-x-x-x-x---|
A --10-10-10-10-10-10-10--12-12-12-12-12-12-12--7-7-7-7-7-7-7---|
D --------------------------------------------------------------|

E ------------------------------------------------|
B ------------------------------------------------|
G --12-12-12-12-12-12-12--14-14-14-14-14-14-14----|
D ---x--x--x--x--x--x--x---x--x--x--x--x--x—-x----|
A --10-10-10-10-10-10-10--12-12-12-12-12-12-12----|
D ------------------------------------------------|

E ------------------------------------------------|
B ------------------------------------------------|
G --16-16-16-16-16-16-16--18-18-18-18-18-18-18----|
D ---x--x--x--x--x--x--x---x--x--x--x--x--x--x----|
A --14-14-14-14-14-14-14--16-16-16-16-16-16-16----|
D ------------------------------------------------|


Intro pt 2/Chorus (Guitar 2)

E --------------------------------------------------------------|
B --------------------------------------------------------------|
G --------------------------------------------------------------|
D --0-0-0-0-0-0-0--0-0-0-0-0-0-0--0-0-0-0-0-0-0--0-0-0-0-0-0-0--|
A --0-0-0-0-0-0-0--0-0-0-0-0-0-0--0-0-0-0-0-0-0--0-0-0-0-0-0-0--|
D --0-0-0-0-0-0-0--0-0-0-0-0-0-0--0-0-0-0-0-0-0--0-0-0-0-0-0-0--|

E --------------------------------------------------------------|
B --------------------------------------------------------------|
G --------------------------------------------------------------|
D --9-9-9-9-9-9-9--9-9-9-9-9-9-9--9-9-9-9-9-9-9--9-9-9-9-9-9-9--|
A --9-9-9-9-9-9-9--9-9-9-9-9-9-9--9-9-9-9-9-9-9--9-9-9-9-9-9-9--|
D --9-9-9-9-9-9-9--9-9-9-9-9-9-9--9-9-9-9-9-9-9--9-9-9-9-9-9-9--|

E --------------------------------------------------------------|
B --------------------------------------------------------------|
G --------------------------------------------------------------|
D --2-2-2-2-2-2-2--2-2-2-2-2-2-2--2-2-2-2-2-2-2--2-2-2-2-2-2-2--|
A --2-2-2-2-2-2-2--2-2-2-2-2-2-2--2-2-2-2-2-2-2--2-2-2-2-2-2-2--|
D --2-2-2-2-2-2-2--2-2-2-2-2-2-2--2-2-2-2-2-2-2--2-2-2-2-2-2-2--|

E ---------------------------------------------------------------|
B ---------------------------------------------------------------|
G ---------------------------------------------------------------|
D --7-7-7-7-7-7-7--7-7-7-7-7-7-7--7-7-7-7-7-7-7--7-7-7-7-7-7-7---|
A --7-7-7-7-7-7-7--7-7-7-7-7-7-7--7-7-7-7-7-7-7--7-7-7-7-7-7-7---|
D --7-7-7-7-7-7-7--7-7-7-7-7-7-7--7-7-7-7-7-7-7--7-7-7-7-7-7-7---|


Verse is same as Intro pt 2 but palm muted

After the 2nd chorus there is a solo, which I haven't been able to tab yet. Sorry!

Then after the solo there is a piano interlude where he whispers, "I'm ok". When piano finishes play.

E ----------------------------------------------|
B ----------------------------------------------|
G ----------------------------------------------|
D --9-9-9-9-9-9-9-------2~-2--2~--7-7-7-7-------|
A --9-9-9-9-9-9-9--x4---2~-2--2~--7-7-7-7--x4---|
D --9-9-9-9-9-9-9-------2~-2--2~--7-7-7-7-------|

Song ends on

E ------|
B ------|
G ------|
D --0---|
A --0---|
D --0---|

Lyrics:

Well if you wanted honesty, that's all you had to say.
I never want to let you down or have you go, it's better off this way.
For all the dirty looks, the photographs your boyfriend took,
Remember when you broke your foot from jumping out the second floor?

I'm not okay.
I'm not okay.
I'm not okay.
You wear me out.

What will it take to show you that it's not the life it seems?
(I'm not okay)
I told you time and time again you sing the words but don't know what they mean
(I'm not okay)
So be a joke and look, another line without a hook
I held you close as we both shook for the last time take a good hard look!

I'm not okay.
I'm not okay.
I'm not okay.
You wear me out.

Forget about the dirty looks
The photographs your boyfriend took?
You said you read me like a book, but the pages are all torn and frayed

I'm okay.
I'm okay!
I'm okay, now
(I'm okay, now)

But you really need to listen to me
Because I'm telling you the truth
I mean this I'm okay!
(Trust Me)

I'm not okay
I'm not okay
Well, I'm not okay
I'm not o-f**king-kay
I'm not okay
I'm not okay
(Okay)

----------------------------------------------------------------------------



|:| / - slide
|:| * - harmonic (natural)
|:| h - hammer on
|:| p - pull off
|:| ~ - vibrato
|:| . - palm mute

  [1] - Guitar one
  [2] - Guitar two


---------------------------------|---------|---------------------------------
---------------------------------|- Intro -|---------------------------------
---------------------------------|---------|---------------------------------


>> Tone

	Guitar [1] - clean, with sustain
	Guitar [2] - clean, with sustain

[1]
e|:|---------------------------|--|
B|:|---------------------------|--|
G|:|-7-----7-----6-----6-------|--|
D|:|-7-----7-----7-----7-------|--|
A|:|---------------------------|x2|
E|:|---7-7---7-7---7-7---7-7-7-|--|
 | |                           |
[2]|                           |
e|:|---------------------------|--|
B|:|---------------------7-----|--|
G|:|-----------------7-------7-|--|
D|:|---------------9---9---9---|--|
A|:|---------------------------|x2|
E|:|---------------------------|--|

[1]
e|:|---------------------------|----------|
B|:|---------------------------|----------|
G|:|-7-----7-----6-----6-------|-7-777-6--|
D|:|-7-----7-----7-----7-------|-7-777-7--|
A|:|---------------------------|----------|
E|:|---0-0---0-0---0-0---0-0---|----------|
 | |                           |
[2]|                           |
e|:|---------------------------|----------|
B|:|---------------------7-----|-12*------|
G|:|-----------------7-------7-|----------|
D|:|---------------9---9---9---|------7*--|
A|:|---------------------------|----------|
E|:|---------------------------|----------|



---------------------------------|---------|---------------------------------
---------------------------------|-Verse 1-|---------------------------------
---------------------------------|---------|---------------------------------



[1]
e|:|-------------------------|--|
B|:|-------------------------|--|
G|:|-7-----7-----6-----------|--|
D|:|-7-----7-----7-----------|--|
A|:|-------------------------|x2|
E|:|---7-7---7-7---7-7-7-7-7-|--|
 | |                         |
[2]|                         |
e|:|-------------------------|-------------------------|
B|:|-------------------------|-------------------------|
G|:|-9h11--------------------|-9h11--------------------|
D|:|------12h14-11h12-11/9~--|------12h14-11h12-11/14~-|
A|:|-------------------------|-------------------------|
E|:|-------------------------|-------------------------|
    " I never..."              "...said I'd lie in wait..."

[1]
e|:|-----------------------------------|--|        
B|:|-----------------------------------|--|       
G|:|-9-----9-----7---------------------|--|      
D|:|-7-----7-----7---------------------|--|      
A|:|-----------------------------------|x2|        
E|:|---0-0---0-0----0-0-0-0-0-0--------|--|        
 | |                                   | 
[2]|                                   |
e|:|-----------------------------------|--------------------------|
B|:|-----------------------------------|--------------------------|
G|:|-11-------12-11----14--------------|-11-----------------------|
D|:|----14-12-------12----12-12h13-14~-|----12-12p11h12-12h14-12~-|
A|:|-----------------------------------|--------------------------|
E|:|-----------------------------------|--------------------------|
                                         "...If i died, we'd be together..."

[1]
e|:|------------------------|--|------------------------|--|
B|:|------------------------|--|------------------------|--|
G|:|-7-----7-----6----------|--|-9-----9-----7----------|--|
D|:|-7-----7-----7----------|--|-7-----7-----7----------|--|
A|:|------------------------|x2|------------------------|x2|
E|:|---7-7---7-7---7-7-7-7-7|--|---0-0---0-0----0-0-0-0-|--|
 | |                        |  |  
[2]|                        |  |
e|:|------------------------|--|------------------------------------------|
B|:|------------------------|--|------------------------------------------|
G|:|-9h11----12----11----9~-|--|-/14-12-11-----/14p12-11-11h12p11---------|
D|:|------12----12----12----|x2|-----------12~--------------------12-/14~-|
A|:|------------------------|--|------------------------------------------|
E|:|------------------------|--|------------------------------------------|
    "... I can't always..."      "...But she could try..."


<< Tone end



--------------------------------|------------|-------------------------------
--------------------------------|-Pre Chorus-|-------------------------------
--------------------------------|------------|-------------------------------



>> Tone Change

	Guitar [1] - Distortion 
	Guitar [2] - Distortion

[1]
e|:|-----------------|
B|:|-----------------|
G|:|-----------------|
D|:|-5-5-5-5-5-5-5-5-|
A|:|-5-5-5-5-5-5-5-5-|
E|:|-3-3-3-3-3-3-3-3-|
 | |  . . . . . . . . 
[2]|
e|:|-----------------|
B|:|-----------------|
G|:|-----------------|
D|:|-/           /---|
A|:|-/ Pickslide /---|
E|:|-/           /---|



---------------------------------|----------|--------------------------------
---------------------------------|- Chorus -|--------------------------------
---------------------------------|----------|--------------------------------



[1]
e|:|--------------------|-------------------|
B|:|--------------------|-------------------|
G|:|---------------4444-|---------22222222--|
D|:|-55555555-7777-5555-|-4444444444444444--|
A|:|-55555555-5555-5555-|-4444444444444444--|
E|:|-33333333-3333-3333-|-2222222222222222--|
 | |                    |
[2]|--------------------|-------------------|
e|:|--------------------|-------------------|
B|:|--------------------|-------------------|
G|:|-12121212/1414/1616-|-12121212/14/12/11-|
D|:|--------------------|-------------------|
A|:|-10101010/1212/1414-|-10101010/12/10/9 -|
E|:|--------------------|-------------------|
    
    "At the end of..."    "... Or the last..."

[1]
e|:|----------------|------------------|
B|:|----------------|------------------|
G|:|-4444444444-x-4-|-2222222222-x-2---|
D|:|-4444444444-x-4-|-2222222222-x-2---|
A|:|-2222222222-x-2-|-0000000000-x-0---|
E|:|----------------|------------------|
 | |
[2]|
e|:|---------------|--|----------------|
B|:|---------------|--|----------------|
G|:|-11/12/11/9/11-|--|-11/12/11/9-x-9-|
D|:|---------------|--|------------x---|
A|:|-9 /10/9 /7/9 -|x3|-9 /10/9 /7-x-7-|
E|:|---------------|--|----------------|
  
    "...never coming home ...never coming..."

[1]
e|:|---------------|----------------|
B|:|---------------|----------------|
G|:|---------------|----------------|
D|:|-444444-555555-|-44444445555555-|
A|:|-555555-555555-|-44444445555555-|
E|:|-222222-333333-|-22222223333333-|
 | |               | 
[2]|               |
e|:|---------------|----------------|
B|:|---------------|----------------|
G|:|-666666/777777-|-9999/11111111--|
D|:|---------------|----------------|
A|:|-444444/555555-|-7777/9 9 9 9 --|
E|:|---------------|----------------|

    "...and all the things that..."

<< Tone End



---------------------------------|---------|---------------------------------
---------------------------------|-Verse 2-|---------------------------------
---------------------------------|---------|---------------------------------



>> Tone Change

	Guitar [1] - clean, with sustain
	Guitar [2] - clean, with sustain

[1]
e|:|-------------------------|--|
B|:|-------------------------|--|
G|:|-7-----7-----6-----------|--|
D|:|-7-----7-----7-----------|--|
A|:|-------------------------|x2|
E|:|---7-7---7-7---7-7-7-7-7-|--|
 | |                        
[2]|
e|:|----------------------------|
B|:|----------------------------|
G|:|-14~-14-12-11~---14~-12-11~-|
D|:|----------------------------|
A|:|----------------------------|
E|:|----------------------------|
    "Ever, Get the feeling..."
[1]
e|:|------------------------------|--|        
B|:|------------------------------|--|       
G|:|-9-----9-----7----------------|--|      
D|:|-7-----7-----7----------------|--|      
A|:|------------------------------|x2|        
E|:|---0-0---0-0----0-0-0-0-0-0---|--|   
 | |
[2]|
e|:|---------------------------------|
B|:|---------------------------------|
G|:|-9-----------9-------------------|
D|:|---12-11-9~----12p11-12p11-9-----|
A|:|-----------------------------12~-|
E|:|---------------------------------|

    "...You're never, all alone..."
[1]
e|:|-------------------------|--|
B|:|-------------------------|--|
G|:|-7-----7-----6-----------|--|
D|:|-7-----7-----7-----------|--|
A|:|-------------------------|x2|
E|:|---7-7---7-7---7-7-7-7-7-|--|
 | |                        
[2]|
e|:|---------------------------------------|--|
B|:|---------------------------------------|--|
G|:|-9h11----------------11-11-11-11-11-11-|--|
D|:|------12h14-11h12-11-11-11-11-11-11-11-|x2|
A|:|---------------------------------------|--|
E|:|---------------------------------------|--|

    "... remember now..."

[1]
e|:|-----------------------------------|--|        
B|:|-----------------------------------|--|       
G|:|-9-----9-----7---------------------|--|      
D|:|-7-----7-----7---------------------|--|      
A|:|-----------------------------------|x2|        
E|:|---0-0---0-0----0-0-0-0-0-0--------|--|        
 | |                                   | 
[2]|                                   |
e|:|-----------------------------------|--------------------------|
B|:|-----------------------------------|--------------------------|
G|:|-11-------12-11----14--------------|-11-----------------------|
D|:|----14-12-------12----12-12h13-14~-|----12-12p11h12-12h14-12~-|
A|:|-----------------------------------|--------------------------|
E|:|-----------------------------------|--------------------------|

    "...She dies...."

<< Tone End



--------------------------------|------------|-------------------------------
--------------------------------|-Pre Chorus-|-------------------------------
--------------------------------|------------|-------------------------------



>> Tone Change

	Guitar [1] - Distortion 
	Guitar [2] - Distortion

[1]
e|:|-----------------|
B|:|-----------------|
G|:|-----------------|
D|:|-5-5-5-5-5-5-5-5-|
A|:|-5-5-5-5-5-5-5-5-|
E|:|-3-3-3-3-3-3-3-3-|
     . . . . . . . . 



---------------------------------|----------|--------------------------------
---------------------------------|- Chorus -|--------------------------------
---------------------------------|----------|--------------------------------



[1]
e|:|--------------------|-------------------|
B|:|--------------------|-------------------|
G|:|---------------4444-|---------22222222--|
D|:|-55555555-7777-5555-|-4444444444444444--|
A|:|-55555555-5555-5555-|-4444444444444444--|
E|:|-33333333-3333-3333-|-2222222222222222--|
 | |                    |
[2]|--------------------|-------------------|
e|:|--------------------|-------------------|
B|:|--------------------|-------------------|
G|:|-12121212/1414/1616-|-12121212/14/12/11-|
D|:|--------------------|-------------------|
A|:|-10101010/1212/1414-|-10101010/12/10/9 -|
E|:|--------------------|-------------------|
    
    "At the end of..."    "... Or the last..."

[1]
e|:|----------------|------------------|
B|:|----------------|------------------|
G|:|-4444444444-x-4-|-2222222222-x-2---|
D|:|-4444444444-x-4-|-2222222222-x-2---|
A|:|-2222222222-x-2-|-0000000000-x-0---|
E|:|----------------|------------------|
 | |
[2]|
e|:|---------------|--|----------------|
B|:|---------------|--|----------------|
G|:|-11/12/11/9/11-|--|-11/12/11/9-x-9-|
D|:|---------------|--|------------x---|
A|:|-9 /10/9 /7/9 -|x3|-9 /10/9 /7-x-7-|
E|:|---------------|--|----------------|
  
    "...never coming home ...never coming..."

[1]
e|:|---------------|----------------|
B|:|---------------|----------------|
G|:|---------------|----------------|
D|:|-444444-555555-|-44444445555555-|
A|:|-555555-555555-|-44444445555555-|
E|:|-222222-333333-|-22222223333333-|
 | |               | 
[2]|               |
e|:|---------------|----------------|
B|:|---------------|----------------|
G|:|-666666/777777-|-9999/11111111--|
D|:|---------------|----------------|
A|:|-444444/555555-|-7777/9 9 9 9 --|
E|:|---------------|----------------|

    "...and all the things that..."

[1]
e|:|----------------|------------------|
B|:|----------------|------------------|
G|:|-4444444444-x-4-|-2222222222-x-2---|
D|:|-4444444444-x-4-|-2222222222-x-2---|
A|:|-2222222222-x-2-|-0000000000-x-0---|
E|:|----------------|------------------|
 | |
[2]|
e|:|---------------|--|----------------|
B|:|---------------|--|----------------|
G|:|-11/12/11/9/11-|--|-11/12/11/9-x-9-|
D|:|---------------|--|------------x---|
A|:|-9 /10/9 /7/9 -|x3|-9 /10/9 /7-x-7-|
E|:|---------------|--|----------------|
  
    "...never coming home ...never coming..."

[1]
e|:|---------------|----------------|
B|:|---------------|----------------|
G|:|---------------|----------------|
D|:|-444444-555555-|-44444445555555-|
A|:|-555555-555555-|-44444445555555-|
E|:|-222222-333333-|-22222223333333-|
 | |               | 
[2]|               |
e|:|---------------|----------------|
B|:|---------------|----------------|
G|:|-666666/777777-|-9999/11111111--|
D|:|---------------|----------------|
A|:|-444444/555555-|-7777/9 9 9 9 --|
E|:|---------------|----------------|

    "...and all the wounds that..."

<< Tone End



---------------------------------|----------|--------------------------------
---------------------------------|- Bridge -|--------------------------------
---------------------------------|----------|--------------------------------



>> Tone Change

	Guitar [1] - clean
	Guitar [2] - clean

[1]
e|:|------0-----------0---------0---------0---|
B|:|------3-----------3---------3---------3---|
G|:|------------------------------------------|
D|:|-4-----------4---------4---------4--------|
A|:|---2----2----------------4----4-----------|
E|:|---------------3----3--------------3----3-|

      "... If I fall..."
[1]
e|:|------0-----------0---------0---------0---|
B|:|------3-----------3---------3---------3---|
G|:|------------------------------------------|
D|:|-4-----------4---------4---------4--------|
A|:|---2----2----------------4----4-----------|
E|:|---------------3----3--------------3----3-|
[2]|
e|:|--------------9--------------------|
B|:|-----7------8---8------------------|
G|:|---7---7--9---------9---12-11-9----|
D|:|-9----------------9---9---------11-|
A|:|-----------------------------------|
E|:|-----------------------------------|

     "...If I fall... down..."

<< Tone End



---------------------------------|--------|----------------------------------
---------------------------------|- Solo -|----------------------------------
---------------------------------|--------|----------------------------------



>> Tone Change

	Guitar [1] - Distortion 
	Guitar [2] - Distortion


[1]
e|:|---------------------------------------------------------------------|--|
B|:|---------------------------------------------------------------------|--|
G|:|-4444444444444444------------------6666666666666666------------------|--|
D|:|-4444444444444444-5555555555555555-6666666666666666-4444444444444444-|--|
A|:|-2222222222222222-5555555555555555-4444444444444444-4444444444444444-|x2|
E|:|------------------3333333333333333------------------2222222222222222-|--|
 | |
[2]|
e|:|--------------------------------------------------------/
B|:|---------7-------------8------------7-------------------/
G|:|---7---7---7----7---7----7----7---7---7h9p7/6~-6h7p6----/
D|:|-9---9--------9---9---------9---9--------------------7~-/
A|:|--------------------------------------------------------/
E|:|--------------------------------------------------------/
   |
   |-----------------------------------------------/
   |---------7-------------8------------7----------/
   |---7---7---7----7---7----7----7---7---7-7h9~---/
   |-9---9--------9---9---------9---9--------------/
   |-----------------------------------------------/
   |-----------------------------------------------/
   |
   |-------------------------------------------------------------------|
   |-------------------------------------------------------------------|
   |-4444/66/77/9999/7777/66666666-/4/2--4444/66/77/9999/7777/66666666-|
   |-------------------------------------------------------------------|
   |-2222/44/55/7777/5555/44444444-/2/0--2222/44/55/7777/5555/44444444-|
   |-------------------------------------------------------------------|



---------------------------------|---------|---------------------------------
---------------------------------|- Outro -|---------------------------------
---------------------------------|---------|---------------------------------



[1]
e|:|-----------------|
B|:|-----------------|
G|:|-----------------|
D|:|-5-5-5-5-5-5-5-5-|
A|:|-5-5-5-5-5-5-5-5-|
E|:|-3-3-3-3-3-3-3-3-|
     . . . . . . . .

[1]
e|:|--------------------|-------------------|
B|:|--------------------|-------------------|
G|:|---------------4444-|---------22222222--|
D|:|-55555555-7777-5555-|-4444444444444444--|
A|:|-55555555-5555-5555-|-4444444444444444--|
E|:|-33333333-3333-3333-|-2222222222222222--|
 | |                    |
[2]|--------------------|-------------------|
e|:|--------------------|-------------------|
B|:|--------------------|-------------------|
G|:|-12121212/1414/1616-|-12121212/14/12/11-|
D|:|--------------------|-------------------|
A|:|-10101010/1212/1414-|-10101010/12/10/9 -|
E|:|--------------------|-------------------|
    
    "At the end of..."    "... Or the last..."

[1]
e|:|----------------|------------------|
B|:|----------------|------------------|
G|:|-4444444444-x-4-|-2222222222-x-2---|
D|:|-4444444444-x-4-|-2222222222-x-2---|
A|:|-2222222222-x-2-|-0000000000-x-0---|
E|:|----------------|------------------|
 | |
[2]|
e|:|---------------|--|----------------|
B|:|---------------|--|----------------|
G|:|-11/12/11/9/11-|--|-11/12/11/9-x-9-|
D|:|---------------|--|------------x---|
A|:|-9 /10/9 /7/9 -|x3|-9 /10/9 /7-x-7-|
E|:|---------------|--|----------------|
  
    "...never coming home ...never coming..."

[1]
e|:|---------------|----------------|
B|:|---------------|----------------|
G|:|---------------|----------------|
D|:|-444444-555555-|-44444445555555-|
A|:|-555555-555555-|-44444445555555-|
E|:|-222222-333333-|-22222223333333-|
 | |               | 
[2]|               |
e|:|---------------|----------------|
B|:|---------------|----------------|
G|:|-666666/777777-|-9999/11111111--|
D|:|---------------|----------------|
A|:|-444444/555555-|-7777/9 9 9 9 --|
E|:|---------------|----------------|

    "...and all the things that..."

[1]
e|:|----------------|------------------|
B|:|----------------|------------------|
G|:|-4444444444-x-4-|-2222222222-x-2---|
D|:|-4444444444-x-4-|-2222222222-x-2---|
A|:|-2222222222-x-2-|-0000000000-x-0---|
E|:|----------------|------------------|
 | |
[2]|
e|:|---------------|--|----------------|
B|:|---------------|--|----------------|
G|:|-11/12/11/9/11-|--|-11/12/11/9-x-9-|
D|:|---------------|--|------------x---|
A|:|-9 /10/9 /7/9 -|x3|-9 /10/9 /7-x-7-|
E|:|---------------|--|----------------|
  
    "...never coming home ...never coming..."

[1]
e|:|---------------|----------------|
B|:|---------------|----------------|
G|:|---------------|----------------|
D|:|-444444-555555-|-44444445555555-|
A|:|-555555-555555-|-44444445555555-|
E|:|-222222-333333-|-22222223333333-|
 | |               | 
[2]|               |
e|:|---------------|----------------|
B|:|---------------|----------------|
G|:|-666666/777777-|-9999/11111111--|
D|:|---------------|----------------|
A|:|-444444/555555-|-7777/9 9 9 9 --|
E|:|---------------|----------------|

    "...For all the ghosts that..."
----------------------------------------------------------------------------


Tuning: Standard (E A D G B E)



E|----------------------------------------------------------------||
B|----------------------------------------------------------------||
G|----7-------------5----------3----------------------------------||
D|----7--x12 or so--5--(same)--3-twice as long -------------------||
A|----5-------------3----------1----------------------------------||
E|----------------------------------------------------------------||
repeat x4



E|------------------------------------------------------------------||
B|------------------------------------------------------------------||
G|----3/--5---------------7------------6----------3-----------------||
D|----3/--5---a few times 7--x4-3------6-x4-5-----3-x8-5-------7----||
A|----1/--3---------------5-----3--x2--4----5--x2-1----5-x8----7----||
E|------------------------------1-----------3----------3-------5----||
                                                        end on

E|----------------------------------------------------------------||
B|--pm-::::----::::---::------------------------------------------||
G|-----7777-7--7777-7-77-7----------------------------------------||
D|-----7777-7--7777-7-77-7----------------------------------------||
A|-----5555-5--5555-5-55-5----------------------------------------||
E|----------------------------------------------------------------||

E|----------------------------------------------------------------||
B|--pm-::::----::::---::------------------------------------------||
G|-----5555-5--5555-5-55-5----------------------------------------||
D|-----5555-5--5555-5-55-5----------------------------------------||
A|-----3333-3--3333-3-33-3----------------------------------------||
E|----------------------------------------------------------------||

E|----------------------------------------------------------------||
B|--pm-::::----::::---::------------------------------------------||
G|-----3333-3--3333-3-33-3----------------------------------------||
D|-----3333-3--3333-3-33-3-----x2---------------------------------||
A|-----1111-1--1111-1-11-1----------------------------------------||
E|----------------------------------------------------------------||
repeat whole section x2



E|----------------------------------------------------------------||
B|----------------------------------------------------------------||
G|-----7--------9------10-------10-----12-----7-------------------||
D|--------x12-----x12-----x24------x12----x12---x12---------------||
A|-----5--------7------8--------8------10-----5-------------------||
E|----------------------------------------------------------------||
this the octave section


E|----------------------------------------------------------------||
B|----------------------------------------------------------------||
G|----7-----------6---------3-------------------------------------||
D|----7-x4--3-----6-x4-5----3-x8-5--------------------------------||
A|----5-----3-x2--4----5-x2-1----5-x8-----------------------------||
E|----------1----------3---------3--------------------------------||
repeat whole thing 4 times


E|----------------------------------------------------------------||
B|----------------------------------------------------------------||
G|--pm--::::::::--::::::::--::::::::::::::::----------------------||
D|------55555555--77777777--8888888888888888----------------------||
A|------55555555--77777777--8888888888888888----------------------||
E|------33333333--55555555--6666666666666666----------------------||

E|----------------------------------------------------------------||
B|----------------------------------------------------------------||
G|----7-----------6---------3-------------------------------------||
D|----7-x4--3-----6-x4-5----3-x8-5--------------------------------||
A|----5-----3-x2--4----5-x2-1----5-x8-----------------------------||
E|----------1----------3---------3--------------------------------||
repeat many times until the end of the song and thats it for the song
theres one part missing but its on piano ill figure it out and put it 
on this.

----------------------------------------------------------------------------

Tuning: e B Gb D A E
            ^^
        Down 1/2 step


Intro/Verse 1

e |-----------2----------------2----------------2----------------2------|\\
B |-------2-------2--------2-------2--------2-------2--------2-------2--| \\
Gb|-----0---0---0--------0---0---0--------0---0---0--------0---0---0----| ||
D |-------------------------------------0----------------0--------------| ||
A |---------------------------------------------------------------------| ||
E |---2----------------2------------------------------------------------| ||
                                                                        (2x)
e |-----------2----------------2----------------2----------------2------| ||
B |-------2-------2--------2-------2--------2-------2--------2-------2--| ||
Gb|-----0---0---0--------0---0---0--------0---0---0--------0---0---0----| ||
D |---------------------------------------------------------------------| ||
A |---4----------------4----------------0-------------------------------| //
E |------------------------------------------------------4--------------|//


Verse 2

e |---------------------------------------------------------------------|\\
B |-----------2----------------2----------------0----------------0------| \\
Gb|-------3-----3----------3-----3----------2-------2--------2-------2--| ||
D |-----2---2-----2------2---2-----2------2---2---2--------2---2---2----| ||
A |---0----------------0------------------------------------------------| ||
E |-------------------------------------0----------------0--------------| ||
                                                                        (2x)
e |---------------------------------------------------------------------| ||
B |-----------2----------------2----------------2----------------2------| ||
Gb|-------3-----3----------3-----3----------5-----5----------5-----5----| ||
D |-----4---4-----4------4---4-----4------3---3-----3------3---3-----3--| ||
A |-------------------------------------4----------------4--------------| //
E |---2----------------2------------------------------------------------|//


Ending:

e |---0~---2~---| Broken chord,
B |---2~--------| starting from
Gb|---5~--------| A-string.
D |---3~--------|
A |---4~--------|
E |-------------|


There are some note and pattern variations on the repeats of each verse.
Ex: The first (4) of the A-string on the second line of the first verse becomes (0h4) in its repeat.

----------------------------------------------------------------------------

Tuning:normal EADGBe 

this is only the intro
this has the lead and rhythm.  lead is top line.  rhythm is bottom line.

e|-------------------------------------------------------------------------|
B|-------------------------------------------------------------------------|
G|4------------------------------------------------------------------------|
D|4-------------------------------2-2-2---4---5---4-4-2---0---4------------|
A|2-2-5-2-------5/7-----5-4-2-----2-2-------------4-4----------------------|
E|--------3-2-3-----2-3-------3-2-0-0---0---0-----2-2---2---2--------------|
 |  . . . . . .     . . . . . . . . .   .   .     . .   .   .              |
e|-------------------------------------------------------------------------|
B|-------------------------------------------------------------------------|
G|4------------------------------------------------------------------------|
D|4-------------------------------2-2-------------4-4----------------------|
A|2-------------------------------2-2-------------4-4----------------------|
E|--------------------------------0-0-------------2-2----------------------|



e|-------------------------------------------------------------------------|
B|-------------------------------------------------------------------------|
G|4------------------------------------------------------------------------|
D|4-------------4/7---5---4---2p0-2-2-2---0---4---4-4---4-4----------------|
A|2-2-5-2-------------------------2-2-------------4-4---4-4----------------|
E|--------3-2-3-----0---0---0-----0-0---0---0-----2-2---2-2----------------|
 |  . . . . . .     .   .   .     . .   .   .     . .   . .                |
e|-------------------------------------------------------------------------|
B|-------------------------------------------------------------------------|
G|4------------------------------------------------------------------------|
D|4-------------------------------2-2-------------4-4---4-4----------------|
A|2-------------------------------2-2-------------4-4---4-4----------------|
E|--------------------------------0-0-------------2-2---2-2----------------|



e|-------------------------------------------------------------------------|
B|-------------------------------------------------------------------------|
G|4------------------------------------------------------------------------|
D|4-------------------------------2-2-2---4---5---4-4-2---0---4------------|
A|2-2-5-2-------5/7-----5-4-2-----2-2-------------4-4----------------------|
E|--------3-2-3-----2-3-------3-2-0-0---0---0-----2-2---2---2--------------|
 |  . . . . . .     . . . . . . . . .   .   .     . .   .   .              |
e|-------------------------------------------------------------------------|
B|-------------------------------------------------------------------------|
G|7-7-7-7-7-7-7-7-7-7-7-7-6-6-6-6-7-7-7-7-7-7-7-7-9-9-9-9-11111111---------|
D|9-9-9-9-9-9-9-9-9-9-9-9-9-9-9-9-9-9-9-9-9-9-9-9-9-9-9-9-9-9-9-9----------|
A|-------------------------------------------------------------------------|
E|-------------------------------------------------------------------------|



e|-------------------------------------------------------------------------|
B|-------------------------------------------------------------------------|
G|4-----------------------------------------------------------^------------|
D|4-------------4/7---5---4---2p0-2-2-2---0---4---4-4-2---0---4ph\---------|
A|2-2-5-2-------------------------2-2-------------4-4----------------------|
E|--------3-2-3-----0---0---0-----0-0---0---0-----2-2---2---2--------------|
 |  . . . . . .     .   .   .     . .   .   .     . .   .   .              |
e|-------------------------------------------------------------------------|
B|-------------------------------------------------------------------------|
G|7-7-7-7-7-7-7-7-7-7-7-7-6-6-6-6-12121212111111117-7-7-7-6-6-6-6----------|
D|9-9-9-9-9-9-9-9-9-9-9-9-9-9-9-9-9-9-9-9-9-9-9-9-9-9-9-9-9-9-9-9----------|
A|-------------------------------------------------------------------------|
E|-------------------------------------------------------------------------|


| .  palm-mute
| ^  quick half bend
| ph pinch harmonic
| /  slide up
| \  slide down
| h  hammer-on
| p  pull-off
| ~  vibrato
| +  harmonic
| x  Mute note
============================================================================

|:| . - Palm mute
|:| h - Hammer on
|:| p - pull off
|:| * - harmonic (natural)
|:| / - slide
|:| x - mute string
|:| ~ - vibrato
|:| ^(-) - bend (to fret)
[1] - Guitar one
[2] - Guitar two


---------
- Intro -
---------


>>> Western/cowboy style intro. acoustics all round! >>>

[1]     
   e|:|----------------------------------------------------------|
   B|:|----------------------------------------------------------|
   G|:|-10-12-12h14-12-10-9-9h10-9~--10-12-12h14-12-10-------10/-|
   D|:|------------------------------------------------10h12-----|
   A|:|----------------------------------------------------------|
   E|:|----------------------------------------------------------|
    | |
[2] | | Dm		       A Am                  A
   e|:|-1----------------------0-0-------------------0-----------|
   B|:|-3----------------------2-1-------------------2-----------|
   G|:|-2----------------------2-2-------------------2-----------|
   D|:|-0----------------------2-2-------------------2-----------|
   A|:|----------------------------------------------0-----------|
   E|:|----------------------------------------------------------|

>>> Electric >>>

[1]
   e|:|----------------------|
   B|:|----------------------|
   G|:|----------------------|
   D|:|-///-----------///----|
   A|:|-///-Pickslide-///----|
   E|:|-///-----------///----|
    | |
[2] | |
   e|:|----------------------|
   B|:|----------------------|
   G|:|----------------------|
   D|:|-7-9/10/9-/3333-7/8/7-|
   A|:|-----------3333-------|
   E|:|-5-7/8-/7-/1111-5/6/5-|


-------------
- Verse One -
-------------

      "... wait until it fades to black..."
[1]
e|:|---------------------------------------------------|-------------------|
B|:|---------------------------------------------------|-------------------|
G|:|----------3-2----3-2-------3-2----3-2-------3-2----|-------------------|
D|:|---55xxxx-5-5-xx-5-5-xxxxx-5-5-xx-5-5-xxxxx-5-5-xx-|-5^(6)-3-2^(3)-----|
A|:|-5555xxxx-5-5-xx-5-5-xxxxx-5-5-xx-5-5-xxxxx-5-5-xx-|---------------4~--|
E|:|-3333xxxx-----xx-----xxxxx-----xx-----xxxxx-----xx-|-------------------|
 | | ....                                              |
 | |                                                   |                
[2]|                                                   |
e|:|---------------------------------------------------|-------------------|
B|:|------10~----------------------------6~------------|---------------10~-|
G|:|------14-----------------------------10------------|-10^(12)-12-13-----|
D|:|---------------------------------------------------|-------------------|
A|:|---------------------------------------------------|-------------------|
E|:|---------------------------------------------------|-------------------|


      "... grab your six gun from your back..."
[1]
e|:|--------------------------------------------------------|-----------|
B|:|----3----3----3----3----3----3----3----3----------------|-----------|
G|:|----3----3----3----3----3----3----3----3----------------|-----------|
D|:|----5----5----5----5----5----5----5----5--33333333-7777-|-7---------|
A|:|----5----5----5----5----5----5----5----5--33333333-7777-|-7---------|
E|:|-33---33---33---33---33---33---33---33----11111111-5555-|-5---------|
 | |  ..   ..   ..   ..   ..   ..   ..   ..                 |
 | |                                                        |
[2]|                                                        |
e|:|--------------------------------------------------------|-----------|
B|:|--------------------------------------------------------|-----------|
G|:|----7----7----7----7----7----7----7----7----------------|-----------|
D|:|-------------------------------------------/---------/--|-5~-6^(8)~-|
A|:|----5----5----5----5----5----5----5----5---/Pickslide/--|-----------|
E|:|-------------------------------------------/---------/--|-----------|


      "... shotgun sinners..."
[1]
e|:|------------------------------------|-------------------|
B|:|------------------------------------|-------------------|
G|:|-33333333-66666666-77777777---------|-33333333-22222222-|
D|:|-33333333-66666666-77777777-33333333|-33333333-22222222-|
A|:|-11111111-44444444-55555555-33333333|-11111111-00000000-|
E|:|----------------------------11111111|-------------------|
 | |                                    |
[2]|                                    |
e|:|------------------------------------|-------------------|
B|:|------------------------------------|-------------------|
G|:|-----------------------------/12-10-|-12-10-9-10-6-7-6/-|
D|:|------------------------------------|-------------------|
A|:|-----------------------------/10-8--|-10-8--7-8--4-5-4/-|
E|:|------------------------------------|-------------------|
 

      "... after all is said and done..."
[1]
e|:|---------------------------------------------------|-------------------|
B|:|---------------------------------------------------|-------------------|
G|:|----------3-2----3-2-------3-2----3-2-------3-2----|-------------------|
D|:|-----xxxx-5-5-xx-5-5-xxxxx-5-5-xx-5-5-xxxxx-5-5-xx-|-5^(6)-3-2^(3)-----|
A|:|-5555xxxx-5-5-xx-5-5-xxxxx-5-5-xx-5-5-xxxxx-5-5-xx-|---------------4~--|
E|:|-3333xxxx-----xx-----xxxxx-----xx-----xxxxx-----xx-|-------------------|
 | | ....                                              |                 
 | |                                                   |                
[2]|                                                   |
e|:|---------------------------------------------------|-------------------|
B|:|---------------------------------------------------|-------------------|
G|:|------------14-----------14-----------14-----------|------------12-14~-|
D|:|---------------14-15-14~----14-15-14-----14-15-14~-|-14^(15)-15--------|
A|:|---------------------------------------------------|-------------------|
E|:|---------------------------------------------------|-------------------|
              Use Alternate picking for guitar [2] here


       "... the angels just cut out her tongue..."
[1]
e|:|--------------------------------------------------------|-----------|
B|:|----3----3----3----3----3----3----3----3----------------|-----------|
G|:|----3----3----3----3----3----3----3----3----------------|-----------|
D|:|----5----5----5----5----5----5----5----5--33333333-7777-|-7---------|
A|:|----5----5----5----5----5----5----5----5--33333333-7777-|-7---------|
E|:|-33---33---33---33---33---33---33---33----11111111-5555-|-5---------|
 | | ..   ..   ..   ..   ..   ..   ..   ..                  |
 | |                                                        |
[2]|                                                        |
e|:|--------------------------------------------------------|-----------|
B|:|--------------------------------------------------------|-----------|
G|:|----7----7----7----7----7----7----7----7----------------|-----------|
D|:|-------------------------------------------/---------/--|-5~-6^(8)~-|
A|:|----5----5----5----5----5----5----5----5---/Pickslide/--|-----------|
E|:|-------------------------------------------/---------/--|-----------|

--------------
- Pre Chorus -
--------------


       "... mass convulsions..."
[1]
e|:|------------------------------------|-------------------|
B|:|------------------------------------|-------------------|
G|:|-33333333-66666666-77777777---------|-33333333-22222222-|
D|:|-33333333-66666666-77777777-33333333|-33333333-22222222-|
A|:|-11111111-44444444-55555555-33333333|-11111111-00000000-|
E|:|----------------------------11111111|-------------------|
 | |                                    |
[2]|                                    |
e|:|------------------------------------|-------------------|
B|:|------------------------------------|-------------------|
G|:|-----------------------------/12-10-|-12-10-9-10-6-7-6/-|
D|:|------------------------------------|-------------------|
A|:|-----------------------------/10-8--|-10-8--7-8--4-5-4/-|
E|:|------------------------------------|-------------------|


----------
- Chorus -
----------


      "... dont stop, if i fall..."
[1]
e|:|-----------------------------|-----------------------------------------|
B|:|-----------------------------|-----------------------------------------|
G|:|77777/1010101010-------------|77777/1010101010-121212121212121212121212|
D|:|77777/1010101010-888888888888|77777/1010101010-121212121212121212121212|
A|:|55555/8-8-8-8-8--888888888888|55555/8-8-8-8-8--101010101010101010101010|
E|:|-----------------666666666666|-----------------------------------------|
 | |                             |x 2
[2]|                             |
e|:|-----------------------------/-----------------------------------------|F
B|:|-----------------------------/-----------------------------------------|I
G|:|77777/1010101010-------------/77777/1010101010-12121212/1010/999999----|R
D|:|77777/1010101010-888888888888/77777/1010101010-------------------------|S
A|:|55555/8-8-8-8-8--888888888888/55555/8-8-8-8-8--10101010/8-8-/777777----|T
E|:|-----------------666666666666/-----------------------------------------|.
                                 /
                                 /-----------------------------------------|S
                                 /-----------------------------------------|E
                                 /777777/10101010-12121212/1010/1414141414-|C
                                 /777777/10101010--------------------------|O
                                 /555555/8-8-8-8--10101010/8-8-/1212121212-|N
                                 /-----------------------------------------|D

-------------
- Verse two -
-------------

      
[1]
e|:|------------------------------------------------------------------------|
B|:|-15-15-15--16^(17)--18^-18^-18^-18^-18^-18^-18^--18~-18~-18~-18~-18~----|
G|:|------------------------------------------------------------------------|
D|:|------------------------------------------------------------------------|
A|:|------------------------------------------------------------------------|
E|:|------------------------------------------------------------------------|
[2]|
e|:|------------------------------------------------------------------------|
B|:|------------------------------------------------------------------------|
G|:|------------------------------------------------------------------------|
D|:|12121212-14-15-14-12-11-12121212-14-15-14-12-11-12121212-14-15-14-12-11-|
A|:|------------------------------------------------------------------------|
E|:|------------------------------------------------------------------------|
        Use alternate picking for guitar [2]


Harmonised guitar riff
      
       "... She wont stop me put it down..."
[1]
e|:|-----------------------------------------------------------------------|
B|:|-----------------------------------------------------------------------|
G|:|-----------------------------------------------------------------------|
D|:|-----------------------------------------------------------------------|
A|:|--5~--/5--3~-----------------------------------------------------------|
E|:|--------------6--5--3--5--5h6p5~--3--3h5p3/1--0--1--3--1~--1--0--0/5~--|
[2]|       
e|:|-----------------------------------------------------------------------|
B|:|-----------------------------------------------------------------------|
G|:|-----------------------------------------------------------------------|
D|:|--3~--/3--2~-----------------------------------------------------5/7~--|
A|:|--------------5--4--2--4--4h5p4~--2--2h4p2/5~-5~----5~-----5~----------|
E|:|-----------------------------------------------------------------------|


      "... She wont stop me put it down..."
[1]
e|:|-------------|----------------------|
B|:|-------------|----------------------|
G|:|-------------|----------------------|
D|:|-/---------/-|----------------------|
A|:|-/pickslide/-|----------------------|
E|:|-/---------/-|----------------------|
[2]|             |
e|:|-------------|----------------------|
B|:|-------------|----------------------|
G|:|-------------|-14/15/17/15/14/10/12-|
D|:|-------------|----------------------|
A|:|-------------|-12/13/15/13/12/-8/10-|
E|:|-------------|----------------------| x 2
                      x8/x4/x4/x2/x8/x4/x4

---------
- Outro -
---------

       "... dont stop if i fall..."
[1]
e|:|-----------------------------|-----------------------------------------|
B|:|-----------------------------|-----------------------------------------|
G|:|77777/1010101010-------------|77777/1010101010-121212121212121212121212|
D|:|77777/1010101010-888888888888|77777/1010101010-121212121212121212121212|
A|:|55555/8-8-8-8-8--888888888888|55555/8-8-8-8-8--101010101010101010101010|
E|:|-----------------666666666666|-----------------------------------------|
 | |                             | x 4
[2]|                             |
e|:|-----------------------------/----------------------------------------|F
B|:|-----------------------------/----------------------------------------|I
G|:|-----------------------------/77777/1010101010-12121212/1010/999999---|R 
D|:|-----------------888888888888/77777/1010101010------------------------|S
A|:|-----------------888888888888/55555/8-8-8-8-8--10101010/8-8-/777777---|T
E|:|-----------------666666666666/----------------------------------------|.
 / /Second time [2] is not silent/ x 2                                              
e|:|-----------------------------/----------------------------------------|S
B|:|-----------------------------/----------------------------------------|E
G|:|77777/1010101010-------------/777777/10101010-12121212/1010/1414141414|C
D|:|77777/1010101010-888888888888/777777/10101010-------------------------|O
A|:|55555/8-8-8-8-8--888888888888/555555/8-8-8-8--10101010/8-8-/1212121212|N
E|:|-----------------666666666666/----------------------------------------|D
                                    x 2

[1]
e|:|-----------------|------------|
B|:|-----------------|------------|
G|:|-12^-------------|-0----------|
D|:|-12^-------------|-0----------|
A|:|-10^-------------|-0----------|
E|:|-----------------|------------|
[2]|                 |   
e|:|-----------------|------------|
B|:|-----------------|-5*---------|
G|:|--9/16-12/18-14/-|----5*---3*-|
D|:|-----------------|----5*------|
A|:|--7/14-10/16-12/-|------------|
E|:|-----------------|------------|
----------------------------------------------------------------------------

Intro:

e|--------------------------------------------------------------------------|
B|--------------------------------------------------------------------------|
G|--6-6-6-6-6-6-6-6-6--6-6-6-6-8-9-8-6--9-9-9-8-8-8-8-8--6-6-8-6-5-5-5-5-5--|
D|--x-x-x-x-x-x-x-x-x--x-x-x-x-x-x-x-x--x-x-x-x-x-x-x-x--x-x-x-x-x-x-x-x-x--|
A|--4-4-4-4-4-4-4-4-4--x-x-x-x-x-x-x-x--x-x-x-x-x-x-x-x--x-x-x-x-x-x-x-x-x--|
E|---------------------5-5-5-5-5-5-5-5--7-7-7-7-7-7-7-7--4-4-4-4-4-4-4-4-4--|

e|--------------------------------------------------------------------------|
B|--------------------------------------------------------------------------|
G|--6-6-6-6-6-6-6-6-6--6-6-6-6-8-9-8-6--9-9-9-8-8-8-8-8---------------------|
D|--x-x-x-x-x-x-x-x-x--x-x-x-x-x-x-x-x--x-x-x-x-x-x-x-x--6-6-6-6-6-6-6-6-6--|
A|--4-4-4-4-4-4-4-4-4--x-x-x-x-x-x-x-x--x-x-x-x-x-x-x-x--6-6-6-6-6-6-6-6-6--|
E|---------------------5-5-5-5-5-5-5-5--7-7-7-7-7-7-7-7--4-4-4-4-4-4-4-4-4--|
                                                            (palm mute)
e|--------------------------------------------------------------------------|
B|--------------------------------------------------------------------------|
G|-9-9-9-9-9-9-9-9-9-8-9-9-9-9-9-9-9-9-9-11--13-13-13-13-13-13-13-13-13-11--|
D|-x-x-x-x-x-x-x-x-x-x-x-x-x-x-x-x-x-x-x--x---x--x--x--x--x--x--x--x--x--x--|
A|-7-7-7-7-7-7-7-7-7-6-7-7-7-7-7-7-7-7-7--9--11-11-11-11-11-11-11-11-11--9--|
E|--------------------------------------------------------------------------|

e|--------------------------------------------------------------------------|
B|--------------------------------------------------------------------------|
G|-9-9-9-9-9-9-11-11-11--8-8-8--6-6-6-6-6-6-6-6--9-9-9-13-13-13-13/14-13\---|
D|-x-x-x-x-x-x--x--x--x--x-x-x--x-x-x-x-x-x-x-x--x-x-x--x--x--x--x--x--x----|
A|-7-7-7-7-7-7--9--9--9--6-6-6--4-4-4-4-4-4-4-4--x-x-x-11-11-11-11/12-11\---|
E|-----------------------------------------------9-9-9----------------------|

Verse: play twice

e|--------------------------------------------------------------------------|
B|--------------------------------------------------------------------------|
G|-6-6-6-6-6-6-6-6-6-6------------------------------------------------------|
D|-6-6-6-6-6-6-6-6-6-6--7-7-7-7-7-7-7-7-7-7--9-9-9-9-9-9-9-9-9-9--6-6-6-6-6-|
A|-4-4-4-4-4-4-4-4-4-4--7-7-7-7-7-7-7-7-7-7--9-9-9-9-9-9-9-9-9-9--6-6-6-6-6-|
E|----------------------5-5-5-5-5-5-5-5-5-5--7-7-7-7-7-7-7-7-7-7--4-4-4-4-4-|
("do you remember back when we first met...")
e|--------------------------------------------------------------------------|
B|--------------------------------------------------------------------------|
G|--------------------------------------------------------------------------|
D|-6-6-6-6-6----------------------------------------------------------------|
A|-6-6-6-6-6----------------------------------------------------------------|
E|-4-4-4-4-4----------------------------------------------------------------|

Verse pt. 2:

e|--------------------------------------------------------------------------|
B|--------------------------------------------------------------------------|
G|--------------------------------------------------------------------------|
D|-7-7-7-7-7-7-7-7-7-7-7--9-9-9-9-9-9-9-9-9-9-9--6-6-6-6-6-6-6-6-6-6-6--7-7-|
A|-7-7-7-7-7-7-7-7-7-7-7--9-9-9-9-9-9-9-9-9-9-9--6-6-6-6-6-6-6-6-6-6-6--7-7-|
E|-5-5-5-5-5-5-5-5-5-5-5--7-7-7-7-7-7-7-7-7-7-7--4-4-4-4-4-4-4-4-4-4-4--5-5-|
("the damage you've inflicted...")
e|--------------------------------------------------------------------------|
B|--------------------------------------------------------------------------|
G|--------------------6-6-6-6-6-6-8-8-8-9-9-9-9--4-4-4-4-4-4-8-8-8-9-9-9-9--|
D|-7-7-7-7-7-7-7-7-7--x-x-x-x-x-x-x-x-x-x-x-x-x--x-x-x-x-x-x-x-x-x-x-x-x-x--|
A|-7-7-7-7-7-7-7-7-7--4-4-4-4-4-4-6-6-6-7-7-7-7--2-2-2-2-2-2-6-6-6-7-7-7-7--|
E|-5-5-5-5-5-5-5-5-5--------------------------------------------------------|
          ("I'm coming back from the dead...")
e|--------------------------------------------------------------------------|
B|--------------------------------------------------------------------------|
G|--------------------------------------------------------------------------|
D|-6-6-6-6-6-6-6-6-6-6-6-6--6-7-9-11-9/11\9--7--7-9-------------9-9-9-9-11--|
A|-6-6-6-6-6-6-6-6-6-6-6-6--x-x-x--x-x-x--x--7--7-9-------------x-x-x-x--x--|
E|-4-4-4-4-4-4-4-4-4-4-4-4--4-5-7--9-7/9\-7--5--5-7--pick slide-7-7-7-7--9--|
                      ("...the life you stole") ("we never got that far...")

e|--------------------------------------------------------------------------|
B|--------------------------------------------------------------------------|
G|--------------------------------------------------------------------------|
D|-11-11-9-11-13-13-13-13-13-14-13-11-9-9-9-9-9-9-9-9-9-9-11-11-11-11-11-11-|
A|--x--x-x--x--x--x--x--x--x--x--x--x-x-x-x-x-x-x-x-x-x-x--x--x--x--x--x--x-|
E|--9--9-7--9-11-11-11-11-11/12-11--9-7-7-7-7-7-7-7-7-7-7--9--9--9--9--9--9-|
                         ("bright lights that won't kill me now...")

e|--------------------------------------------------------------------------|
B|--------------------------------------------------------------------------|
G|--11-11-11-11-9-9-9-9-9-9-8-8-8-8-8-8-6-6-6-6-6-6-6-6---------------------|
D|--x--x--x--x--x-x-x-x-x-x-x-x-x-x-x-x-x-x-x-x-x-x-x-x--7-7-7-7-7-7-7-7-7--|
A|--9--9--9--9--7-7-7-7-7-7-6-6-6-6-6-6-4-4-4-4-4-4-4-4--7-7-7-7-7-7-7-7-7--|
E|-------------------------------------------------------5-5-5-5-5-5-5-5-5--|
                                                        ("just you and I..")

e|---------------------------------------------------------------------------|
B|---------------------------------------------------------------------------|
G|-----------------------------------6-6-6-6-6-6-6-6--9-9-9-13-13-13-13/14---|
D|-7-7-7-7--9-9-9-9-9-9-9-9-9-9-9-9--x-x-x-x-x-x-x-x--x-x-x--x--x--x--x--x---|
A|-7-7-7-7--9-9-9-9-9-9-9-9-9-9-9-9--4-4-4-4-4-4-4-4--x-x-x-11-11-11-11/12---|
E|-5-5-5-5--7-7-7-7-7-7-7-7-7-7-7-7-------------------9-9-9------------------|
      ("your starless eyes remain...")
e|--------------------------------------------------------------------------|
B|--------------------------------------------------------------------------|
G|-13\----------------------------------------------------------------------|
D|--x------repeat verse-----------------------------------------------------|
A|-11\----------------------------------------------------------------------|
E|--------------------------------------------------------------------------|


more on the way





| /  slide up
| \  slide down
| h  hammer-on
| p  pull-off
| ~  vibrato
| +  harmonic
| x  Mute note
============================================================================


Cemetery Drive

 Tuning ( e,B,G,D,A,E )

Key

*-Palm mute
<#>-Natural harmonic
x-Mute
~-Let ring


Verse (I haven't figured out all of Gtr I's parts in the verses as of yet)



(This night, walk the dead)


Gtr I

e|------------|
B|------------|
G|------------|
D|--<7>~~~~~--|
A|------------|
E|------------|

Gtr II
e|-------------------------------------------------------------------|
B|-------------------------------------------------------------------|
G|----------------------------------666666-h8-66---------------------|
D|------777777-h9-77---444444-h6-44--------------9999999-h-11-99-----|
A|-------------------------------------------------------------------|
E|-------------------------------------------------------------------|
repeat x4


Gtr I


(And they found you on the bathroom floor)

e|-------------|
B|-------------|
G|-------------|
D|-9-99999999--|
A|-9-99999999--|
E|-7-77777777--|
PM * ********

Chorus

(I miss you)

Gtr I


e|-----------------------------------------------|
B|-----------------------------------------------|
G|-------------------66666666-44-4/66-6/88-8-999-|
D|-44444444-22222222-66666666-xx-x-xx-x-xx-x-xxx-|
A|-44444444-22222222-44444444-22-2/44-4/66-6/777-|
E|-22222222-00000000-----------------------------|

e|-----------------------------------------------|
B|-----------------------------------------------|
G|-------------------66666666-44-4/66-6/88-8/999-|
D|-77777777-22222222-66666666-xx-x-xx-x-xx-x-xxx-|
A|-77777777-22222222-44444444-22-2/44-4/66-6/777-|
E|-55555555-00000000-----------------------------|

Gtr II
e|-------------------------------------|
B|-------------------------------------|
G|-------------------66666666-44444444-|
D|-44444444-22222222-66666666-44444444-|
A|-44444444-22222222-44444444-22222222-|
E|-22222222-00000000-------------------|

e|-------------------------------------|
B|-------------------------------------|
G|-------------------66666666-44444444-|
D|-77777777-22222222-66666666-44444444-|
A|-77777777-22222222-44444444-22222222-|
E|-55555555-00000000-------------------|


Repeat verse


Repeat chorus


Bridge 

(Way down)

Both Gtr's

e|-------------------------------------|
B|-------------------------------------|
G|-------------------66666666-44444444-|
D|-44444444-22222222-66666666-44444444-|
A|-44444444-22222222-44444444-22222222-|
E|-22222222-00000000-------------------|
PM  *******  *******  *******  *******
e|-----------------------------------------|
B|-----------------------------------------|
G|-------------------66666666-444444444444-|
D|-77777777-22222222-66666666-444444444444-|
A|-77777777-22222222-44444444-222222222222-|
E|-55555555-00000000-----------------------|
PM  *******  *******  ******* ************

Repeat chorus

Outro (Gtr II just plays verse, low volume and low distortion)

End on:

e|-------|
B|-------|
G|-2~~~~-|
D|-2~~~~-|
A|-0~~~~-|
E|-------|

---------------------------------------------------------------------------


Guitar 2
E|---------------------------------|--------------------------------|
B|---------------7h8-7-------------|--------------------------------|
G|---------------------------------|--------------------------------|
D|---------------------------------|--------------------------------|
A|-/pickslide/-------------//------|--------------------------------|
E|---------------------------------|--------------------------------|
Guitar 1
E|---------------------------------|--------------------------------|
B|---------------------------------|--------------------------------|
G|---------------------------------|--------------------------------|
D|-9-------2-------5-------4-------|--------------------------------|
A|-x-------x-------x-------x-------|--------------------------------|
E|-7-------0-------3-------2-------|--------------------------------|
   
Guitar 2
E|---------------------------------|--------------------------------|
B|---------------------------------|--------------------------------|
G|---------------------------------|-------------------2------------|
D|-------------------------------2-|-----------4---5-------5---4---5|
A|---2---4---5---4---2---2---4-----|---5---4------------------------|
E|---------------------------------|--------------------------------|
   
E|---------------------------------|--------------------------------|
B|---------------------------------|--------------------------------|
G|---------------------------------|--------------------------------|
D|---4---2---0---2-----------------|--------------------------------|
A|---------------------------------|--------------------------------|
E|---------------------------------|--------------------------------|

Guitar 1

E|---------------------------------|--------------------------------|
B|---------------------------------|--------------------------------|
G|---------------------------------|--------------------------------|
D|---------------------------------|--------------------------------|
A|---9---9---9---9---9-------------|---2---2---2---2---2------------|
E|---7---7---7---7---7-------------|---0---0---0---0---0------------|
   
E|---------------------------------|--------------------------------|
B|---------------------------------|--------------------------------|
G|---------------------------------|--------------------------------|
D|---------------------------------|--------------------------------|
A|---5---5---5---5---5-------------|---4---4---4---4---4------------|
E|---3---3---3---3---3-------------|---2---2---2---2---2------------|
   
Repeat until...




E|---------------------------------|--------------------------------|
B|---------------------------------|--------------------------------|
G|---------------------------------|--------------------------------|
D|-:---:---:-----------------------|--------------------------------|
A|-5---5---5-----------------------|--------------------------------|
E|-3---3---3-----------------------|--------------------------------|
   
E|---------------------------------|--------------------------------|
B|---------------------------------|--------------------------------|
G|---------------------------------|--------------------------------|
D|---:::::::::::-------------------|---:::::::::::------------------|
A|-9-99999999999-------------------|-2-22222222222------------------|
E|-7-77777777777-------------------|-0-00000000000------------------|
   
E|---------------------------------|--------------------------------|
B|---------------------------------|--------------------------------|
G|---------------------------------|--------------------------------|
D|---:::::::::::-------------------|---:::::::::::------------------|
A|-5-55555555555-------------------|-4-44444444444------------------|
E|-3-33333333333-------------------|-2-22222222222------------------|
   
Guitar 2
E|---------------------------------|--------------------------------|
B|---------------------------------|--------------------------------|
G|---------------------------------|--------------------------------|
D|---:::::::::::-------------------|---:::::::::::------------------|
A|-9-99999999999---7h9p7-----------|-2-22222222222---7h9p7----------|
E|-7-77777777777---------10--------|-0-00000000000---------10-------|
   
E|---------------------------------|--------------------------------|
B|---------------------------------|--------------------------------|
G|---------------------------------|--------------------------------|
D|---:::::::::::-------------------|--------------------------------|
A|-5-55555555555---7h9p7-----------|--------------------------------|
E|-3-33333333333---------10--------|-5/7-9-10-9---------------------|
   
Guitar 1
E|---------------------------------|--------------------------------|
B|---------------------------------|--------------------------------|
G|---------------------------------|--------------------------------|
D|---------------------------------|--------------------------------|
A|-2---------------4---------------|--------------------------------|
E|-0---------------0---------------|-7-------5-------3--------------|
   







E|---------------------------------|-clean--------------------------|
B|---------------------------------|-------------------0------------|
G|-4---------------6---------------|-----0-----0-----0--------------|
D|-x---------------x---------------|---0-----0-----0----------------|
A|-2---------------4---------------|-2-----2-----2------------------|
E|---------------------------------|--------------------------------|
   
E|---------------------------------|--------------------------------|
B|---------------------------------|--------------------------------|
G|-7-----------7---9---------------|--------------------------------|
D|-x-------9---x---x---------------|--------------------------------|
A|-5-------x---5---7---------------|--------------------------------|
E|---------7-----------------------|--------------------------------|
   
Both guitars
E|---------------------------------|--------------------------------|
B|---------------------------------|--------------------------------|
G|-:-:::-:-:::-:-:::--o-until heavy|--------------------------------|
D|-4-444-4-444-4-444--o----part----|--------------------------------|
A|-2-222-2-222-2-222---------------|--------------------------------|
E|---------------------------------|--------------------------------|
   
Guitar 2
E|---------------------------------|--------------------------------|
B|-0--------0----------------------|-12b----------------------------|
G|-----^--------^-----o-until heavy|--------------------------------|
D|---0-5-0----0-5-5---o-----part---|--------------------------------|
A|---------------------------------|--------------------------------|
E|---------------------------------|--------------------------------|
   
Heavy Part                           1.           2.
E|---------------------------------|------------|-------------------|
B|---------------------------------|------------|-------------------|
G|---------------------------------|------------|-------------------|
D|-4-44444-44444-4444--------------|-7---6---2--|-------------------|
A|-2-22222-22222-2222--------------|-5---4---0--|--5-7-5-4----------|
E|---------------------------------|------------|----------7-5------|
   
At the end of those riffs...
E|---------------------------------|--------------------------------|
B|---------------------------------|--------------------------------|
G|---------------------------------|--------------------------------|
D|-:-:-:---------------------------|--------------------------------|
A|-2-2-2---------------------------|--------------------------------|
E|-0-0-0---------------------------|--------------------------------|
   






Guitar 1
E|---------------------------------|--------------------------------|
B|---------------------------------|--------------------------------|
G|---------------------------------|--------------------------------|
D|---------------------------------|--------------------------------|
A|-2-------4-------9---7---5-------|-5-------4----------------------|
E|-0-------2-------7---5---3-------|-3-------2----------------------|
   
guitar 2
E|---------------------------------|-------clean--------------------|
B|---------------------------------|-------------------------0------|
G|-4-------6-------7---9---11------|----6------0-----0-----0--------|
D|-x-------x-------x---x----x------|----x----0-----0-----0----------|
A|-2-------4-------5---7----9—7h9p7|-5--4--2-----2-----2------------|
E|---------------------------------|--------------------------------|
   
clean
E|---------------------------------|--------------------------------|
B|---------------------------------|--------------------------------|
G|---------------------------------|--------------------------------|
D|-12-121212121212-12-12121212-11--|-11111111-11-11111111-9-9999-9--|
A|---------------------------------|--------------------------------|
E|---------------------------------|--------------------------------|
   
E|---------------------------------|--------------------------------|
B|---------------------------------|--------------------------------|
G|---------------------------------|--------------------------------|
D|-99-7-9-9999-9---12-1212121212-12|-14-14-11-11111111-9-9999-9-9-9-|
A|---------------------------------|--------------------------------|
E|---------------------------------|--------------------------------|
   
E|---------------------------------|--------------------------------|
B|---------------------------------|--------------------------------|
G|--------------o------------------|--------------------------------|
D|-7—9/11-9-----o------------------|--------------------------------|
A|---------------------------------|--------------------------------|
E|---------------------------------|--------------------------------|
   
Guitar 1
E|---------------------------------|--------------------------------|
B|---------------------------------|--------------------------------|
G|---------------------------------|--------------------------------|
D|-:-:-:-:-:-:-:-:-:-:-:-:-:-:-:-:-|-:-:----------------------------|
A|-5-5-5-5-5-5-7-7-7-7-7-7-9-9-9-9-|-9-9----------------------------|
E|-3-3-3-3-3-3-5-5-5-5-5-5-7-7-7-7-|-7-7----------------------------|
   






E|---------------------------------|--------------------------------|
B|---------------------------------|--------------------------------|
G|---------------------------------|--------------------------------|
D|-:-:-:-:-:-:-:-:-:---------------|--------------------------------|
A|-9-9-9-9-9-9-9-9-9---------------|--------------------------------|
E|-7-7-7-7-7-7-7-7-7---------------|--------------------------------|
   
E|---------------------------------|--------------------------------|
B|---------------------------------|--------------------------------|
G|---------------------------------|--------------------------------|
D|---------------------------------|--------------------------------|
A|-5-7-9-5-7-99-99-99-99-99--------|--------------------------------|
E|-3-5-7-3-5-77-77-77-77-77--------|--------------------------------|
   
Guitar 2
E|---------------------------------|--------------------------------|
B|---------------------------------|--------------------------------|
G|---------------------------------|--------------------------------|
D|-11h12p11-9-o--------------------|---11-12p11-11-12p11------------|
A|------------o--------------------|--------------------------------|
E|---------------------------------|--------------------------------|
   
E|---------------------------------|--------------------------------|
B|---------------------------------|--------------------------------|
G|-6/7\6-4---6/7\6-9-7-6-6/7\6-----|-4-4--4-4--4-4--4-4-------------|
D|-x/x\x-x-o-x/x\x-x-x-x-x/x\x-oall|-x-x--x-x--x-x--x-x-------------|
A|-4/5\4-2-o-4/5\4-7-5-4-4/5\4-o---|-2-2--2-2--2-2--2-2-------------|
E|---------------------------------|--------------------------------|
   
E|---------------------------------|--------------------------------|
B|---------------------------------|--------------------------------|
G|-7----9---14-12-11-11--9-7-9-11-9|-----7-----9--------------------|
D|-x----x----x--x--x--x--x-x-x--x-x|-----x-----x-----:-:-:-:-:-:----|
A|-5----7---12-10--9--9--7-5-7--9-7|-----5-----7-----9-9-9-9-9-9----|
E|---------------------------------|-----------------7-7-7-7-7-7----|
   
E|---------------------------------|--------------------------------|
B|---------------------------------|--------------------------------|
G|-6h7p6-4-------------------------|-44444444-66666666-7777777-99999|
D|---------o-----------------------|--------------------------------|
A|---------o-----------------------|--------------------------------|
E|---------------------------------|--------------------------------|
   









Guitar 3
E|-7-7777-7-7777-9-9999-9-9999-----|-10-10101010-10-----------------|
B|---------------------------------|--------------------------------|
G|---------------------------------|--------------------------------|
D|---------------------------------|--------------------------------|
A|---------------------------------|--------------------------------|
E|---------------------------------|--------------------------------|
   
guitar 2
E|------------------17----------15-|----------14--------------------|
B|-14-15---15-14-15----15-14-15----|-15-14-15----15--o--------------|
G|-------16------------------------|-----------------o--------------|
D|---------------------------------|--------------------------------|
A|---------------------------------|--------------------------------|
E|---------------------------------|--------------------------------|
   
                      
E|-13-13-13-13-13-13-13b13b13b13b13|b13b----------------------------|
B|---------------------------------|--------------------------------|
G|---------------------------------|--------------------------------|
D|---------------------------------|--------------------------------|
A|---------------------------------|--------------------------------|
E|---------------------------------|--------------------------------|
   
E|---------------------------------|--------------------------------|
B|---------------------------------|--------------------------------|
G|---------------------------------|--------------------------------|
D|---------------------------------|--------------------------------|
A|-9/10\7/9\7/9\7\5/9\7/10\2-------|--------------------------------|
E|-7-------------------------------|--------------------------------|
   
E|---------------------------------|--------------------------------|
B|---------------------------------|--------------------------------|
G|---------------------------------|--------------------------------|
D|---------------------------------|--------------------------------|
A|---------------------------------|--------------------------------|
E|---------------------------------|--------------------------------|
   
E|---------------------------------|--------------------------------|
B|---------------------------------|--------------------------------|
G|---------------------------------|--------------------------------|
D|---------------------------------|--------------------------------|
A|---------------------------------|--------------------------------|
E|---------------------------------|--------------------------------|
comments
print report bad tab
14 comments total. Showing first comments.
0 reply
Mathamology wrote on July 29 2005, 12:00 am

man, if your gonna use our tabs, then at least ask or inform us first. I would have given you permission, but dont just take them and not even give us credit for the work we have done.

0 reply
mcr_01_fan wrote on July 29 2005, 12:00 am

congratulations youv'e sucessfully managed to steal everyone elses tabs including one of mine, if you will please edit this tab and mention where they came from

0 reply
Andrew9 wrote on July 29 2005, 12:00 am

what a piece of crap, not only did you steal them all, you also forgot to put the name of some of the songs before the tabs

I want to post or [tab]
guest
You may want to rate the tab now too:
select rating
Please do not post tabs as comments. Select "correction" instead!