Oops, an error
Loading. Please wait.

Three Cheers For Sweet Revenge Tab

ver2
ver2

Album

Interactive

More versions @911Tabs.com
38,745 views 81 this week
46 commentsread comments
1 2 3 4 5
excellent!
x 65
Autoscroll
+/-
esc
set tempo
stop
Contributor
Difficulty
intermediate
Hey! There's an official Ultimate Guitar app which is ideal
for learning songs when you're away from computer. Get the app
WARNING: You are trying to view
                                    content from Ultimate-Guitar.com
                                    in an unauthorized application,
                                    which is prohibited.

                                    Please use an official Ultimate
                                    Guitar Tabs application for iPhone,
                                    iPad or Android to access legitimate
                                    chords, guitar, bass, and drum tabs
                                    from Ultimate-Guitar.com database.

                                    Type "ultimate guitar tabs" in Apple
                                    App Store's or Android Market's
                                    search to find the application.
Album: Three Cheers For Sweet Revenge
Band: My Chemical Romance


Track Listing:

I: Helena
II: Give 'Em Hell Kid
III: To The End
IV: You Know What They Do To Guys Like Us In Prison
V: I'm Not Okay (I Promise)
VI:The Ghost Of You
VII: The Jetset Life Is Gonna Kill You
VIII: Interlude
IX: Thank You For The Venom
X: Hang 'Em High
XI: It's Not A Fashion Statement, It's A F**king Deathwish
XII: Cemetery Drive
XIII: I Never Told You What I do For A Living

Key:

~:- Let Ring
^:- Bend
r:- Release
h:- Hammer On
p:- Pull Off
x:- String Mute
*:- Palm Mute
t:- Tap
/:- Slide
<#>:- Natural Harmonic
[#]:- Pinch Harmonic


My Chemical Romances Guitarists Are:


Ray Toro: Lead Guitar and occasional Rhythm Guitar
Frank Iero: Rhythm Guitar and occasional Lead Guitar
Mikey Way: Bass Guitar


------------
I: Helena
------------

Gtr I Ray Toro: Standard Tuning (e,B,G,D,A,E)
Gtr II Frank Iero: Standard Tuning (e,B,G,D,A,E)

Intro:

Gtr I

e:|-----------------------------------------------------------------|
B:|-----------------------------------------------------------------|
G:|-----------------------------------------------------------------|
D:|-----------------------------------------------------------------|
A:|-----------------------------------------------------------------|
E:|-9-9-9-9-9-9-9-9-9-9-9-9-9-9-9-9-9-9-9-9-9-9-9-9-9-9-9-9-9-9-9-9-|
PM  * * * * * * * * * * * * * * * * * * * * * * * * * * * * * * * *

e:|-----------------------------------------------------------------|
B:|-----------------------------------------------------------------|
G:|-----------------------------------------------------------------|
D:|-----------------------------------------------------------------|
A:|-----------------------------------------------------------------|
E:|-0-0-0-0-0-0-0-0-0-0-0-0-0-0-0-0-7-7-7-7-7-7-7-7-4-4-4-4-4-4-4-4-|
PM  * * * * * * * * * * * * * * * * * * * * * * * * * * * * * * * *

e:|-----------------------------------------------------------------|
B:|-----------------------------------------------------------------|
G:|-----------------------------------------------------------------|
D:|-----------------------------------------------------------------|
A:|-----------------------------------------------------------------|
E:|-5-5-5-5-5-5-5-5-5-5-5-5-5-5-4-5-5-5-5-5-5-5-5-5-5-5-5-5-5-5-5-5-|
PM  * * * * * * * * * * * * * * * * * * * * * * * * * * * * * * * *

e:|-----------------------------------------------------------------|
B:|-----------------------------------------------------------------|
G:|-----------------------------------------------------------------|
D:|-----------------------------------------------------------------|
A:|-----------------------------------------------------------------|
E:|-9-9-9-9-9-9-9-9-9-9-9-9-9-9-9-9-7-7-7-7-7-7-7-7-7-7-7-7-0-0-0-0-|
PM  * * * * * * * * * * * * * * * * * * * * * * * * * * * * * * * *

Gtr II

e:|-------------------------------------------------------------------|
B:|-------------------------------------------------------------------|
G:|-------------------------------------------------------------------|
D:|-14141414141414141414141414141414-11111111111111111111111111111111-|
A:|-------------------------------------------------------------------|
E:|-------------------------------------------------------------------|
PM  * * * * * * * * * * * * * * * *  * * * * * * * * * * * * * * * *

e:|--------------------------------------------------------------------|
B:|--------------------------------------------------------------------|
G:|--------------------------------------------------------------------|
D:|-13131313131313131313131313131313-9-9-9-9-9-9-9-9-11111111-13131313-|
A:|--------------------------------------------------------------------|
E:|--------------------------------------------------------------------|
PM  * * * * * * * * * * * * * * * *  * * * * * * * * * * * *  * * * *

e:|-------------------------------------------------------------------|
B:|-------------------------------------------------------------------|
G:|-------------------------------------------------------------------|
D:|-14141414141414141414141414141414-11111111111111111111111111111111-|
A:|-------------------------------------------------------------------|
E:|-------------------------------------------------------------------|
PM   * * * * * * * * * * * * * * * *  * * * * * * * * * * * * * * * *

e:|-------------------------------------------------------------------|
B:|-------------------------------------------------------------------|
G:|-------------------------------------------------------------------|
D:|-9-9-9-9-9-9-9-9-1111111111111111-131313131313131313131313---------|
A:|-----------------------------------------------------------2-2-2-2-|
E:|-----------------------------------------------------------0-0-0-0-|
PM  * * * * * * * * * * * * * * * *  * * * * * * * * * * * *  * * * *

Verses:

Gtr I

e:|-----------------------------------------------------------------|
B:|-----------------------------------------------------------------|
G:|-----------------------------------------------------------------|
D:|-6-6-6-6-6-6-6-6-6-6-6-6-6-6-6-6-6-6-6-6-6-6-6-6-6-6-6-6-6-6-6-6-|
A:|-4-4-4-4-4-4-4-4-4-4-4-4-4-4-4-4-4-4-4-4-4-4-4-4-4-4-4-4-4-4-4-4-|
E:|-----------------------------------------------------------------|

e:|-----------------------------------------------------------------|
B:|-----------------------------------------------------------------|
G:|-----------------------------------------------------------------|
D:|-----------------------------------------------------------------|
A:|-4-4-4-4-4-4-4-4-4-4-4-4-4-4-4-4-6-6-6-6-6-6-6-6-7-7-7-7-7-7-7-7-|
E:|-0-0-0-0-0-0-0-0-0-0-0-0-0-0-0-0-7-7-7-7-7-7-7-7-4-4-4-4-4-4-4-4-|

e:|-----------------------------------------------------------------|
B:|-----------------------------------------------------------------|
G:|-----------------------------------------------------------------|
D:|-----------------------------------------------------------------|
A:|-4-4-4-4-4-4-4-4-4-4-4-4-4-4-4-4-6-6-6-6-6-6-6-6-6-6-6-6-6-6-6-6-|
E:|-5-5-5-5-5-5-5-5-5-5-5-5-5-5-5-5-5-5-5-5-5-5-5-5-5-5-5-5-5-5-5-5-|

e:|-----------------------------------------------------------------|
B:|-----------------------------------------------------------------|
G:|-----------------------------------------------------------------|
D:|-----------------------------------------------------------------|
A:|-7-7-7-7-7-7-7-7-7-7-7-7-7-7-7-7-7-7-7-7-7-7-7-7-7-7-7-7---------|
E:|-9-9-9-9-9-9-9-9-9-9-9-9-9-9-9-9-7-7-7-7-7-7-7-7-7-7-7-7-0-0-0-0-|
PM                                                          * * * *

Gtr II

e:|-----------------------------------------------------------------|
B:|-----------------------------------------------------------------|
G:|-----------------------------------------------------------------|
D:|-111111111111111111111111111111111111111111111111111111111111111-|
A:|-111111111111111111111111111111111111111111111111111111111111111-|
E:|-9-9-9-9-9-9-9-9-9-9-9-9-9-9-9-9-9-9-9-9-9-9-9-9-9-9-9-9-9-9-9-9-|

e:|-----------------------------------------------------------------|
B:|-----------------------------------------------------------------|
G:|-----------------------------------------------------------------|
D:|-----------------------------------------------------------------|
A:|-7-7-7-7-7-7-7-7-9-9-9-9-9-9-9-9-9-9-9-9-9-9-9-9-6-6-6-6-6-6-6-6-|
E:|-0-0-0-0-0-0-0-0-0-0-0-0-0-0-0-0-7-7-7-7-7-7-7-7-4-4-4-4-4-4-4-4-|

e:|-----------------------------------------------------------------|
B:|-----------------------------------------------------------------|
G:|-----------------------------------------------------------------|
D:|-7-7-7-7-7-7-7-7-7-7-7-7-7-7-7/6/7-7-7-7-7-7-7-7-7-7-7-7-7-7-7-7-|
A:|-x-x-x-x-x-x-x-x-x-x-x-x-x-x-x-x-x-x-x-x-x-x-x-x-x-x-x-x-x-x-x-x-|
E:|-5-5-5-5-5-5-5-5-5-5-5-5-5-5-5/4/5-5-5-5-5-5-5-5-5-5-5-5-5-5-5-5-|

e:|-----------------------------------------------------------------|
B:|-----------------------------------------------------------------|
G:|-----------------------------------------------------------------|
D:|-----------------------------------------------------------------|
A:|-1111111111111111111111111111111-9-9-9-9-9-9-9-9-9-9-9-9-2-2-2-2-|
E:|-9-9-9-9-9-9-9-9-9-9-9-9-9-9-9-9-7-7-7-7-7-7-7-7-7-7-7-7-0-0-0-0-|
PM                                                          * * * *

Pre-Chorus:

Gtr I

e:|-----------------------------------------------------------------|
B:|-----------------------------------------------------------------|
G:|-----------------------------------------------------------------|
D:|-----------------------------------------------------------------|
A:|-7-7-7-7-7-7-7-7-9-9-9-9-9-9-9-9-7-7-7-7-7-7-7-7-9-9-9-9-9-9-9-9-|
E:|-4-4-4-4-4-4-4-4-4-4-4-4-4-4-4-4-5-5-5-5-5-5-5-5-5-5-5-5-5-5-5-5-|

e:|--------------------------------------------------------------------|
B:|--------------------------------------------------------------------|
G:|--------------------------------------------------------------------|
D:|--------------------------------------------------------------------|
A:|-1111111111111111-1212121212121212-9-9-9-9-9-9-9-9-1111111111111111-|
E:|-9-9-9-9-9-9-9-9--9-9-9-9-9-9-9-9--7-7-7-7-7-7-7-7-7-7-7-7-7-7-7-7--|


e:|-----------------------------------------------------------------|
B:|-----------------------------------------------------------------|
G:|-----------------------------------------------------------------|
D:|-----------------------------------------------------------------|
A:|-7-7-7-7-7-7-7-7-9-9-9-9-9-9-9-9-7-7-7-7-7-7-7-7-9-9-9-9-9-9-9-9-|
E:|-4-4-4-4-4-4-4-4-4-4-4-4-4-4-4-4-5-5-5-5-5-5-5-5-5-5-5-5-5-5-5-5-|

e:|-------------------------------------------------------------------|
B:|-------------------------------------------------------------------|
G:|-------------------------------------------------------------------|
D:|-------------------------------------------------------------------|
A:|-1111111111111111-1212121212121212-9-9-9-9-9-9-9-9-9-9-9-9---------|
E:|-9-9-9-9-9-9-9-9--9-9-9-9-9-9-9-9--7-7-7-7-7-7-7-7-7-7-7-7-0-0-0-0-|
PM                                                            * * * *

Gtr II

e:|------------------------------------------------------------------|
B:|------------------------------------------------------------------|
G:|-9-9-9-9-9-9-9-9/1111111111111111-9-9-9-9-9-9-9-9/111111111111111-|
D:|-x-x-x-x-x-x-x-x-x-x-x-x-x-x-x-x--x-x-x-x-x-x-x-x-x-x-x-x-x-x-x-x-|
A:|-7-7-7-7-7-7-7-7/9-9-9-9-9-9-9-9--7-7-7-7-7-7-7-7/9-9-9-9-9-9-9-9-|
E:|------------------------------------------------------------------|

e:|---------------------------------------------------------------------|
B:|---------------------------------------------------------------------|
G:|-1313131313131313/1414141414141414-1313131313131313/1111111111111111-|
D:|--x-x-x-x-x-x-x-x--x-x-x-x-x-x-x-x--x-x-x-x-x-x-x-x--x-x-x-x-x-x-x-x-|
A:|-1111111111111111/1212121212121212-1111111111111111/-9-9-9-9-9-9-9-9-|
E:|---------------------------------------------------------------------|

e:|------------------------------------------------------------------|
B:|------------------------------------------------------------------|
G:|-9-9-9-9-9-9-9-9/1111111111111111-9-9-9-9-9-9-9-9/111111111111111-|
D:|-x-x-x-x-x-x-x-x-x-x-x-x-x-x-x-x--x-x-x-x-x-x-x-x-x-x-x-x-x-x-x-x-|
A:|-7-7-7-7-7-7-7-7/9-9-9-9-9-9-9-9--7-7-7-7-7-7-7-7/9-9-9-9-9-9-9-9-|
E:|------------------------------------------------------------------|

e:|--------------------------------------------------------------------|
B:|--------------------------------------------------------------------|
G:|-1313131313131313/1414141414141414-111111111111111111111111---------|
D:|-x-x-x-x-x-x-x-x--x-x-x-x-x-x-x-x--x-x-x-x-x-x-x-x-x-x-x-x----------|
A:|-1111111111111111/1212121212121212-9-9-9-9-9-9-9-9-9-9-9-9--2-2-2-2-|
E:|------------------------------------------------------------0-0-0-0-|
PM                                                             * * * *

Chorus:

Gtr I

e:|-----------------------------------------------------------------|
B:|-----------------------------------------------------------------|
G:|-----------------------------------------------------------------|
D:|-2-2-2-2-2-2-2-2-2-2-2-2-2-2-2-2-9-9-9-9-9-9-9-9-----------------|
A:|-2-2-2-2-2-2-2-2-2-2-2-2-2-2-2-2-9-9-9-9-9-9-9-9-9-9-9-9-9-9-9-9-|
E:|-0-0-0-0-0-0-0-0-0-0-0-0-0-0-0-0-7-7-7-7-7-7-7-7-8-8-8-8-8-8-8-8-|

e:|--------------------------------------------------------------------|
B:|--------------------------------------------------------------------|
G:|--------------------------------------------------------------------|
D:|-11111111111111111111111111111111-----------------------------------|
A:|-11111111111111111111111111111111-1212121212121212-1111111111111111-|
E:|-9-9-9-9-9-9-9-9-9-9-9-9-9-9-9-9--8-8-8-8-8-8-8-8--8-8-8-8-8-8-8-8--|

Gtr II

e:|-----------------------------------------------------------------------|
B:|-----------------------------------------------------------------------|
G:|-9-9-99-99/11-11-11/13/11-11-11-11/13-13/16/14/13-13-13-13-13/14-14/13-|
D:|-x-x-xx-xx-x--x--x--x--x--x--x--x--x--x--x--x--x--x--x--x--x--x--x--x--|
A:|-7-7-77-77/9--9--9/-11/9--9--9--9/-11-11/14/12/11-11-11-11-11/12-12/11-|
E:|-----------------------------------------------------------------------|

e:|--------------------------|
B:|--------------------------|
G:|-13-9/11-11-11-//9-8~--4~-|
D:|-x--x--x--x--x---x-x---x--|
A:|-11-7/-9--9--9-//7-6~--2~-|
E:|--------------------------|

Pre-Verse:

Gtr I

e:|------------------|
B:|---9--------9-----|
G:|-------9--------9-|
D:|-9---9---9----9---|
A:|------------------|
E:|------------------|

Repeat Verse

Repeat Pre-Chorus

Chorus II:

Gtr I

e:|-----------------------------------------------------------------|
B:|-----------------------------------------------------------------|
G:|-----------------------------------------------------------------|
D:|-2-2-2-2-2-2-2-2-2-2-2-2-2-2-2-2-9-9-9-9-9-9-9-9-----------------|
A:|-2-2-2-2-2-2-2-2-2-2-2-2-2-2-2-2-9-9-9-9-9-9-9-9-9-9-9-9-9-9-9-9-|
E:|-0-0-0-0-0-0-0-0-0-0-0-0-0-0-0-0-7-7-7-7-7-7-7-7-8-8-8-8-8-8-8-8-|

e:|--------------------------------------------------------------------|
B:|--------------------------------------------------------------------|
G:|--------------------------------------------------------------------|
D:|-11111111111111111111111111111111-----------------------------------|
A:|-11111111111111111111111111111111-1212121212121212-1111111111111111-|
E:|-9-9-9-9-9-9-9-9-9-9-9-9-9-9-9-9--8-8-8-8-8-8-8-8--8-8-8-8-8-8-8-8--|

e:|-----------------------------------------------------------------|
B:|-----------------------------------------------------------------|
G:|-----------------------------------------------------------------|
D:|-2-2-2-2-2-2-2-2-2-2-2-2-2-2-2-2-9-9-9-9-9-9-9-9-----------------|
A:|-2-2-2-2-2-2-2-2-2-2-2-2-2-2-2-2-9-9-9-9-9-9-9-9-9-9-9-9-9-9-9-9-|
E:|-0-0-0-0-0-0-0-0-0-0-0-0-0-0-0-0-7-7-7-7-7-7-7-7-8-8-8-8-8-8-8-8-|

e:|------------------------------------------------------------------------|
B:|------------------------------------------------------------------------|
G:|------------------------------------------------------------------------|
D:|-11111111111111111111111111111111-----------------------------------2~~-|
A:|-11111111111111111111111111111111-1212121212121212-1111111111111111-2~~-|
E:|-9-9-9-9-9-9-9-9-9-9-9-9-9-9-9-9--8-8-8-8-8-8-8-8--8-8-8-8-8-8-8-8--0~~~|

Bridge:

Gtr I (x4)

e:|-----------------------------------------------------------------|
B:|-----------------------------------------------------------------|
G:|-----------------------------------------------------------------|
D:|-----------------------------------------------------------------|
A:|-7-7-7-7-7-7-7-7-7-7-7-7-7-7-7-7-4-4-4-4-4-4-4-4-4-4-4-4-4-4-4-4-|
E:|-9-9-9-9-9-9-9-9-9-9-9-9-9-9-9-9-5-5-5-5-5-5-5-5-5-5-5-5-5-5-5-5-|
PM  * * * * * * * * * * * * * * * * * * * * * * * * * * * * * * * *

e:|-----------------------------------------------------------------|
B:|-----------------------------------------------------------------|
G:|-----------------------------------------------------------------|
D:|-----------------------------------------------------------------|
A:|-7-7-7-7-7-7-7-7-7-7-7-7-7-7-7-7-6-6-6-6-6-6-6-6-6-6-6-6-6-6-6-6-|
E:|-7-7-7-7-7-7-7-7-7-7-7-7-7-7-7-7-7-7-7-7-7-7-7-7-7-7-7-7-7-7-7-7-|
PM  * * * * * * * * * * * * * * * * * * * * * * * * * * * * * * * *

Gtr II 

e:|------------------------------------------------------------------|
B:|------------------------------------------------------------------|
G:|-9-9-9-9-9-9-9-9-9-9-9-9-9-9-9-9-8-8-8-8-8-8-8-8/9-9-9-9/11111111-|
D:|-x-x-x-x-x-x-x-x-x-x-x-x-x-x-x-x-x-x-x-x-x-x-x-x-x-x-x-x--x-x-x-x-|
A:|-7-7-7-7-7-7-7-7-7-7-7-7-7-7-7-7-6-6-6-6-6-6-6-6/7-7-7-7/-9-9-9-9-|
E:|------------------------------------------------------------------|

e:|-------------------------------------------------------------------|
B:|-------------------------------------------------------------------|
G:|-13131313131313131313131313131313-11111111111111111111111111111111-|
D:|--x-x-x-x-x-x-x-x-x-x-x-x-x-x-x-x--x-x-x-x-x-x-x-x-x-x-x-x-x-x-x-x-|
A:|-11111111111111111111111111111111--9-9-9-9-9-9-9-9-9-9-9-9-9-9-9-9-|
E:|-------------------------------------------------------------------|

e:|------------------------------------------------------------------|
B:|------------------------------------------------------------------|
G:|-9-9-9-9-9-9-9-9-9-9-9-9-9-9-9-9-8-8-8-8-8-8-8-8/9-9-9-9/11111111-|
D:|-x-x-x-x-x-x-x-x-x-x-x-x-x-x-x-x-x-x-x-x-x-x-x-x-x-x-x-x--x-x-x-x-|
A:|-7-7-7-7-7-7-7-7-7-7-7-7-7-7-7-7-6-6-6-6-6-6-6-6/7-7-7-7/-9-9-9-9-|
E:|------------------------------------------------------------------|

e:|---------------------------------------------------------------------|
B:|---------------------------------------------------------------------|
G:|-13131313131313131313131313131313-1111111111111111/13131313/14141414-|
D:|--x-x-x-x-x-x-x-x-x-x-x-x-x-x-x-x--x-x-x-x-x-x-x-x--x-x-x-x--x-x-x-x-|
A:|-11111111111111111111111111111111--9-9-9-9-9-9-9-9/11111111/12121212-|
E:|---------------------------------------------------------------------|

e:|--------------------------------------------------------------------|
B:|--------------------------------------------------------------------|
G:|-16161616161616161616161616161616-1414141414141414-1313131313131313-|
D:|--x-x-x-x-x-x-x-x-x-x-x-x-x-x-x-x--x-x-x-x-x-x-x-x--x-x-x-x-x-x-x-x-|
A:|-14141414141414141414141414141414-1212121212121212-1111111111111111-|
E:|--------------------------------------------------------------------|

e:|--------------------------------------------------------------------|
B:|--------------------------------------------------------------------|
G:|-111111111111111111111111/9-9-9-9/1313131313131313/1111111111111111-|
D:|--x-x-x-x-x-x-x-x-x-x-x-x-x-x-x-x--x-x-x-x-x-x-x-x--x-x-x-x-x-x-x-x-|
A:|--9-9-9-9-9-9-9-9-9-9-9-9/7-7-7-7/1111111111111111/-9-9-9-9-9-9-9-9-|
E:|--------------------------------------------------------------------|

e:|------------------------------------------------------------------|
B:|------------------------------------------------------------------|
G:|-9-9-9-9-9-9-9-9-9-9-9-9-9-9-9-9-8-8-8-8-8-8-8-8/9-9-9-9/11111111-|
D:|-x-x-x-x-x-x-x-x-x-x-x-x-x-x-x-x-x-x-x-x-x-x-x-x-x-x-x-x--x-x-x-x-|
A:|-7-7-7-7-7-7-7-7-7-7-7-7-7-7-7-7-6-6-6-6-6-6-6-6/7-7-7-7/-9-9-9-9-|
E:|------------------------------------------------------------------|

e:|-------------------------------------------------|
B:|-------------------------------------------------|
G:|-11111111111111111111111111111111-8/9-8/9-11/9/8-|
D:|--x-x-x-x-x-x-x-x-x-x-x-x-x-x-x-x-x-x-x-x--x-x-x-|
A:|--9-9-9-9-9-9-9-9-9-9-9-9-9-9-9-9-6/7-6/7--9/7/6-|
E:|-------------------------------------------------|


Last Chorus: (not 100% sure about this)

Gtr I

e:|-----------------------------------------------------------------|
B:|-----------------------------------------------------------------|
G:|-----------------------------------------------------------------|
D:|-2-2-2-2-2-2-2-2-2-2-2-2-2-2-2-2-9-9-9-9-9-9-9-9-----------------|
A:|-2-2-2-2-2-2-2-2-2-2-2-2-2-2-2-2-9-9-9-9-9-9-9-9-9-9-9-9-9-9-9-9-|
E:|-0-0-0-0-0-0-0-0-0-0-0-0-0-0-0-0-7-7-7-7-7-7-7-7-8-8-8-8-8-8-8-8-|

e:|--------------------------------------------------------------------|
B:|--------------------------------------------------------------------|
G:|--------------------------------------------------------------------|
D:|-11111111111111111111111111111111-----------------------------------|
A:|-11111111111111111111111111111111-1212121212121212-1111111111111111-|
E:|-9-9-9-9-9-9-9-9-9-9-9-9-9-9-9-9--8-8-8-8-8-8-8-8--8-8-8-8-8-8-8-8--|

e:|-----------------------------------------------------------------|
B:|-----------------------------------------------------------------|
G:|-----------------------------------------------------------------|
D:|-2-2-2-2-2-2-2-2-2-2-2-2-2-2-2-2-9-9-9-9-9-9-9-9-----------------|
A:|-2-2-2-2-2-2-2-2-2-2-2-2-2-2-2-2-9-9-9-9-9-9-9-9-9-9-9-9-9-9-9-9-|
E:|-0-0-0-0-0-0-0-0-0-0-0-0-0-0-0-0-7-7-7-7-7-7-7-7-8-8-8-8-8-8-8-8-|

e:|------------------------------------------------------------------------|
B:|------------------------------------------------------------------------|
G:|------------------------------------------------------------------------|
D:|-11111111111111111111111111111111-----------------------------------2~~-|
A:|-11111111111111111111111111111111-1212121212121212-1111111111111111-2~~-|
E:|-9-9-9-9-9-9-9-9-9-9-9-9-9-9-9-9--8-8-8-8-8-8-8-8--8-8-8-8-8-8-8-8--0~~~|

Gtr II

e:|-----------------------------------------------------------------------|
B:|-----------------------------------------------------------------------|
G:|-9-9-99-99/11-11-11/13/11-11-11-11/13-13/16/14/13-13-13-13-13/14-14/13-|
D:|-x-x-xx-xx-x--x--x--x--x--x--x--x--x--x--x--x--x--x--x--x--x--x--x--x--|
A:|-7-7-77-77/9--9--9/-11/9--9--9--9/-11-11/14/12/11-11-11-11-11/12-12/11-|
E:|-----------------------------------------------------------------------|

e:|------------------------------|
B:|------------------------------|
G:|-13-9/11-11-11-//9-8~---------|
D:|-x--x--x--x--x---x-x----------|
A:|-11-7/-9--9--9-//7-6~-2h4-2h4-|
E:|------------------------------|

e:|--------------------------------------------------|
B:|--------------------------------------------------|
G:|-9/11/9-999/11-11/13-13/11-11-11/13-13-9/11/13/11-|
D:|-x-x--x-xxx-x--x--x--x--x--x--x--x--x--x-x--x--x--|
A:|-7/9-/7-777/9--9-/11-11/9--9--9-/11-11-7/9-/11/9--|
E:|--------------------------------------------------|

e:|------------------------------------------------------------|
B:|------------------------------------------------------------|
G:|-16161616-14141414-13131313131313/9/11/11-1111/9/13~-8~-9~~-|
D:|-x-x-x-x--x-x-x-x--x-x-x-x-x-x-x--x--x--x--x-x-x-x---x--x---|
A:|-14141414-12121212-11111111111111/7/-9/-9--9-9/7/11~-6~-7~~-|
E:|------------------------------------------------------------|


Outro:

Gtr II (Clean)

e:|---------------------------------------------------------------------|
B:|---------------------------------------------------------------------|
G:|---------------------------------------------------------------------|
D:|---------------------------------------------------------------------|
A:|---------------------------------------------------------------------|
E:|-99999999999999999999999999999999-0000000000000000-77777777-44444444-|
PM  ******************************** **************** ******** ********

End with:

Gtr I

e:|--------------|
B:|--------------|
G:|-<2>-<3>------|
D:|-----------2~-|
A:|---------0-0~-|
E:|--------------|

Gtr II

e:|------|
B:|------|
G:|------|
D:|------|
A:|---7~-|
E:|-5----|

------------------------
II: Give 'Em Hell Kid
------------------------

Gtr I Ray Toro: Standard Tuning (e,B,G,D,A,E)
Gtr II Frank Iero: Standard Tuning (e,B,G,D,A,E)
Bass Gtr Mikey Way: Standard Tuning (G,D,A,E)

Intro:

Bass Gtr Solo

G:|-----------------------------------------------------------------|
D:|-----------------------------------------------------------------|
A:|-7-7-7-7-------------------------7-7-7-7-----------------6-6-6-6-|
E:|---------7-7-7-7-8-8-8-8-5-5-5-5---------7-7-7-7-8-8-8-8---------|

Gtr I

e:|------------0~--------------------0~-----------------------|
B:|----------------0~--------------------0~-------------------|
G:|--------------------0~--------------------0~---------------|
D:|-2~~~~~~~~--------------2~~~~~~~---------------5-5-5-8-8-8-|
A:|-2~~~~~~~~--------------2~~~~~~~---------------3-3-3-6-6-6-|
E:|-0~~~~~~~~--------------0~~~~~~~---------------------------|

Gtr II

e:|-x--x--x-|
B:|-x--x----|
G:|----x----|
D:|---------|
A:|---------|
E:|---------|

e:|-----------------------------------------------------------------|
B:|-------------------------------------------12--10-------10-------|
G:|-9^^^^-8^^^^-9^^^^-8^^^^-9--12-------9--12--------12-------12----|
D:|--------------------------------12~------------------12-------12-|
A:|-----------------------------------------------------------------|
E:|-----------------------------------------------------------------|

Verses:

Both Gtrs (x2)

e:|--------------------------------------------------------------------|
B:|--------------------------------------------------------------------|
G:|--------------------------------------------------------------------|
D:|-9-9-9-9-9-9-9-9-10101010-7-7-7-7-9-9-9-9-9-9-9-9-10101010-13131313-|
A:|-7-7-7-7-9-9-9-9-10101010-7-7-7-7-7-7-7-7-9-9-9-9-10101010-13131313-|
E:|-0-0-0-0-7-7-7-7-8-8-8-8--5-5-5-5-0-0-0-0-7-7-7-7-8-8-8-8--11111111-|

Chorus:

Both Gtrs

e:|-----------------------------------------------------------------|
B:|-----------------------------------------------------------------|
G:|-------------------------------------------------8-8-8-8-8-8-8-8-|
D:|-5-5-5-5-5-5-5-5-4-4-4-4-4-4-4-4-2-2-2-2-2-2-2-2-8-8-8-8-8-8-8-8-|
A:|-5-5-5-5-5-5-5-5-5-5-5-5-5-5-5-5-2-2-2-2-2-2-2-2-6-6-6-6-6-6-6-6-|
E:|-3-3-3-3-3-3-3-3-2-2-2-2-2-2-2-2-0-0-0-0-0-0-0-0-----------------|

e:|-----------------------------------------------------------------|
B:|-----------------------------------------------------------------|
G:|-----------------7-7-7-7-7-7-7-7-----------------5-5-5-5-5-5-5-5-|
D:|-5-5-5-5-5-5-5-5-7-7-7-7-7-7-7-7-2-2-2-2-2-2-2-2-5-5-5-5-5-5-5-5-|
A:|-5-5-5-5-5-5-5-5-5-5-5-5-5-5-5-5-2-2-2-2-2-2-2-2-3-3-3-3-3-3-3-3-|
E:|-3-3-3-3-3-3-3-3-----------------0-0-0-0-0-0-0-0-----------------|

Pre-Verse:

Gtr I

e:|-------------0~--------------------|
B:|----------------0~-----------------|
G:|-------------------0~--------------|
D:|-2~~~~~~~~-------------5-5-5-8-8-8-|
A:|-2~~~~~~~~-------------3-3-3-6-6-6-|
E:|-0~~~~~~~~-------------------------|

Gtr II

e:|--------------------------------|
B:|--------------------------------|
G:|-9^^^^-8^^^^-9^^^^-9/1111111111-|
D:|--------------------------------|
A:|--------------------------------|
E:|--------------------------------|

Repeat Verse (x2)

Repeat Chorus (x2)

Bridge:

Gtr I

e:|-----------------------------------------------------------------|
B:|-----------------------------------------------------------------|
G:|-5-5-5-5-5-5-5-5-5-5-5-5-5-5-5-5-7-7-7-7-7-7-7-7-7-7-7-7-7-7-7-7-|
D:|-5-5-5-5-5-5-5-5-5-5-5-5-5-5-5-5-7-7-7-7-7-7-7-7-7-7-7-7-7-7-7-7-|
A:|-3-3-3-3-3-3-3-3-3-3-3-3-3-3-3-3-5-5-5-5-5-5-5-5-5-5-5-5-5-5-5-5-|
E:|-----------------------------------------------------------------|

e:|-----------------------------------------------------------------|
B:|-----------------------------------------------------------------|
G:|-4-4-4-4-4-4-4-4-4-4-4-4-4-4-4-4-----------------7-7-7-7-7-7-7-7-|
D:|-4-4-4-4-4-4-4-4-4-4-4-4-4-4-4-4-2-2-2-2-2-2-2-2-7-7-7-7-7-7-7-7-|
A:|-2-2-2-2-2-2-2-2-2-2-2-2-2-2-2-2-2-2-2-2-2-2-2-2-5-5-5-5-5-5-5-5-|
E:|---------------------------------0-0-0-0-0-0-0-0-----------------|


e:|-----------------------------------------------------------------|
B:|-----------------------------------------------------------------|
G:|-5-5-5-5-5-5-5-5-5-5-5-5-5-5-5-5-7-7-7-7-7-7-7-7-7-7-7-7-7-7-7-7-|
D:|-5-5-5-5-5-5-5-5-5-5-5-5-5-5-5-5-7-7-7-7-7-7-7-7-7-7-7-7-7-7-7-7-|
A:|-3-3-3-3-3-3-3-3-3-3-3-3-3-3-3-3-5-5-5-5-5-5-5-5-5-5-5-5-5-5-5-5-|
E:|-----------------------------------------------------------------|

e:|-----------------------------------------------------------------|
B:|-----------------------------------------------------------------|
G:|-4-4-4-4-4-4-4-4-4-4-4-4-4-4-4-4-----------------7-7-7-7-7-7-7-7-|
D:|-4-4-4-4-4-4-4-4-4-4-4-4-4-4-4-4-2-2-2-2-2-2-2-2-7-7-7-7-7-7-7-7-|
A:|-2-2-2-2-2-2-2-2-2-2-2-2-2-2-2-2-2-2-2-2-2-2-2-2-5-5-5-5-5-5-5-5-|
E:|---------------------------------0-0-0-0-0-0-0-0-----------------|

e:|-----------------------------------------------------------------|
B:|-----------------------------------------------------------------|
G:|-5-5-5-5-5-5-5-5-5-5-5-5-5-5-5-5-7-7-7-7-7-7-7-7-7-7-7-7-7-7-7-7-|
D:|-5-5-5-5-5-5-5-5-5-5-5-5-5-5-5-5-7-7-7-7-7-7-7-7-7-7-7-7-7-7-7-7-|
A:|-3-3-3-3-3-3-3-3-3-3-3-3-3-3-3-3-5-5-5-5-5-5-5-5-5-5-5-5-5-5-5-5-|
E:|-----------------------------------------------------------------|

Gtr II

e:|---------------------------------------------------------------------|
B:|---------------------------------------------------------------------|
G:|---------------------------------------------------------------------|
D:|-10101010101010101010101010101010/1212121212121212/14141414/12121212-|
A:|--x-x-x-x-x-x-x-x-x-x-x-x-x-x-x-x--x-x-x-x-x-x-x-x--x-x-x-x--x-x-x-x-|
E:|--8-8-8-8-8-8-8-8-8-8-8-8-8-8-8-8/1010101010101010/12121212/10101010-|

e:|-----------------------------------------------------------|
B:|-----------------------------------------------------------|
G:|-----------------------------------12/11-12/14-12/11-12/14-|
D:|-1212121212121212-1212121212121212--x--x--x--x--x--x--x--x-|
A:|-1010101010101010--9-9-9-9-9-9-9-9-10/-9-10/12-10/-9-10/12-|
E:|-----------------------------------------------------------|


e:|---------------------------------------------------------------------|
B:|---------------------------------------------------------------------|
G:|---------------------------------------------------------------------|
D:|-10101010101010101010101010101010/1212121212121212/14141414/12121212-|
A:|--x-x-x-x-x-x-x-x-x-x-x-x-x-x-x-x--x-x-x-x-x-x-x-x--x-x-x-x--x-x-x-x-|
E:|--8-8-8-8-8-8-8-8-8-8-8-8-8-8-8-8/1010101010101010/12121212/10101010-|

e:|--------------------------------------------------------------|
B:|--------------------------------------------------------------|
G:|-----------------------------------12/11-12/14-12/11-12/14/16-|
D:|-1212121212121212-1212121212121212--x--x--x--x--x--x--x--x--x-|
A:|-1010101010101010--9-9-9-9-9-9-9-9-10/-9-10/12-10/-9-10/12/14-|
E:|--------------------------------------------------------------|

e:|-------------------------------------------------------------------|
B:|-------------------------------------------------------------------|
G:|-------------------------------------------------------------------|
D:|-10101010101010101010101010101010/12121212121212121212121212121212-|
A:|--x-x-x-x-x-x-x-x-x-x-x-x-x-x-x-x--x-x-x-x-x-x-x-x-x-x-x-x-x-x-x-x-|
E:|--8-8-8-8-8-8-8-8-8-8-8-8-8-8-8-8/10101010101010101010101010101010-|

Before Chorus:

Gtr I

       [Use flanger here]
e:|-------------------------------------------------------|
B:|-------------------------------------------------------|
G:|---------------------------------------------------7-7-|
D:|---------------------------5-5-5-5-5-5-5-5-7-7-7-7-7-7-|
A:|---------------------------3-3-3-3-3-3-3-3-5-5-5-5-5-5-|
E:|-------------------------------------------------------|
PM                            * * * * * * * * * * * *

Gtr II

e:|----------------------------------------------------------|
B:|----------------------------------------------------------|
G:|-21~~~~~~~~~~~~~~~~~~~~~~---------------------------------|
D:|--x-------------------------------------------------12-12-|
A:|-19~~~~~~~~~~~~~~~~~~~~~~-1010101010101010-12121212-12-12-|
E:|---------------------------8-8-8-8-8-8-8-8-10101010-10-10-|
PM                            * * * * * * * *  * * * *

Repeat Chorus (x2)

Outro:

Gtr I (x2)

e:|--------------------------------------------------------------------|
B:|--------------------------------------------------------------------|
G:|--------------------------------------------------------------------|
D:|-9-9-9-9-9-9-9-9-10101010-7-7-7-7-9-9-9-9-9-9-9-9-10101010-13131313-|
A:|-7-7-7-7-9-9-9-9-10101010-7-7-7-7-7-7-7-7-9-9-9-9-10101010-13131313-|
E:|-0-0-0-0-7-7-7-7-8-8-8-8--5-5-5-5-0-0-0-0-7-7-7-7-8-8-8-8--11111111-|

Gtr II (comes in on the second repeat of Gtr I)

e:|-------------------------------------------------------------------|
B:|-------------------------------1212-1010-8-8----1212-1010-8-8-1010-|
G:|-9-9-9--9-9-9--9-9-9-9-9-9-9-9---------------9-9-------------------|
D:|-x-x-x--x-x-x--x-x-x-x-x-x-x-x-------------------------------------|
A:|-7-7-7--7-7-7--7-7-7-7-7-7-7-7-------------------------------------|
E:|-------------------------------------------------------------------|

e:|------------------------------------|
B:|-1212-1010-8-8-------------8-8-1010-|
G:|---------------9-9-7-7-9-9----------|
D:|------------------------------------|
A:|------------------------------------|
E:|------------------------------------|

End On:

Both Gtr's

e:|---|
B:|---|
G:|---|
D:|-9-|
A:|-7-|
E:|-0-|

------------------
III: To The End
------------------

Gtr I Ray Toro: Standard Tuning (e,B,G,D,A,E)
Gtr II Frank Iero: Standard Tuning (e,B,G,D,A,E)

Intro:

Gtr I

e:|-----------------------------------------------------------|
B:|-6-6--6-6-6--10/9-9--9-6-6--6-6-6--6-6-6--10/9-9--9-6-6--6-|
G:|-7-7--7-7-7---7-7-7--7-7-7--7-6-6--6-6-6---6-6-6--6-6-6--6-|
D:|-x-x--x-x-x---x-x-x--x-x-x--x-x-x--x-x-x---x-x-x--x-x-x--x-|
A:|-5-5--5-5-5---5-5-5--5-5-5--5-4-4--4-4-4---4-4-4--4-4-4--4-|
E:|-----------------------------------------------------------|

e:|---------------------------------------------------------|
B:|--------2-2--2-5-5--5/3-3--3-----------------------------|
G:|-3-3--3-3-3--3-3-3--3-3-3--3-3-3--3-3-3--3-2-2--2-2-2--2-|
D:|-x-x--x-x-x--x-x-x--x-x-x--x-3-3--3-3-3--3-x-x--x-x-x--x-|
A:|-1-1--1-1-1--1-1-1--1-1-1--1-x-x--x-x-x--x-0-0--0-0-0--0-|
E:|-----------------------------3-3--3-3-3--3---------------|

Verse I:

Gtr I

e:|-----------------------------------------------------------|
B:|-6-6--6-6-6--10/9-9--9-6-6--6-6-6--6-6-6--10/9-9--9-6-6--6-|
G:|-7-7--7-7-7---7-7-7--7-7-7--7-6-6--6-6-6---6-6-6--6-6-6--6-|
D:|-x-x--x-x-x---x-x-x--x-x-x--x-x-x--x-x-x---x-x-x--x-x-x--x-|
A:|-5-5--5-5-5---5-5-5--5-5-5--5-4-4--4-4-4---4-4-4--4-4-4--4-|
E:|-----------------------------------------------------------|

e:|---------------------------------------------------------|
B:|--------2-2--2-5-5--5/3-3--3-----------------------------|
G:|-3-3--3-3-3--3-3-3--3-3-3--3-3-3--3-3-3--3-2-2--2-2-2--2-|
D:|-x-x--x-x-x--x-x-x--x-x-x--x-3-3--3-3-3--3-x-x--x-x-x--x-|
A:|-1-1--1-1-1--1-1-1--1-1-1--1-x-x--x-x-x--x-0-0--0-0-0--0-|
E:|-----------------------------3-3--3-3-3--3---------------|

Gtr II

e:|----------------------------------------------|
B:|-----------------------------------------10p8-|
G:|------9-11-12-11-9---------9h10------8h9------| (x3)
D:|-9-11--------------11-9h11------9h11----------|
A:|----------------------------------------------|
E:|----------------------------------------------|

e:|----------------------------------|
B:|----------------------------------|
G:|------9-11-12-11-9----------------|
D:|-9-11--------------11-11^(12)r11~-|
A:|----------------------------------|
E:|----------------------------------|

Pre-Chorus I:

Gtr I

e:|-----------------------------------------------------------------|
B:|-3-3-3-3-3-3-3-3-1-1-1-1-3-3-3-3-3-3-3-3-3-3-3-3-3-3-3-3-3-3-3-3-|
G:|-3-3-3-3-3-3-3-3-3-3-3-3-3-3-3-3-3-3-3-3-3-3-3-3-2-2-2-2-2-2-2-2-|
D:|-3-3-3-3-3-3-3-3-3-3-3-3-3-3-3-3-3-3-3-3-3-3-3-3-3-3-3-3-3-3-3-3-|
A:|-1-1-1-1-1-1-1-1-1-1-1-1-1-1-1-1-0-0-0-0-0-0-0-0-0-0-0-0-0-0-0-0-|
E:|-----------------------------------------------------------------|

e:|-----------------------------------------------------------------|
B:|-3-3-3-3-3-3-3-3-3-3-3-3-3-3-3-3-3-3-3-3-3-3-3-3-3-3-3-3-3-3-3-3-|
G:|-2-2-2-2-2-2-2-2-1-1-1-1-1-1-1-1-2-2-2-2-2-2-2-2-2-2-2-2-2-2-2-2-|
D:|-3-3-3-3-3-3-3-3-3-3-3-3-3-3-3-3-3-3-3-3-3-3-3-3-3-3-3-3-3-3-3-3-|
A:|-0-0-0-0-0-0-0-0-0-0-0-0-0-0-0-0-0-0-0-0-0-0-0-0-0-0-0-0-0-0-0-0-|
E:|-----------------------------------------------------------------|

Gtr II

e:|--------------------------------------------------------------------|
B:|--------------------------------------------------------------------|
G:|-7~~~~~~~~~~~~~~~~-5~~~~~~~~~~~~~~~~--------------------------------|
D:|-7~~~~~~~~~~~~~~~~-5~~~~~~~~~~~~~~~~-7~~~~~~~~~~~~-7~-7/8/7-8/10/12-|
A:|-5~~~~~~~~~~~~~~~~-3~~~~~~~~~~~~~~~~-7~~~~~~~~~~~~-x--x-x-x-x--x--x-|
E:|-------------------------------------5~~~~~~~~~~~~-5~-5/6/5-6/-8/10-|

Chorus I:

Gtr I

e:|-------------------------------------------|
B:|-----------------------8--8-8--8-6--6-5--5-|
G:|-7--7-7--7-9--9-10--10-x--x-x--x-x--x-x--x-|
D:|-7--7-7--7-7--7--7---7-5--5-5--5-5--5-5--5-|
A:|-5--5-5--5-5--5--5---5-3--3-3--3-3--3-3--3-|
E:|-------------------------------------------|

e:|-----------------------------------------|
B:|-1--1-1--1-1--1-1--1-3--3-3--5-5--3-3--3-|
G:|-2--2-2--2-2--2-2--2-3--3-3--3-3--3-3--3-|
D:|-2--2-2--2-2--2-2--2-x--x-x--x-x--x-x--x-|
A:|-0--0-0--0-0--0-0--0-1--1-1--1-1--1-1--1-|
E:|-----------------------------------------|

Gtr II

e:|-----------------------------------------|
B:|-----------------------------------------|
G:|-7--7-7--7-7--7-7--7-5--5-5--5-5--5-5--5-|
D:|-7--7-7--7-7--7-7--7-5--5-5--5-5--5-5--5-|
A:|-5--5-5--5-5--5-5--5-3--3-3--3-3--3-3--3-|
E:|-----------------------------------------|

e:|-----------------------------------------|
B:|-----------------------------------------|
G:|-2--2-2--2-2--2-2--2-3--3-3--3-3--3-3--3-|
D:|-2--2-2--2-2--2-2--2-3--3-3--3-3--3-3--3-|
A:|-0--0-0--0-0--0-0--0-1--1-1--1-1--1-1--1-|
E:|-----------------------------------------|

Pre-Verse:

Gtr I

e:|---------------|
B:|-6----6-6----6-|
G:|-7----7-7----7-|
D:|-x----x-x----x-|
A:|-5----5-5----5-|
E:|---------------|

Gtr II

e:|----------------------------------------------|
B:|-----------------------------------------10p8-|
G:|------9-11-12-11-9---------9h10------8h9------|
D:|-9-11--------------11-9h11------9h11----------|
A:|----------------------------------------------|
E:|----------------------------------------------|

Verse II:

Gtr I (x2)

e:|-----------------------------------------------------------|
B:|-6-6--6-6-6--10/9-9--9-6-6--6-6-6--6-6-6--10/9-9--9-6-6--6-|
G:|-7-7--7-7-7---7-7-7--7-7-7--7-6-6--6-6-6---6-6-6--6-6-6--6-|
D:|-x-x--x-x-x---x-x-x--x-x-x--x-x-x--x-x-x---x-x-x--x-x-x--x-|
A:|-5-5--5-5-5---5-5-5--5-5-5--5-4-4--4-4-4---4-4-4--4-4-4--4-|
E:|-----------------------------------------------------------|

e:|---------------------------------------------------------|
B:|--------2-2--2-5-5--5/3-3--3-----------------------------|
G:|-3-3--3-3-3--3-3-3--3-3-3--3-3-3--3-3-3--3-2-2--2-2-2--2-|
D:|-x-x--x-x-x--x-x-x--x-x-x--x-3-3--3-3-3--3-x-x--x-x-x--x-|
A:|-1-1--1-1-1--1-1-1--1-1-1--1-x-x--x-x-x--x-0-0--0-0-0--0-|
E:|-----------------------------3-3--3-3-3--3---------------|

Gtr II (x7)

e:|----------------------------------------------|
B:|-----------------------------------------10p8-|
G:|------9-11-12-11-9---------9h10------8h9------|
D:|-9-11--------------11-9h11------9h11----------|
A:|----------------------------------------------|
E:|----------------------------------------------|

e:|----------------------------------|
B:|----------------------------------|
G:|------9-11-12-11-9----------------|
D:|-9-11--------------11-11^(12)r11~-|
A:|----------------------------------|
E:|----------------------------------|

Pre-Chorus II:

Gtr I

e:|-----------------------------------------------------------------|
B:|-3-3-3-3-3-3-3-3-1-1-1-1-3-3-3-3-3-3-3-3-3-3-3-3-3-3-3-3-3-3-3-3-|
G:|-3-3-3-3-3-3-3-3-3-3-3-3-3-3-3-3-3-3-3-3-3-3-3-3-2-2-2-2-2-2-2-2-|
D:|-3-3-3-3-3-3-3-3-3-3-3-3-3-3-3-3-3-3-3-3-3-3-3-3-3-3-3-3-3-3-3-3-|
A:|-1-1-1-1-1-1-1-1-1-1-1-1-1-1-1-1-0-0-0-0-0-0-0-0-0-0-0-0-0-0-0-0-|
E:|-----------------------------------------------------------------|

e:|-----------------------------------------------------------------|
B:|-3-3-3-3-3-3-3-3-3-3-3-3-3-3-3-3-3-3-3-3-3-3-3-3-3-3-3-3-3-3-3-3-|
G:|-2-2-2-2-2-2-2-2-1-1-1-1-1-1-1-1-2-2-2-2-2-2-2-2-2-2-2-2-2-2-2-2-|
D:|-3-3-3-3-3-3-3-3-3-3-3-3-3-3-3-3-3-3-3-3-3-3-3-3-3-3-3-3-3-3-3-3-|
A:|-0-0-0-0-0-0-0-0-0-0-0-0-0-0-0-0-0-0-0-0-0-0-0-0-0-0-0-0-0-0-0-0-|
E:|-----------------------------------------------------------------|

Gtr II

e:|-----------------------------------------------------------------|
B:|-----------------------------------------------------------------|
G:|-7-7-7-7-7-7-7-7-7-7-7-7-7-7-7-7-5-5-5-5-5-5-5-5-5-5-5-5-5-5-5-5-|
D:|-7-7-7-7-7-7-7-7-7-7-7-7-7-7-7-7-5-5-5-5-5-5-5-5-5-5-5-5-5-5-5-5-|
A:|-5-5-5-5-5-5-5-5-5-5-5-5-5-5-5-5-3-3-3-3-3-3-3-3-3-3-3-3-3-3-3-3-|
E:|-----------------------------------------------------------------|

e:|--------------------------------------------------|
B:|--------------------------------------------------|
G:|--------------------------------------------------|
D:|-7-7-7-7-7-7-7-7-7-7-7-7-7-7-7-7-7~-7/8/7-8/10/12-|
A:|-7-7-7-7-7-7-7-7-7-7-7-7-7-7-7-7-x--x-x-x-x--x--x-|
E:|-5-5-5-5-5-5-5-5-5-5-5-5-5-5-5-5-5~-5/6/5-6/-8/10-|

Chorus II:

Gtr I (x2)

e:|-------------------------------------------|
B:|-----------------------8--8-8--8-6--6-5--5-|
G:|-7--7-7--7-9--9-10--10-x--x-x--x-x--x-x--x-|
D:|-7--7-7--7-7--7--7---7-5--5-5--5-5--5-5--5-|
A:|-5--5-5--5-5--5--5---5-3--3-3--3-3--3-3--3-|
E:|-------------------------------------------|

e:|-----------------------------------------------------------------|
B:|-1-1-1-1-1-1-1-1-1-1-1-1-1-1-1-1-3-3-3-3-3-3-3-3-5-5-5-5-3-3-3-3-|
G:|-2-2-2-2-2-2-2-2-2-2-2-2-2-2-2-2-3-3-3-3-3-3-3-3-3-3-3-3-3-3-3-3-|
D:|-2-2-2-2-2-2-2-2-2-2-2-2-2-2-2-2-x-x-x-x-x-x-x-x-x-x-x-x-x-x-x-x-|
A:|-0-0-0-0-0-0-0-0-0-0-0-0-0-0-0-0-1-1-1-1-1-1-1-1-1-1-1-1-1-1-1-1-|
E:|-----------------------------------------------------------------|

Gtr II (x2)

e:|-----------------------------------------|
B:|-----------------------------------------|
G:|-7--7-7--7-7--7-7--7-5--5-5--5-5--5-5--5-|
D:|-7--7-7--7-7--7-7--7-5--5-5--5-5--5-5--5-|
A:|-5--5-5--5-5--5-5--5-3--3-3--3-3--3-3--3-|
E:|-----------------------------------------|

e:|-----------------------------------------------------------------|
B:|-----------------------------------------------------------------|
G:|-2-2-2-2-2-2-2-2-2-2-2-2-2-2-2-2-3-3-3-3-3-3-3-3-3-3-3-3-3-3-3-3-|
D:|-2-2-2-2-2-2-2-2-2-2-2-2-2-2-2-2-3-3-3-3-3-3-3-3-3-3-3-3-3-3-3-3-|
A:|-0-0-0-0-0-0-0-0-0-0-0-0-0-0-0-0-1-1-1-1-1-1-1-1-1-1-1-1-1-1-1-1-|
E:|-----------------------------------------------------------------|

Pre Solo:

Gtr I (Just bend and hold these chords)

e:|---|---|
B:|---|---|
G:|-7-|-5-|
D:|-x-|-x-|
A:|-5-|-3-|
E:|---|---|

Gtr II

e:|--------------------------------------------|
B:|--------------------------------------------|
G:|--5^7-------------------------5/7~~~-7-9-6~-|
D:|--------------------------------------------|
A:|--------------------------------------------|
E:|--------------------------------------------|

Solo:

Gtr I (x2)

e:| -----------------------------------------------------------------|
B:|---------------8------8-10----8-10-11p10p8--11-8-10----8----------|
G:|-7-9-10-7-9-10---9-10------10-----------------------10---9-10-7-9-|
D:|------------------------------------------------------------------|
A:|------------------------------------------------------------------|
E:|------------------------------------------------------------------|

e:|-----------------|
B:|-----------------|
G:|-5-7-4-7-9-7p5p4-|
D:|-----------------|
A:|-----------------|
E:|-----------------|

Gtr II

e:|-----------------------------------------------------------------|
B:|-----------------------------------------------------------------|
G:|-7-7-7-7-7-7-7-7-------------------------------------------------|
D:|-7-7-7-7-7-7-7-7-8-8-8-8-8-8-8-8-7-7-7-7-7-7-7-7-8-8-8-8-8-8-8-8-|
A:|-5-5-5-5-5-5-5-5-8-8-8-8-8-8-8-8-7-7-7-7-7-7-7-7-8-8-8-8-8-8-8-8-|
E:|-----------------6-6-6-6-6-6-6-6-5-5-5-5-5-5-5-5-6-6-6-6-6-6-6-6-|

e:|-----------------------------------------------------------------|
B:|-----------------------------------------------------------------|
G:|-7-7-7-7-7-7-7-7---------------------------------5-5-5-5-6-6-6-6-|
D:|-7-7-7-7-7-7-7-7-8-8-8-8-8-8-8-8-5-5-5-5-5-5-5-5-5-5-5-5-6-6-6-6-|
A:|-5-5-5-5-5-5-5-5-8-8-8-8-8-8-8-8-5-5-5-5-5-5-5-5-3-3-3-3-4-4-4-4-|
E:|-----------------6-6-6-6-6-6-6-6-3-3-3-3-3-3-3-3-----------------|

Repeat Chorus II (x2)

Outro:

Gtr I

e:|-----------------------------------------------------------------|
B:|-----------------------------------------------------------------|
G:|-7-7-7-7-7-7-7-7-7-7-7-7-7-7-7-7-5-5-5-5-5-5-5-5-5-5-5-5-5-5-5-5-|
D:|-7-7-7-7-7-7-7-7-7-7-7-7-7-7-7-7-5-5-5-5-5-5-5-5-5-5-5-5-5-5-5-5-|
A:|-5-5-5-5-5-5-5-5-5-5-5-5-5-5-5-5-3-3-3-3-3-3-3-3-3-3-3-3-3-3-3-3-|
E:|-----------------------------------------------------------------|

e:|-----------------------------------------------------------------|
B:|-----------------------------------------------------------------|
G:|-2-2-2-2-2-2-2-2-2-2-2-2-2-2-2-2-3-3-3-3-3-3-3-3-3-3-3-3-3-3-3-3-|
D:|-2-2-2-2-2-2-2-2-2-2-2-2-2-2-2-2-3-3-3-3-3-3-3-3-3-3-3-3-3-3-3-3-|
A:|-0-0-0-0-0-0-0-0-0-0-0-0-0-0-0-0-1-1-1-1-1-1-1-1-1-1-1-1-1-1-1-1-|
E:|-----------------------------------------------------------------|

Gtr II

e:|------------------------------------------------------------------|
B:|------------------------------------------------------------------|
G:|-9-9-9-9-9-9-9-9/7-7-7-7-7-7-7-7-9-9-9-9/7-7-7-7/1010101010101010-|
D:|-x-x-x-x-x-x-x-x-x-x-x-x-x-x-x-x-x-x-x-x-x-x-x-x--x-x-x-x-x-x-x-x-|
A:|-7-7-7-7-7-7-7-7/5-5-5-5-5-5-5-5-7-7-7-7/5-5-5-5/-8-8-8-8-8-8-8-8-|
E:|------------------------------------------------------------------|

e:|---------------------------------------------------------------------|
B:|---------------------------------------------------------------------|
G:|-12121212/14141414/1212121212121212-10101010/7-7-7-7/9-9-9-9-9-9-9-9-|
D:|--x-x-x-x--x-x-x-x--x-x-x-x-x-x-x-x--x-x-x-x-x-x-x-x-x-x-x-x-x-x-x-x-|
A:|-10101010/12121212/1010101010101010--8-8-8-8/5-5-5-5/7-7-7-7-7-7-7-7-|
E:|---------------------------------------------------------------------|

End on:

Both Gtrs

e:|-----------|
B:|-----------|
G:|-7~~~~~~~~-|
D:|-7~~~~~~~~-|
A:|-5~~~~~~~~-|
E:|-----------|


-------------------------------------------------------
IV: You Know What They Do To Guys Like Use In Prison
-------------------------------------------------------

Gtr I: Ray Toro: Standard Tuning (e,B,G,D,A,E)
Gtr II: Frank Iero: Standard Tuning (e,B,G,D,A,E)
Gtr III: Ray Toro: Standard Tuning (e,B,G,D,A,E)

Intro:

Gtr I

e:|---------------------------------------|
B:|---------------------------------------|
G:|-3-3-3-3-3-3-3-3--8--8--8--8--8--8-8-8-|
D:|-5-5-5-5-5-5-5-5-10-10-10-10-10-10-9-9-|
A:|---------------------------------------|
E:|---------------------------------------|

e:|---------------------------------|
B:|-------------------------3-3-3-3-|
G:|-7-7-7-7-7-7-7-7-7-7-7-7-2-2-2-2-|
D:|-8-8-8-8-8-8-8-8-7-7-7-7---------|
A:|---------------------------------|
E:|---------------------------------|

Gtr II

e:|--------|
B:|-<5>~~~-|
G:|--------|
D:|--------|
A:|--------|
E:|--------|

Verse I:

Gtr I Just plays intro

Gtr II

e:|--------------------------------------|
B:|--------------------------------------|
G:|------------------5-------7-7-7-8-7^r-|
D:|-7-7-7-7p5~-7-7-7---8^r-7-------------|
A:|--------------------------------------|
E:|--------------------------------------|

e:|----------------|
B:|----------------|
G:|----------------|
D:|-7h8~-8-10-8-7~-|
A:|----------------|
E:|----------------|

e:|---------------------------------------------------------|
B:|---------------------------------------------------------|
G:|------------------5-------7-7-7-8-7^r~-7h8p7h8p7h8p7-7/5-|
D:|-7-7-7-7p5~-7-7-7---8^r-7--------------------------------|
A:|---------------------------------------------------------|
E:|---------------------------------------------------------|

e:|-------|
B:|-------|
G:|-------|
D:|-8-7-5-|
A:|-------|
E:|-------|

Chorus:


Chorus:

Gtr I (x2)

e:|-----------------------------------------------------------------|
B:|-----------------------------------------------------------------|
G:|---------------------------------5-5-5-5-5-5-5-5-5-5-5-5-5-5-5-5-|
D:|-5-5-5-5-5-5-5-5-5-5-5-5-5-5-5-5-5-5-5-5-5-5-5-5-5-5-5-5-5-5-5-5-|
A:|-5-5-5-5-5-5-5-5-5-5-5-5-5-5-5-5-3-3-3-3-3-3-3-3-3-3-3-3-3-3-3-3-|
E:|-3-3-3-3-3-3-3-3-3-3-3-3-3-3-3-3---------------------------------|

e:|-------------------------------------------------------------------|
B:|-------------------------------------------------------------------|
G:|---------------------------------7-7-7-7-7-7/8-8/11111111/12121212-|
D:|-3-3-3-3-3-3-3-3-3-3-3-3-3-3-3-3-x-x-x-x-x-x-x-x--x-x-x-x--x-x-x-x-|
A:|-3-3-3-3-3-3-3-3-3-3-3-3-3-3-3-3-5-5-5-5-5-5/6-6/-9-9-9-9/10101010-|
E:|-1-1-1-1-1-1-1-1-1-1-1-1-1-1-1-1-----------------------------------|

Gtr II (x2)

e:|-----------------------------------------------------------------|
B:|-----------------------------------------------------------------|
G:|---------------------------------5-5-5-5-5-5-5-5-5-5-5-5-5-5-5-5-|
D:|-5-5-5-5-5-5-5-5-5-5-5-5-5-5-5-5-5-5-5-5-5-5-5-5-5-5-5-5-5-5-5-5-|
A:|-5-5-5-5-5-5-5-5-5-5-5-5-5-5-5-5-3-3-3-3-3-3-3-3-3-3-3-3-3-3-3-3-|
E:|-3-3-3-3-3-3-3-3-3-3-3-3-3-3-3-3---------------------------------|

e:|-----------------------------------------------------------------|
B:|-----------------------------------------------------------------|
G:|---------------------------------7-7-7-7-7-7/8-8/7-7/5-5/3-3-2-2-|
D:|-3-3-3-3-3-3-3-3-3-3-3-3-3-3-3-3-x-x-x-x-x-x-x-x-x-x-x-x-x-x-x-x-|
A:|-3-3-3-3-3-3-3-3-3-3-3-3-3-3-3-3-5-5-5-5-5-5/6-6/5-5/3-3/1-1-0-0-|
E:|-1-1-1-1-1-1-1-1-1-1-1-1-1-1-1-1---------------------------------|

Verse II:

Gtr I

e:|-----------------------------------------------------------------|
B:|-----------------------------------------------------------------|
G:|-----------------------------------------------------------------|
D:|---------------------------------5-5-5-5-5-5-5-5-3-3-3-3-3-3-3-3-|
A:|-5-5-5-5-5-5-5-5-5-5-5-5-5-5-5-5-3-3-3-3-3-3-3-3-1-1-1-1-1-1-1-1-|
E:|-3-3-3-3-3-3-3-3-3-3-3-3-3-3-3-3---------------------------------|
PM  * * * * * * * * * * * * * * * * * * * * * * * * * * * * * * * *

e:|-----------------------------------------------------------------|
B:|-----------------------------------------------------------------|
G:|-----------------------------------------------------------------|
D:|-2-2-2-2-2-2-2-2-2-2-2-2-2-2-2-2-7-7-7-7-7-7-7-7-7-7-7-7-7-7-7-7-|
A:|-0-0-0-0-0-0-0-0-0-0-0-0-0-0-0-0-5-5-5-5-5-5-5-5-5-5-5-5-5-5-5-5-|
E:|-----------------------------------------------------------------|
PM  * * * * * * * * * * * * * * * * * * * * * * * * * * * * * * * *

e:|-------------------------------------------------------------|
B:|-------------------------------------------------------------|
G:|-------------------------------------------------------------|
D:|-----5-----5-----5-----5-----5-5-5-5-5-5-5-5-3-3-3-3-3-3-3-3-|
A:|-5-5-5-5-5-5-5-5-5-5-5-5-5-5-3-3-3-3-3-3-3-3-1-1-1-1-1-1-1-1-|
E:|-3-3-3-3-3-3-3-3-3-3-3-3-3-3---------------------------------|
PM  * *   * *   * *   * *   * * * * * * * * * * * * * * * * * *

e:|-----------------------------------------------------------------|
B:|-----------------------------------------------------------------|
G:|-----------------------------------------------------------------|
D:|-2-2-2-2-2-2-2-2-2-2-2-2-2-2-2-2-7-7-7-7-7-7-7-7-7-7-7-7-7-7-7-7-|
A:|-0-0-0-0-0-0-0-0-0-0-0-0-0-0-0-0-5-5-5-5-5-5-5-5-5-5-5-5-5-5-5-5-|
E:|-----------------------------------------------------------------|
PM  * * * * * * * * * * * * * * * * * * * * * * * *

Gtr II

Gtr II (Tremolo Pick these notes)

e:|-----------------------------------------|
B:|-----------------------------------------|
G:|-----------------------------------------|
D:|-12-8-10-7--8-5--7--8-7-10-8-7-8-7-5-4-5-|
A:|-----------------------------------------|
E:|-----------------------------------------|

                                (Stop Tremelo picking here)
e:|----------------------------|-------------------|
B:|----------------------------|-------------------|
G:|-7-8-7-10-8-7-7h8p7/5-------|-7h8p7h8p7/5-------|
D:|----------------------7-8-7-|-------------8-7-5-|
A:|----------------------------|-------------------|
E:|----------------------------|-------------------|

Repeat Chorus (x2)

Bridge Pt I:

Gtr I

e:|---------------------------------------|
B:|---------------------------------------|
G:|-12~--14-15--12~--14-15--12~--14-12-10-|
D:|-x----x--x---x----x--x---x----x--x--x--|
A:|-10---12-13--10~--12-13--10~--12-10-8--|
E:|---------------------------------------|

Gtr II

e:|-----------------------------------------------------------------|
B:|-----------------------------------------------------------------|
G:|-----------------------------------------------------------------|
D:|---------------------------------3-3-3-3-3-3-3-3-3-3-3-3-3-3-3-3-|
A:|-5-5-5-5-5-5-5-5-5-5-5-5-5-5-5-5-1-1-1-1-1-1-1-1-1-1-1-1-1-1-1-1-|
E:|-3-3-3-3-3-3-3-3-3-3-3-3-3-3-3-3---------------------------------|
PM  * * * * * * * * * * * * * * * * * * * * * * * * * * * * * * * *

e:|-----------------------------------------------------------------|
B:|-----------------------------------------------------------------|
G:|-----------------------------------------------------------------|
D:|-7-7-7-7-7-7-7-7-7-7-7-7-7-7-7-7-2-2-2-2-2-2-2-2-2-2-2-2-2-2-2-2-|
A:|-5-5-5-5-5-5-5-5-5-5-5-5-5-5-5-5-0-0-0-0-0-0-0-0-0-0-0-0-0-0-0-0-|
E:|-----------------------------------------------------------------|
PM  * * * * * * * * * * * * * * * * * * * * * * * * * * * * * * * *

Bridge Pt II:

Gtr I

e:|-------------------|
B:|-15-----15----15---|
G:|---15-----15----15-|
D:|-----15-----15-----| (x2)
A:|-------------------|
E:|-------------------|

e:|---------------------|
B:|-16-----16----16-----|
G:|---15-----15----15---|
D:|-----15-----15----15-| (x2)
A:|---------------------|
E:|---------------------|

e:|-------------------------------------|
B:|-15-----15----15---13----13-----13---|
G:|---15-----15----15---15----15-----15-|
D:|-----15-----15---------15----15------|
A:|-------------------------------------|
E:|-------------------------------------|

Gtr II (repeat bridge Pt I)

Gtr III

e:|-------------------------------------------------------------------|
B:|-------------------------------------------------------------------|
G:|-15151515151515151515151515151515-17171717171717171717171717171717-|
D:|-x-x-x-x-x-x-x-x-x-x-x-x-x-x-x-x--x-x-x-x-x-x-x-x-x-x-x-x-x-x-x-x--|
A:|-13131313131313131313131313131313-15151515151515151515151515151515-|
E:|-------------------------------------------------------------------|

e:|-----------------------------------|
B:|-----------------------------------|
G:|-1515151515151515-1414141414141414-|
D:|-x-x-x-x-x-x-x-x--x-x-x-x-x-x-x-x--|
A:|-1313131313131313-1212121212121212-|
E:|-----------------------------------|

End bridge on:

Gtr's I & III

e:|-------------|
B:|-------------|
G:|-15~-17~-15~-|
D:|-x---x---x---|
A:|-13~-15~-13~-|
E:|-------------|

Gtr II

e:|----|
B:|----|
G:|----|
D:|-5~-|
A:|-5~-|
E:|-3~-|

Solo:

(I don't know Gtr II's parts here, so I've tabbed all the lead as one guitar)

Gtr I (Use Wah)

e:|------------------------------------|
B:|-/16~-------------------------------|
G:|-------7-5-------0~--5^7r5----------|
D:|-----------8-7-8-----------8-7-5-3~-|
A:|------------------------------------|
E:|------------------------------------|

e:|--------------------------------|
B:|--------------------------------|
G:|-6^7r6--------------------------|
D:|-------8-7-5-[4]~~-6p4-5p7-7/8~-|
A:|--------------------------------|
E:|--------------------------------|

e:|-----------------------------------------------12p10p8---------|
B:|---------------------------------------8h10h11---------11p10p8-|
G:|-----------------7h9h10-7h9h10-9h10h11-------------------------|
D:|-8h10h11-8h10h11-----------------------------------------------|
A:|---------------------------------------------------------------|
E:|---------------------------------------------------------------|

e:|----13----12----10----------------------|
B:|-10----10----10-------------------------|
G:|-------------------12h14-12-12^14r12-10-|
D:|----------------------------------------|
A:|----------------------------------------|
E:|----------------------------------------|

e:|----------------171718182020-21^21^21^-|
B:|-1616-1818-2020------------------------|
G:|---------------------------------------|
D:|---------------------------------------|
A:|---------------------------------------|
E:|---------------------------------------|

Gtr II (x2)

e:|-----------------------------------------------------------------|
B:|-----------------------------------------------------------------|
G:|---------------------------------8-8-8-8-8-8-8-8-8-8-8-8-8-8-8-8-|
D:|-5-5-5-5-5-5-5-5-5-5-5-5-5-5-5-5-8-8-8-8-8-8-8-8-8-8-8-8-8-8-8-8-|
A:|-5-5-5-5-5-5-5-5-5-5-5-5-5-5-5-5-6-6-6-6-6-6-6-6-6-6-6-6-6-6-6-6-|
E:|-3-3-3-3-3-3-3-3-3-3-3-3-3-3-3-3---------------------------------|

e:|-----------------------------------------------------------------|
B:|-----------------------------------------------------------------|
G:|---------------------------------7-7-7-7-7-7-7-7-7-7-7-7-7-7-7-7-|
D:|-7-7-7-7-7-7-7-7-7-7-7-7-7-7-7-7-7-7-7-7-7-7-7-7-7-7-7-7-7-7-7-7-|
A:|-7-7-7-7-7-7-7-7-7-7-7-7-7-7-7-7-5-5-5-5-5-5-5-5-5-5-5-5-5-5-5-5-|
E:|-5-5-5-5-5-5-5-5-5-5-5-5-5-5-5-5---------------------------------|

After Solo:

Gtr I
e:|-----------------|
B:|-----------------|
G:|-3-3-3-3-3-3-3-3-|
D:|-5-5-5-5-5-5-5-5-|
A:|-----------------|
E:|-----------------|

Both Gtr's:

e:|---------------------------------|
B:|---------------------------------|
G:|-5-5-5-5-5-5-5-5-5-5-5-5-5-5-5-5-|
D:|-5-5-5-5-5-5-5-5-5-5-5-5-5-5-5-5-|
A:|-3-3-3-3-3-3-3-3-3-3-3-3-3-3-3-3-|
E:|---------------------------------|

When he says (I won't go down)

Gtr I

e:|-------------<5>~~-|-----------------------------------|
B:|-<5>~~-------------|-----------------------------------|
G:|-------------------|-7-7-7-7-7-7/8-8/11111111/12121212-|
D:|-------<4>~~-------|-x-x-x-x-x-x-x-x--x-x-x-x--x-x-x-x-|
A:|-------------------|-5-5-5-5-5-5/6-6/-9-9-9-9/10101010-|
E:|-------------------|-----------------------------------|

Gtr II

e:|-------------------|---------------------------------|
B:|-------------------|---------------------------------|
G:|-------------------|-7-7-7-7-7-7/8-8/7-7/5-5/3-3-2-2-|
D:|-------------------|-x-x-x-x-x-x-x-x-x-x-x-x-x-x-x-x-|
A:|-------------------|-5-5-5-5-5-5/6-6/5-5/3-3/1-1-0-0-|
E:|-------------------|---------------------------------|

Outro:

Gtr I

e:|-----------------------------------------------------------------------|
B:|-----------------------------------------------------------------------|
G:|-1212121212121212-14141414-15151515-1212121212121212-14141414-15151515-|
D:|-x-x-x-x-x-x-x-x--x-x-x-x--x-x-x-x--x-x-x-x-x-x-x-x--x-x-x-x--x-x-x-x--|
A:|-1010101010101010-12121212-13131313-1010101010101010-12121212-13131313-|
E:|-----------------------------------------------------------------------|

e:|----------------------------------------------------------------------|
B:|----------------------------------------------------------------------|
G:|-1010101010101010-14141414-15151515-7-7-7-7-7-7-7-7-14141414-15151515-|
D:|-x-x-x-x-x-x-x-x--x-x-x-x--x-x-x-x--x-x-x-x-x-x-x-x-x-x-x-x--x-x-x-x--|
A:|-8-8-8-8-8-8-8-8--12121212-13131313-5-5-5-5-5-5-5-5-12121212-13131313-|
E:|----------------------------------------------------------------------|

Gtr II repeats chorus

Gtr I

e:|---------------------------------------------------|
B:|---------------------------------------------------|
G:|---------------------------------------------------|
D:|-------------------------------------------------5-|
A:|-------------------------------------------------5-|
E:|-3/15\3--3/15\3--3/15\3--3/15\3--3/15\3--3/15\13-3-|

Gtr II

e:|-----------------------|
B:|-----------------------|
G:|-----------------------|
D:|---5---5---5---5---5-5-|
A:|-x-5-x-5-x-5-x-5-x-5-5-|
E:|-x-3-x-3-x-3-x-3-x-3-3-|



------------------------------
V: I'm Not Okay (I Promise)
------------------------------

Gtr I Ray: Standard Tuning (e,B,G,D,A,E)
Gtr II Frank: Standard Tuning (e,B,G,D,A,E)

Intro I:

Gtr I

e:|-----------------------------------------------------------------|
B:|-----------------------------------------------------------------|
G:|-7-7-7-7-7-7-7-7-7-7-7-7-7-7-7-7-7-7-7-7-7-7-7-7-7-7-7-7-7-7-7-7-|
D:|-x-x-x-x-x-x-x-x-x-x-x-x-x-x-x-x-x-x-x-x-x-x-x-x-x-x-x-x-x-x-x-x-|
A:|-5-5-5-5-5-5-5-5-5-5-5-5-5-5-5-5-5-5-5-5-5-5-5-5-5-5-5-5-5-5-5-5-|
E:|-----------------------------------------------------------------|

Gtr II

e:|-----------------------------|
B:|-----------------------------|
G:|-------------------------7-7-|
D:|-7-7-7-7-7-7-7-7-7-7-7-7-7-7-|
A:|-5-5-5-5-5-5-5-5-5-5-5-5-5-5-|
E:|-----------------------------|
PM  * * * * * * * * * * * *

Intro II:

Gtr I

e:|-------------------------------------------------------------------|
B:|-1515151515151515-1010101010101010-8-8-8-8-8-8-8-8-7-7-7-7-7-7-7-7-|
G:|--x-x-x-x-x-x-x-x--x-x-x-x-x-x-x-x-x-x-x-x-x-x-x-x-x-x-x-x-x-x-x-x-|
D:|-1212121212121212--7-7-7-7-7-7-7-7-5-5-5-5-5-5-5-5-4-4-4-4-4-4-4-4-|
A:|-------------------------------------------------------------------|
E:|-------------------------------------------------------------------|

e:|-------------------------------------------------------------------|
B:|-1515151515151515-1010101010101010-8-8-8-8-8-8-8-8-7-7-7-7-7-7-7-7-|
G:|--x-x-x-x-x-x-x-x--x-x-x-x-x-x-x-x-x-x-x-x-x-x-x-x-x-x-x-x-x-x-x-x-|
D:|-1212121212121212--7-7-7-7-7-7-7-7-5-5-5-5-5-5-5-5-4-4-4-4-4-4-4-4-|
A:|-------------------------------------------------------------------|
E:|-------------------------------------------------------------------|

e:|------------------------------------------------------------------|
B:|-8-8-8-8-8-8-8-8-1010101010101010-5-5-5-5-5-5-5-5-5-5-5-5-5-5-5-5-|
G:|-x-x-x-x-x-x-x-x--x-x-x-x-x-x-x-x-x-x-x-x-x-x-x-x-x-x-x-x-x-x-x-x-|
D:|-5-5-5-5-5-5-5-5--7-7-7-7-7-7-7-7-2-2-2-2-2-2-2-2-2-2-2-2-2-2-2-2-|
A:|------------------------------------------------------------------|
E:|------------------------------------------------------------------|

e:|--------------------------------------------------------------------|
B:|-8-8-8-8-8-8-8-8-1010101010101010-1212121212121212-1414141414141414-|
G:|-x-x-x-x-x-x-x-x--x-x-x-x-x-x-x-x--x-x-x-x-x-x-x-x--x-x-x-x-x-x-x-x-|
D:|-5-5-5-5-5-5-5-5--7-7-7-7-7-7-7-7--9-9-9-9-9-9-9-9-1111111111111111-|
A:|--------------------------------------------------------------------|
E:|--------------------------------------------------------------------|

Gtr II

e:|-----------------------------------------------------------------|
B:|-----------------------------------------------------------------|
G:|-7-7-7-7-7-7-7-7-7-7-7-7-7-7-7-7-7-7-7-7-7-7-7-7-7-7-7-7-7-7-7-7-|
D:|-7-7-7-7-7-7-7-7-7-7-7-7-7-7-7-7-7-7-7-7-7-7-7-7-7-7-7-7-7-7-7-7-|
A:|-5-5-5-5-5-5-5-5-5-5-5-5-5-5-5-5-5-5-5-5-5-5-5-5-5-5-5-5-5-5-5-5-|
E:|-----------------------------------------------------------------|

e:|-----------------------------------------------------------------|
B:|-----------------------------------------------------------------|
G:|-4-4-4-4-4-4-4-4-4-4-4-4-4-4-4-4-4-4-4-4-4-4-4-4-4-4-4-4-4-4-4-4-|
D:|-4-4-4-4-4-4-4-4-4-4-4-4-4-4-4-4-4-4-4-4-4-4-4-4-4-4-4-4-4-4-4-4-|
A:|-2-2-2-2-2-2-2-2-2-2-2-2-2-2-2-2-2-2-2-2-2-2-2-2-2-2-2-2-2-2-2-2-|
E:|-----------------------------------------------------------------|

e:|-----------------------------------------------------------------|
B:|-----------------------------------------------------------------|
G:|-----------------------------------------------------------------|
D:|-2-2-2-2-2-2-2-2-2-2-2-2-2-2-2-2-2-2-2-2-2-2-2-2-2-2-2-2-2-2-2-2-|
A:|-2-2-2-2-2-2-2-2-2-2-2-2-2-2-2-2-2-2-2-2-2-2-2-2-2-2-2-2-2-2-2-2-|
E:|-0-0-0-0-0-0-0-0-0-0-0-0-0-0-0-0-0-0-0-0-0-0-0-0-0-0-0-0-0-0-0-0-|

e:|-----------------------------------------------------------------|
B:|-----------------------------------------------------------------|
G:|-2-2-2-2-2-2-2-2-2-2-2-2-2-2-2-2-2-2-2-2-2-2-2-2-2-2-2-2-2-2-2-2-|
D:|-2-2-2-2-2-2-2-2-2-2-2-2-2-2-2-2-2-2-2-2-2-2-2-2-2-2-2-2-2-2-2-2-|
A:|-0-0-0-0-0-0-0-0-0-0-0-0-0-0-0-0-0-0-0-0-0-0-0-0-0-0-0-0-0-0-0-0-|
E:|-----------------------------------------------------------------|

Verse I:

Gtr I

e:|-------------------------------------------------------------|
B:|-------------------------------------------------------------|
G:|-----7-----7---7-----7-----7---7-----7-----7---7-----6h7-6h7-|
D:|-----7-----7---7-----7-----7---7-----7-----7---7-----7-7-7-7-|
A:|-5-5---5-5---5---5-5---5-5---5---5-5---5-5---5---5-5---------|
E:|-------------------------------------------------------------|
PM  * *   * *   *   * *   * *   *   * *   * *   *   * *

e:|-------------------------------------------------------------|
B:|-------------------------------------------------------------|
G:|-----7-----7---7-----7-----7---7-----7-----7---7-----6h7-6h7-|
D:|-----7-----7---7-----7-----7---7-----7-----7---7-----7-7-7-7-|
A:|-------------------------------------------------------------|
E:|-7-7---7-7---7---7-7---7-7---7---7-7---7-7---7---7-7---------|
PM  * *   * *   *   * *   * *   *   * *   * *   *   * *

e:|-------------------------------------------------------------|
B:|-------------------------------------------------------------|
G:|-----7-----7---7-----7-----7---7-----7-----7---7-----6h7-6h7-|
D:|-----7-----7---7-----7-----7---7-----7-----7---7-----7-7-7-7-|
A:|-------------------------------------------------------------|
E:|-0-0---0-0---0---0-0---0-0---0---0-0---0-0---0---0-0---------|
PM  * *   * *   *   * *   * *   *   * *   * *   *   * *

e:|-------------------------------------------------------------|
B:|-------------------------------------------------------------|
G:|-----7-----7---7-----7-----7---7-----7-----7---7-----6h7-6h7-|
D:|-----7-----7---7-----7-----7---7-----7-----7---7-----7-7-7-7-|
A:|-0-0---0-0---0---0-0---0-0---0---0-0---0-0---0---0-0---------|
E:|-------------------------------------------------------------|
PM  * *   * *   *   * *   * *   *   * *   * *   *   * *

Gtr II

e:|-----------------------------------------------------------------|
B:|-----------------------------------------------------------------|
G:|-----------------------------------------------------------------|
D:|-7-7-7-7-7-7-7-7-7-7-7-7-7-7-7-7-7-7-7-7-7-7-7-7-7-7-7-7-7-7-7-7-|
A:|-5-5-5-5-5-5-5-5-5-5-5-5-5-5-5-5-5-5-5-5-5-5-5-5-5-5-5-5-4-4-4-4-|
E:|-----------------------------------------------------------------|
PM  * * * * * * * * * * * * * * * * * * * * * * * * * * * * * * * *

e:|-----------------------------------------------------------------|
B:|-----------------------------------------------------------------|
G:|-----------------------------------------------------------------|
D:|-4-4-4-4-4-4-4-4-4-4-4-4-4-4-4-4-4-4-4-4-4-4-4-4-4-4-4-4-4-4-4-4-|
A:|-2-2-2-2-2-2-2-2-2-2-2-2-2-2-2-2-2-2-2-2-2-2-2-2-2-2-2-2-2-2-2-2-|
E:|-----------------------------------------------------------------|
PM  * * * * * * * * * * * * * * * * * * * * * * * * * * * * * * * *

e:|-----------------------------------------------------------------|
B:|-----------------------------------------------------------------|
G:|-----------------------------------------------------------------|
D:|-----------------------------------------------------------------|
A:|-2-2-2-2-2-2-2-2-2-2-2-2-2-2-2-2-2-2-2-2-2-2-2-2-2-2-2-2-2-2-2-2-|
E:|-0-0-0-0-0-0-0-0-0-0-0-0-0-0-0-0-0-0-0-0-0-0-0-0-0-0-0-0-0-0-0-0-|
PM  * * * * * * * * * * * * * * * * * * * * * * * * * * * * * * * *

e:|-----------------------------------------------------------------|
B:|-----------------------------------------------------------------|
G:|-----------------------------------------------------------------|
D:|-2-2-2-2-2-2-2-2-2-2-2-2-2-2-2-2-2-2-2-2-2-2-2-2-2-2-2-2-2-2-2-2-|
A:|-0-0-0-0-0-0-0-0-0-0-0-0-0-0-0-0-0-0-0-0-0-0-0-0-0-0-0-0-0-0-0-0-|
E:|-----------------------------------------------------------------|
PM  * * * * * * * * * * * * * * * * * * * * * * * * * * * * * * * *

Chorus:

Gtr I

e:|-------------------------------------------------------------------|
B:|-1515151515151515-1010101010101010-8-8-8-8-8-8-8-8-7-7-7-7-7-7-7-7-|
G:|--x-x-x-x-x-x-x-x--x-x-x-x-x-x-x-x-x-x-x-x-x-x-x-x-x-x-x-x-x-x-x-x-|
D:|-1212121212121212--7-7-7-7-7-7-7-7-5-5-5-5-5-5-5-5-4-4-4-4-4-4-4-4-|
A:|-------------------------------------------------------------------|
E:|-------------------------------------------------------------------|

e:|-------------------------------------------------------------------|
B:|-1515151515151515-1010101010101010-8-8-8-8-8-8-8-8-7-7-7-7-7-7-7-7-|
G:|--x-x-x-x-x-x-x-x--x-x-x-x-x-x-x-x-x-x-x-x-x-x-x-x-x-x-x-x-x-x-x-x-|
D:|-1212121212121212--7-7-7-7-7-7-7-7-5-5-5-5-5-5-5-5-4-4-4-4-4-4-4-4-|
A:|-------------------------------------------------------------------|
E:|-------------------------------------------------------------------|

e:|------------------------------------------------------------------|
B:|-8-8-8-8-8-8-8-8-1010101010101010-5-5-5-5-5-5-5-5-5-5-5-5-5-5-5-5-|
G:|-x-x-x-x-x-x-x-x--x-x-x-x-x-x-x-x-x-x-x-x-x-x-x-x-x-x-x-x-x-x-x-x-|
D:|-5-5-5-5-5-5-5-5--7-7-7-7-7-7-7-7-2-2-2-2-2-2-2-2-2-2-2-2-2-2-2-2-|
A:|------------------------------------------------------------------|
E:|------------------------------------------------------------------|

e:|--------------------------------------------------------------------|
B:|-8-8-8-8-8-8-8-8-1010101010101010-1212121212121212-1414141414141414-|
G:|-x-x-x-x-x-x-x-x--x-x-x-x-x-x-x-x--x-x-x-x-x-x-x-x--x-x-x-x-x-x-x-x-|
D:|-5-5-5-5-5-5-5-5--7-7-7-7-7-7-7-7--9-9-9-9-9-9-9-9-1111111111111111-|
A:|--------------------------------------------------------------------|
E:|--------------------------------------------------------------------|

Gtr II

e:|-----------------------------------------------------------------|
B:|-----------------------------------------------------------------|
G:|-7-7-7-7-7-7-7-7-7-7-7-7-7-7-7-7-7-7-7-7-7-7-7-7-7-7-7-7-7-7-7-7-|
D:|-7-7-7-7-7-7-7-7-7-7-7-7-7-7-7-7-7-7-7-7-7-7-7-7-7-7-7-7-7-7-7-7-|
A:|-5-5-5-5-5-5-5-5-5-5-5-5-5-5-5-5-5-5-5-5-5-5-5-5-5-5-5-5-5-5-5-5-|
E:|-----------------------------------------------------------------|

e:|-----------------------------------------------------------------|
B:|-----------------------------------------------------------------|
G:|-4-4-4-4-4-4-4-4-4-4-4-4-4-4-4-4-4-4-4-4-4-4-4-4-4-4-4-4-4-4-4-4-|
D:|-4-4-4-4-4-4-4-4-4-4-4-4-4-4-4-4-4-4-4-4-4-4-4-4-4-4-4-4-4-4-4-4-|
A:|-2-2-2-2-2-2-2-2-2-2-2-2-2-2-2-2-2-2-2-2-2-2-2-2-2-2-2-2-2-2-2-2-|
E:|-----------------------------------------------------------------|

e:|-----------------------------------------------------------------|
B:|-----------------------------------------------------------------|
G:|-----------------------------------------------------------------|
D:|-2-2-2-2-2-2-2-2-2-2-2-2-2-2-2-2-2-2-2-2-2-2-2-2-2-2-2-2-2-2-2-2-|
A:|-2-2-2-2-2-2-2-2-2-2-2-2-2-2-2-2-2-2-2-2-2-2-2-2-2-2-2-2-2-2-2-2-|
E:|-0-0-0-0-0-0-0-0-0-0-0-0-0-0-0-0-0-0-0-0-0-0-0-0-0-0-0-0-0-0-0-0-|

e:|-----------------------------------------------------------------|
B:|-----------------------------------------------------------------|
G:|-2-2-2-2-2-2-2-2-2-2-2-2-2-2-2-2-2-2-2-2-2-2-2-2-2-2-2-2-2-2-2-2-|
D:|-2-2-2-2-2-2-2-2-2-2-2-2-2-2-2-2-2-2-2-2-2-2-2-2-2-2-2-2-2-2-2-2-|
A:|-0-0-0-0-0-0-0-0-0-0-0-0-0-0-0-0-0-0-0-0-0-0-0-0-0-0-0-0-0-0-0-0-|
E:|-----------------------------------------------------------------|

Verse II:

Gtr I

e:|-------------------------------------------------------|
B:|-------------------------------------------------------|
G:|-----7----7------9-7-6h7-6h7-----7---7-----9-7-6h7-6h7-|
D:|-----7----7------7-7-7-7-7-7-----7---7-----7-7-7-7-7-7-|
A:|-5-5---5----5-5--------------5-5---5---5-5-------------|
E:|-------------------------------------------------------|
PM  * *   *    * *              * *   *   * *

e:|-------------------------------------------------------|
B:|-------------------------------------------------------|
G:|-----7----7------9-7-6h7-6h7-----7---7-----9-7-6h7-6h7-|
D:|-----7----7------7-7-7-7-7-7-----7---7-----7-7-7-7-7-7-|
A:|-------------------------------------------------------|
E:|-7-7---7----7-7--------------7-7---7---7-7-------------|
PM  * *   *    * *              * *   *   * *

e:|-------------------------------------------------------|
B:|-------------------------------------------------------|
G:|-----7----7------9-7-6h7-6h7-----7---7-----9-7-6h7-6h7-|
D:|-----7----7------7-7-7-7-7-7-----7---7-----7-7-7-7-7-7-|
A:|-------------------------------------------------------|
E:|-0-0---0----0-0--------------0-0---0---0-0-------------|
PM  * *   *    * *              * *   *   * *

e:|-------------------------------------------------------|
B:|-------------------------------------------------------|
G:|-----7----7------9-7-6h7-6h7-----7---7-----9-7-6h7-6h7-|
D:|-----7----7------7-7-7-7-7-7-----7---7-----7-7-7-7-7-7-|
A:|-0-0---0----0-0--------------0-0---0---0-0-------------|
E:|-------------------------------------------------------|
PM  * *   *    * *              * *   *   * *

Gtr II

e:|-----------------------------------------------------------------|
B:|-----------------------------------------------------------------|
G:|-----------------------------------------------------------------|
D:|-7-7-7-7-7-7-7-7-7-7-7-7-7-7-7-7-7-7-7-7-7-7-7-7-7-7-7-7-7-7-7-7-|
A:|-5-5-5-5-5-5-5-5-5-5-5-5-5-5-5-5-5-5-5-5-5-5-5-5-5-5-5-5-4-4-4-4-|
E:|-----------------------------------------------------------------|
PM  * * * * * * * * * * * * * * * * * * * * * * * * * * * * * * * *

e:|-----------------------------------------------------------------|
B:|-----------------------------------------------------------------|
G:|-----------------------------------------------------------------|
D:|-4-4-4-4-4-4-4-4-4-4-4-4-4-4-4-4-4-4-4-4-4-4-4-4-4-4-4-4-4-4-4-4-|
A:|-2-2-2-2-2-2-2-2-2-2-2-2-2-2-2-2-2-2-2-2-2-2-2-2-2-2-2-2-2-2-2-2-|
E:|-----------------------------------------------------------------|
PM  * * * * * * * * * * * * * * * * * * * * * * * * * * * * * * * *

e:|-----------------------------------------------------------------|
B:|-----------------------------------------------------------------|
G:|-----------------------------------------------------------------|
D:|-----------------------------------------------------------------|
A:|-2-2-2-2-2-2-2-2-2-2-2-2-2-2-2-2-2-2-2-2-2-2-2-2-2-2-2-2-2-2-2-2-|
E:|-0-0-0-0-0-0-0-0-0-0-0-0-0-0-0-0-0-0-0-0-0-0-0-0-0-0-0-0-0-0-0-0-|
PM  * * * * * * * * * * * * * * * * * * * * * * * * * * * * * * * *

e:|-----------------------------------------------------------------|
B:|-----------------------------------------------------------------|
G:|-----------------------------------------------------------------|
D:|-2-2-2-2-2-2-2-2-2-2-2-2-2-2-2-2-2-2-2-2-2-2-2-2-2-2-2-2-2-2-2-2-|
A:|-0-0-0-0-0-0-0-0-0-0-0-0-0-0-0-0-0-0-0-0-0-0-0-0-0-0-0-0-0-0-0-0-|
E:|-----------------------------------------------------------------|
PM  * * * * * * * * * * * * * * * * * * * * * * * * * * * * * * * *

Repeat Chorus

Before solo Gtr I Plays

e:|----------|
B:|----------|
G:|----------|
D:|-11^13-11-|
A:|----------|
E:|----------|

Solo:

Gtr I

e:|-----------------------------------------------7-------|
B:|-12^(14)-12^(14)-12^(14)r12-10-9~-9h10p9---------10-12-|
G:|-----------------------------------------9~--9---------|
D:|-------------------------------------------------------|
A:|-------------------------------------------------------|
E:|-------------------------------------------------------|

e:|--------------------------------------------------------------------|
B:|-12^(14)-12^(14)-12^(14)r12-10-12~-12/14-10~--10p9h10/12-10p9h10/12-|
G:|--------------------------------------------------------------------|
D:|--------------------------------------------------------------------|
A:|--------------------------------------------------------------------|
E:|--------------------------------------------------------------------|

e:|-12/14-12-10h12p10-9h10p9/7----7^(9)-7~-7~---------------7h8h10p8p7-----|
B:|----------------------------10--------------------7h8h10------------10~-|
G:|----------------------------------------------7p9-----------------------|
D:|--------------------------------------------9---------------------------|
A:|------------------------------------------------------------------------|
E:|------------------------------------------------------------------------|

Gtr II

e:|-----------------------------------------------------------------|
B:|-----------------------------------------------------------------|
G:|-----------------------------------------------------------------|
D:|-9-9-9-9-7-7-7-7-6-6-6-6-2-2-4-4-7-7-7-7-6-6-6-6-4-4-4-4-2-2-4-4-|
A:|-9-9-9-9-7-7-7-7-7-7-7-7-2-2-4-4-7-7-7-7-7-7-7-7-4-4-4-4-2-2-4-4-|
E:|-7-7-7-7-5-5-5-5-4-4-4-4-0-0-2-2-5-5-5-5-4-4-4-4-2-2-2-2-0-0-2-2-|

e:|---------------------------------|
B:|---------------------------------|
G:|---------------------------------|
D:|-9-9-9-9-7-7-7-7-6-6-6-6-2-2-4-4-|
A:|-9-9-9-9-7-7-7-7-7-7-7-7-2-2-4-4-|
E:|-7-7-7-7-5-5-5-5-4-4-4-4-0-0-2-2-|

After solo:

Both gtr's

e:|-----------------------------------------------------------------|
B:|-----------------------------------------------------------------|
G:|-----------------------------------------------------------------|
D:|-7-7-7-7-7-7-7-7-7-7-7-7-7-7-7-7-7-7-7-7-7-7-7-7-7-7-7-7-7-7-7-7-|
A:|-7-7-7-7-7-7-7-7-7-7-7-7-7-7-7-7-7-7-7-7-7-7-7-7-7-7-7-7-7-7-7-7-|
E:|-5-5-5-5-5-5-5-5-5-5-5-5-5-5-5-5-5-5-5-5-5-5-5-5-5-5-5-5-5-5-5-5-|
PM  * * * * * * * * * * * * * * * * * * * * * * * * * * * * * * * *

e:|-----------------------------------------------------------------|
B:|-----------------------------------------------------------------|
G:|-----------------------------------------------------------------|
D:|-7-7-7-7-7-7-7-7-7-7-7-7-7-7-7-7-7-7-7-7-7-7-7-7-7-7-7-7-7-7-7-7-|
A:|-7-7-7-7-7-7-7-7-7-7-7-7-7-7-7-7-7-7-7-7-7-7-7-7-7-7-7-7-7-7-7-7-|
E:|-5-5-5-5-5-5-5-5-5-5-5-5-5-5-5-5-5-5-5-5-5-5-5-5-5-5-5-5-5-5-5-5-|

Bridge Pt I:

Gtr I

(Piano arranged for Gtr)

e:|-------5------------------|
B:|---------8-7-5-------7--5-|
G:|----7----------7----7--7--|
D:|---7------------7--7--7---|
A:|--5---------------5--5----|
E:|--------------------------|

Gtr II

e:|------|
B:|------|
G:|------|
D:|-<7>~-| (Turn Volume up)
A:|-<5>~-|
E:|------|

Bridge Pt II:

Both Gtr's

e:|------------------------------------|
B:|------------------------------------|
G:|--4~~~~~~~~-------------------------|
D:|--4~~~~~~~~-----------------------2-|
A:|--2~~~~~~~~-----------------------2-|
E:|------------/////Pick-scrape\\\\\-0-|

Both Gtr's are silent here, then:

Both Gtr's

e:|-------------------------------|
B:|-------------------------------|
G:|-------------------------------|
D:|-2-2-2-2-7~~-7-7-7-7-7-7-7-7-7-|
A:|-2-2-2-2-7~~-7-7-7-7-7-7-7-7-7-|
E:|-0-0-0-0-5~~-5-5-5-5-5-5-5-5-5-|
PM              * * * * * * * *

Repeat Chorus

End On:

Both Gtr's

e:|---------/-|
B:|---------/-|
G:|--7~~~~~-/-|
D:|--7~~~~~-/-|
A:|--5~~~~~-/-|
E:|---------/-|

-----------------------
VI: The Ghost Of You
-----------------------

Gtr I: Ray Toro: Standard Tuning (e,B,G,D,A,E)
Gtr II: Frank Iero: Standard Tuning (e,B,G,D,A,E)

Intro:

Gtr I

e:|-------------------------------|
B:|-------------------------------|
G:|-7-------7-----6-------9-------|
D:|-7-------7-----7-------7-------| (x2)
A:|-------------------------------|
E:|---7-7-7---7-7---7-7-7---7-7-7-|

e:|-------------------------------|
B:|-------------------------------|
G:|-7-------7-----6-------9-------|
D:|-7-------7-----7-------7-------|
A:|---7-7-7---7-7---7-7-7---7-7-7-|
E:|-------------------------------|

e:|------------------|
B:|-3-------3-----2~-|
G:|-2-------2-----2~-|
D:|------------------|
A:|------------------|
E:|---2-2-2---2-2----|

Gtr II

e:|--------------|
B:|-------7------|
G:|---7-------7~-| (x2)
D:|-9---9---9----|
A:|--------------|
E:|--------------|

e:|-------------------------|
B:|-------------------7-----|
G:|---7---7---7---7-------7-|
D:|-9---9---9---9---9---9---|
A:|-------------------------|
E:|-------------------------|

e:|-----------------|
B:|-12~-------------|
G:|------11~--------|
D:|-----------<7>~~-|
A:|-----------------|
E:|-----------------|

Verse I:

Gtr I repeats intro.

Gtr II

e:|---------------------------------------------------|
B:|---------------------------------------------------|
G:|---------------------------------------------------|
D:|-14h16-12h14-11h12-11/9~--14h16-12h14-11h12-12/14~-|
A:|---------------------------------------------------|
E:|---------------------------------------------------|

e:|----------------------------------------------------------|
B:|----------------------------------------------------------|
G:|-11-------12-11----14---------12/14-12-11-11h12p11--------|
D:|----14-12-------12----11/14~-----------------------12-11~-|
A:|----------------------------------------------------------|
E:|----------------------------------------------------------|

e:|-----------------------------------------------|
B:|-----------------------------------------------|
G:|-9h11---12---11---9~-9h11---12---11---9-9h11p9-|
D:|------9----9----9---------9----9----9----------|
A:|-----------------------------------------------|
E:|-----------------------------------------------|

e:|------------------------------------------|
B:|------------------------------------------|
G:|-12/14-12-11------12/14-12-11-11h12p11----|
D:|-------------12~-----------------------12-|
A:|------------------------------------------|
E:|------------------------------------------|

Pre Chorus:

Gtr I

e:|-----------------|
B:|-----------------|
G:|-----------------|
D:|-x-x-x-x-x-x-x-x-|
A:|-x-x-x-x-x-x-x-x-|
E:|-x-x-x-x-x-x-x-x-|

Gtr II

e:|-----------------|
B:|-----------------|
G:|-----------------|
D:|-----------------|
A:|-----------------|
E:|-//Pick Scrape\\-|

Chorus:

Gtr I

e:|-----------------------------------------------------------------|
B:|-----------------------------------------------------------------|
G:|-6-6-6-6-6-6-6-6-7-7-7-7-7-7-7-7-6-6-6-6-6-6-6-6-7-7-7-7-7-7-7-7-|
D:|-5-5-5-5-5-5-5-5-5-5-5-5-5-5-5-5-7-7-7-7-7-7-7-7-7-7-7-7-7-7-7-7-|
A:|-5-5-5-5-5-5-5-5-5-5-5-5-5-5-5-5-x-x-x-x-x-x-x-x-x-x-x-x-x-x-x-x-|
E:|-3-3-3-3-3-3-3-3-3-3-3-3-3-3-3-3-5-5-5-5-5-5-5-5-5-5-5-5-5-5-5-5-|

e:|-----------------------------------------------------------------|
B:|-----------------------------------------------------------------|
G:|-6-6-6-6-6-6-6-6-7-7-7-7-7-7-x-9-6-6-6-6-6-6-6-6-7-7-7-7-7-7-x-6-|
D:|-4-4-4-4-4-4-4-4-4-4-4-4-4-4-x-x-7-7-7-7-7-7-7-7-7-7-7-7-7-7-x-7-|
A:|-x-x-x-x-x-x-x-x-x-x-x-x-x-x-x-7-x-x-x-x-x-x-x-x-x-x-x-x-x-x-x-x-|
E:|-7-7-7-7-7-7-7-7-7-7-7-7-7-7-x---5-5-5-5-5-5-5-5-5-5-5-5-5-5-x-5-|

e:|-----------------------------------------------------------------|
B:|-----------------------------------------------------------------|
G:|---------------------------------6-6-6-6-6-6-6-6-7-7-7-7-7-7-7-7-|
D:|-4-4-4-4-4-4-4-4-5-5-5-5-5-5-5-5-7-7-7-7-7-7-7-7-7-7-7-7-7-7-7-7-|
A:|-5-5-5-5-5-5-5-5-5-5-5-5-5-5-5-5-x-x-x-x-x-x-x-x-x-x-x-x-x-x-x-x-|
E:|-2-2-2-2-2-2-2-2-3-3-3-3-3-3-3-3-5-5-5-5-5-5-5-5-5-5-5-5-5-5-5-5-|

Gtr II

e:|--------------------------------------------------------------|
B:|--------------------------------------------------------------|
G:|-1212121212121212-141414141414/1616/121212121212/14/12/11~-9~-|
D:|-x-x-x-x-x-x-x-x--x-x-x-x-x-x--x-x--x-x-x-x-x-x--x--x--x---x--|
A:|-1010101010101010-121212121212/1414/101010101010/12/10/9~--7~-|
E:|--------------------------------------------------------------|

e:|----------------------------------|
B:|----------------------------------|
G:|-11/12/11-9/11--11/12/11-9/11-x-4-|
D:|-x--x--x--x-x---x--x--x--x-x--x-x-|
A:|-9/-10/9--7/9---9/-10/9--7/9--x-2-|
E:|------------------------------x---|

e:|-------------------------------|
B:|-------------------------------|
G:|-11/12/11-9/11--11/12/11/9-x-9-|
D:|-x--x--x--x-x---x--x--x--x-x-x-|
A:|-9/-10/9--7/9---9/-10/9-/7-x-7-|
E:|---------------------------x---|

e:|------------------------------------------------------------------|
B:|------------------------------------------------------------------|
G:|-6-6-6-6-6-6-6-6-7-7-7-7-7-7-7-7-9-9-9-9-9-9-9-9-1111111111111111-|
D:|-x-x-x-x-x-x-x-x-x-x-x-x-x-x-x-x-x-x-x-x-x-x-x-x--x-x-x-x-x-x-x-x-|
A:|-4-4-4-4-4-4-4-4-5-5-5-5-5-5-5-5-7-7-7-7-7-7-7-7--9-9-9-9-9-9-9-9-|
E:|------------------------------------------------------------------|

Verse II:

Gtr I repeats Verse I

Gtr II

e:|---------------------------------------------------|
B:|---------------------------------------------------|
G:|-14-12-11-----------------14-12-11-----------------|
D:|----------12/161616161616----------12/161616161616-|
A:|---------------------------------------------------|
E:|---------------------------------------------------|

e:|-------------------------------------------|
B:|-------------------------------------------|
G:|-------------------------------------------|
D:|-12/14-12-11-------12/14-12-11-11h12p11----|
A:|-------------12-12----------------------12-|
E:|-------------------------------------------|

e:|-----------------------------------------------|
B:|-----------------------------------------------|
G:|-9h11---12---11---9~-9h11---12---11---9-9h11p9-|
D:|------9----9----9---------9----9----9----------|
A:|-----------------------------------------------|
E:|-----------------------------------------------|

e:|-------------------------------------------------------|
B:|-------------------------------------------------------|
G:|-11-------12-11----14---------12/14-12-11-11h12p11-----|
D:|----14-12-------12----11/14~-----------------------12~-|
A:|-------------------------------------------------------|
E:|-------------------------------------------------------|

Bridge:

Gtr I

e:|------------------------------------|
B:|-----3---------3--------3---------3-|
G:|------------------------------------|
D:|-4--------4---------4--------4------|
A:|---2--------------4---4-------------| (x2)
E:|--------3---3--------------2---2----|

e:|-0-|
B:|-3-|
G:|-0-|
D:|-4-|
A:|-x-|
E:|-2-|

Gtr II (Comes in on Gtr I's second repeat)

e:|---------------7--------------------|
B:|-----7-------8---8---8-----8p7------|
G:|---7----7--9-------9-----9-----9-7~-|
D:|-9----9----------------7------------|
A:|------------------------------------|
E:|------------------------------------|

Solo:

Gtr I

e:|-----------------------------------------------------------------|
B:|-----------------------------------------------------------------|
G:|-4-4-4-4-4-4-4-4-----------------6-6-6-6-6-6-6-6-----------------| (x2)
D:|-4-4-4-4-4-4-4-4-5-5-5-5-5-5-5-5-6-6-6-6-6-6-6-6-4-4-4-4-4-4-4-4-|
A:|-2-2-2-2-2-2-2-2-5-5-5-5-5-5-5-5-4-4-4-4-4-4-4-4-4-4-4-4-4-4-4-4-|
E:|-----------------3-3-3-3-3-3-3-3-----------------2-2-2-2-2-2-2-2-|

Gtr II

e:|---------------------------------------------------------|
B:|---------7-----------8-----------5-----------------------|
G:|---7-6-7---7---7-6-7---7---7-6-7---7~-7/9-7-6~-6/7-6-----|
D:|-9-----------9-----------9----------------------------7~-|
A:|---------------------------------------------------------|
E:|---------------------------------------------------------|

e:|--------------------------------------------|
B:|---------7------------8-----------5---------|
G:|---7-6-7----7---7-6-7---7---7-6-7---7~-7/9~-|
D:|-9------------9-----------9-----------------|
A:|--------------------------------------------|
E:|--------------------------------------------|

After Solo:

Gtr I

e:|--------------------------------------------------------------------|
B:|--------------------------------------------------------------------|
G:|-7-7-7-7/9-9/1111/12121212/11111111/9-9-9-9-9-9-9-9-----------------|
D:|-x-x-x-x-x-x--x-x--x-x-x-x--x-x-x-x-x-x-x-x-x-x-x-x-9-9-9-9-7-7-7-7-|
A:|-5-5-5-5/7-7/-9-9/10101010/-9-9-9-9/7-7-7-7-7-7-7-7-x-x-x-x-x-x-x-x-|
E:|----------------------------------------------------7-7-7-7-5-5-5-5-|

e:|--------------------------------------------------------------------|
B:|--------------------------------------------------------------------|
G:|-7-7-7-7/9-9/1111/12121212/11111111/9-9-9-9-9-9-9-9-----------------|
D:|-x-x-x-x-x-x--x-x--x-x-x-x--x-x-x-x-x-x-x-x-x-x-x-x-9-9-9-9-7-7-7-7-|
A:|-5-5-5-5/7-7/-9-9/10101010/-9-9-9-9/7-7-7-7-7-7-7-7-9-9-9-9-7-7-7-7-|
E:|----------------------------------------------------7-7-7-7-5-5-5-5-|
PM                                                     * * * * * * * *

Gtr II

e:|-----------------------------------------------------------------|
B:|-----------------------------------------------------------------|
G:|-4-4-4-4/6-6/7-7/9-9-9-9/7-7-7-7/6-6-6-6-6-6-6-6/4-4-4-4-2-2-2-2-|
D:|-x-x-x-x-x-x-x-x-x-x-x-x-x-x-x-x-x-x-x-x-x-x-x-x-x-x-x-x-x-x-x-x-|
A:|-2-2-2-2/4-4/5-5/7-7-7-7/5-5-5-5/4-4-4-4-4-4-4-4/2-2-2-2-0-0-0-0-|
E:|-----------------------------------------------------------------|

e:|-----------------------------------------------------------------|
B:|-----------------------------------------------------------------|
G:|-4-4-4-4/6-6/7-7/9-9-9-9/7-7-7-7/6-6-6-6-6-6-6-6-4-4-4-4-2-2-2-2-|
D:|-x-x-x-x-x-x-x-x-x-x-x-x-x-x-x-x-x-x-x-x-x-x-x-x-4-4-4-4-2-2-2-2-|
A:|-2-2-2-2/4-4/5-5/7-7-7-7/5-5-5-5/4-4-4-4-4-4-4-4-2-2-2-2-0-0-0-0-|
E:|-----------------------------------------------------------------|
PM                                                  * * * * * * * *

Repeat Chorus


------------------------------------------
VII: The Jetset Life Is Gonna Kill You
------------------------------------------

Gtr I: Ray Toro: Standard Tuning (e,B,G,D,A,E)
Gtr II: Frank Iero: Standard Tuning (e,B,G,D,A,E)

Intro:

Gtr II

There is a REALLY strange effect used for this, I don't know what it is though.

Just keep strumming this chord softly

e:|-5-|
B:|-6-|
G:|-7-|
D:|---|
A:|---|
E:|---|

Verse I:

Gtr I (x4)

e:|------------------------------------------------------------------|
B:|-6-6-6-6-6-6-6-6-6-6-6-6-6-6-6-6----------------------------------|
G:|-7-7-7-7-7-7-7-7-7-7-7-7-7-7-7-7-9-9-9-9-9-9-9-9-9-9-9-9-9-9-9-9--|
D:|-x-x-x-x-x-x-x-x-x-x-x-x-x-x-x-x-10101010101010101010101010101010-|
A:|-5-5-5-5-5-5-5-5-5-5-5-5-5-5-5-5-x-x-x-x-x-x-x-x-x-x-x-x-x-x-x-x--|
E:|---------------------------------8-8-8-8-8-8-8-8-8-8-8-8-8-8-8-8--|

e:|-----------------------------------------------------------------|
B:|-----------------------------------------------------------------|
G:|-7-7-7-7-7-7-7-7-7-7-7-7-7-7-7-7-7-7-7-7-7-7-7-7-7-7-7-7-7-7-7-7-|
D:|-8-8-8-8-8-8-8-8-8-8-8-8-8-8-8-8-8-8-8-8-8-8-8-8-8-8-8-8-8-8-8-8-|
A:|-x-x-x-x-x-x-x-x-x-x-x-x-x-x-x-x-x-x-x-x-x-x-x-x-x-x-x-x-x-x-x-x-|
E:|-6-6-6-6-6-6-6-6-6-6-6-6-6-6-6-6-6-6-6-6-6-6-6-6-6-6-6-6-6-6-6-6-|

Gtr II (x4)

e:|-5--5--5--5--5--5--5--5--5--5--5--5--5~---------|
B:|-6--6--6--6--6--6--6--6--6--6--6--6------6~-----|
G:|-7--7--7--7--7--7--7--7--7--7--7--7----------7~-|
D:|------------------------------------------------|
A:|------------------------------------------------|
E:|------------------------------------------------|

Pre-Chorus:

Gtr I

e:|------------------|
B:|------------------|
G:|-3/5-5-5-5--5-5-5-|
D:|-3/5-5-5-5--5-5-5-|
A:|-1/3-3-3-3--3-3-3-|
E:|------------------|

Gtr II

e:|---------------------|
B:|---------------------|
G:|-10/12121212-12/1111-|
D:|--x--x-x-x-x--x--x-x-|
A:|--8/10101010-10/-9-9-|
E:|---------------------|

Chorus:

Gtr I (x2)

e:|-----------------------------------------------------------------|
B:|-----------------------------------------------------------------|
G:|-7-7-7-7-7-7-----6-6-6-6-6-6-----3-3-3-3-3-3-3-3-----------------|
D:|-7-7-7-7-7-7-3-3-6-6-6-6-6-6-5-5-3-3-3-3-3-3-3-3-5-5-5-5-5-5-5-5-|
A:|-5-5-5-5-5-5-3-3-4-4-4-4-4-4-5-5-1-1-1-1-1-1-1-1-5-5-5-5-5-5-5-5-|
E:|-------------1-1-------------3-3-----------------3-3-3-3-3-3-3-3-|

Gtr II (x2)

e:|------------------------------------------------------------|
B:|------------------------------------------------------------|
G:|-141414141414-1010------------12/11111111-1212/1010/9-9-9-9-|
D:|--x-x-x-x-x-x--x-x-1111/12/11--x--x-x-x-x--x-x--x-x-x-x-x-x-|
A:|-121212121212--8-8--x-x--x--x-10/-9-9-9-9-1010/-8-8/7-7-7-7-|
E:|--------------------9-9/10/-9-------------------------------|

e:|-----------------------|
B:|-----------------------|
G:|-10/12/10--9/10/9--7/6-|
D:|--x--x--x--x--x-x--x-x-|
A:|--8/10/-8--7/-8/7--5/4-|
E:|-----------------------|

End Chorus with:

Gtr I

e:|-------------|
B:|-------------|
G:|-7~~~~-7~~~~-|
D:|-7~~~~-7~~~~-|
A:|-5~~~~-5~~~~-|
E:|-------------|

Gtr II

e:|---------------------|
B:|---------------------|
G:|-7~~~~-7~~~~-----<7>-|
D:|-7~~~~-7~~~~-<7>-----|
A:|-5~~~~-5~~~~---------|
E:|---------------------|

Verse II Pt I:

Gtr I (x2)

e:|-----------------------------------------------------|
B:|-----------------------------------------------------|
G:|---------7---------7-----7---------7---------7-----7-|
D:|---------7---------7-----7---------7---------7-----7-|
A:|-5-5-5-5---5-5-5-5---5-5-----------------------------|
E:|---------------------------8-8-8-8---8-8-8-8---8-8---|
PM  * * * *   * * * *   * *   * * * *   * * * *   * *

e:|---------------------------------------------------|
B:|---------------------------------------------------|
G:|---------7---------7-----7---------6---------6h7p6-|
D:|---------7---------7-----7---------7---------7-7-7-|
A:|---------------------------------------------------|
E:|-6-6-6-6---6-6-6-6---6-6---5-5-5-5---5-5-5-5-------|
PM  * * * *   * * * *   * *   * * * *   * * * *

Gtr II (x2)

e:|-----------------------------------------------------------------|
B:|-----------------------------------------------------------------|
G:|-----------------------------------------------------------------|
D:|-7-7-7-7-7-7-7-7-7-7-7-7-7-7-7-7-5-5-5-5-5-5-5-5-5-5-5-5-5-5-5-5-|
A:|-5-5-5-5-5-5-5-5-5-5-5-5-5-5-5-5-3-3-3-3-3-3-3-3-3-3-3-3-3-3-3-3-|
E:|-----------------------------------------------------------------|
PM  * * * * * * * * * * * * * * * * * * * * * * * * * * * * * * * *

e:|-----------------------------------------------------------------|
B:|-----------------------------------------------------------------|
G:|-----------------------------------------------------------------|
D:|-3-3-3-3-3-3-3-3-3-3-3-3-3-3-3-3-2-2-2-2-2-2-2-2-2-2-2-2-2-2-2-2-|
A:|-1-1-1-1-1-1-1-1-1-1-1-1-1-1-1-1-0-0-0-0-0-0-0-0-0-0-0-0-0-0-0-0-|
E:|-----------------------------------------------------------------|
PM  * * * * * * * * * * * * * * * * * * * * * * * * * * * * * * * *

Verse II Pt II:

Gtr I (Repeat Pt I x2)

Gtr II

e:|-----------------------------------------------------------------|
B:|-----------------------------------------------------------------|
G:|-7-7-7-7-7-7-7-7-7-7-7-7-7-7-7-7/9-9-9-9-9-9-9-9-9-9-9-9-9-9-9-9-|
D:|-x-x-x-x-x-x-x-x-x-x-x-x-x-x-x-x-x-x-x-x-x-x-x-x-x-x-x-x-x-x-x-x-|
A:|-5-5-5-5-5-5-5-5-5-5-5-5-5-5-5-5/7-7-7-7-7-7-7-7-7-7-7-7-7-7-7-7-|
E:|-----------------------------------------------------------------|

e:|------------------------------------------------------------------|
B:|------------------------------------------------------------------|
G:|-1010101010101010101010101010101010101010101010101010101010101010-|
D:|--x-x-x-x-x-x-x-x-x-x-x-x-x-x-x-x-x-x-x-x-x-x-x-x-x-x-x-x-x-x-x-x-|
A:|--8-8-8-8-8-8-8-8-8-8-8-8-8-8-8-8-8-8-8-8-8-8-8-8-8-8-8-8-8-8-8-8-|
E:|------------------------------------------------------------------|

e:|-------------------------------------------------------------------|
B:|-------------------------------------------------------------------|
G:|-10101010101010101010101010101010/12121212121212121212121212121212-|
D:|--x-x-x-x-x-x-x-x-x-x-x-x-x-x-x-x--x-x-x-x-x-x-x-x-x-x-x-x-x-x-x-x-|
A:|--8-8-8-8-8-8-8-8-8-8-8-8-8-8-8-8/10101010101010101010101010101010-|
E:|-------------------------------------------------------------------|

e:|-------------------------------------------|
B:|-------------------------------------------|
G:|-12/14/12-10101010101010101010101010101010-|
D:|--x--x--x--x-x-x-x-x-x-x-x-x-x-x-x-x-x-x-x-|
A:|-10/12/10--8-8-8-8-8-8-8-8-8-8-8-8-8-8-8-8-|
E:|-------------------------------------------|

Repeat Pre-Chorus

Repeat Chorus

Bridge Pt I:

Gtr II Clean with a weird effect

e:|-10----------10----------------10----------10----|
B:|----10----10----10----10----11----11----11----11-|
G:|-------10----------10----12----------12----------|
D:|-------------------------------------------------|
A:|-------------------------------------------------|
E:|-------------------------------------------------|

e:|-----6-------6---------10--------9---|
B:|---8---8---8---8----11----11---8---8-|
G:|-9-------9-------12----------9-------|
D:|-------------------------------------|
A:|-------------------------------------|
E:|-------------------------------------|

e:|-----5-------5---------10----------10----|
B:|---6---6---6---6----11----11----11----11-|
G:|-7-------7-------12----------12----------|
D:|-----------------------------------------|
A:|-----------------------------------------|
E:|-----------------------------------------|

e:|-----6-------6---------10--------9---|
B:|---8---8---8---8----11----11---8---8-|
G:|-9-------9-------12----------9-------|
D:|-------------------------------------|
A:|-------------------------------------|
E:|-------------------------------------|

Bridge Pt II:

Gtr I (x2)

e:|-----------------------------------------------------------------|
B:|-----------------------------------------------------------------|
G:|-----------------------------------------------------------------|
D:|-5-5-5-5-5-5-5-5-7-7-7-7-7-7-7-7-7-7-7-7-7-7-7-7-8-8-8-8-8-8-8-8-|
A:|-5-5-5-5-5-5-5-5-7-7-7-7-7-7-7-7-8-8-8-8-8-8-8-8-8-8-8-8-8-8-8-8-|
E:|-3-3-3-3-3-3-3-3-5-5-5-5-5-5-5-5-5-5-5-5-5-5-5-5-6-6-6-6-6-6-6-6-|
PM  * * * * * * * * * * * * * * * * * * * * * * * * * * * * * * * *

Gtr II plays bridge Pt I distorted

Repeat Chorus (x2)

Outro Pt I:

Gtr I (x2)

e:|-----------------------------------------------------------------|
B:|-----------------------------------------------------------------|
G:|-7-7-7-7---------6-6-6-6---------3-3-3-3-3-3-3-3-----------------|
D:|-7-7-7-7-3-3-3-3-6-6-6-6-5-5-5-5-3-3-3-3-3-3-3-3-5-5-5-5-5-5-5-5-|
A:|-5-5-5-5-3-3-3-3-4-4-4-4-5-5-5-5-1-1-1-1-1-1-1-1-5-5-5-5-5-5-5-5-|
E:|---------1-1-1-1---------3-3-3-3-----------------3-3-3-3-3-3-3-3-|

Gtr II (x2)

e:|---------------------------------------------------|
B:|---------------------------------------------------|
G:|-14141414-10101010-6/7/9/12/10~-1717/1515/14141414-|
D:|--x-x-x-x--x-x-x-x-x-x-x--x-x----x-x--x-x--x-x-x-x-|
A:|-12121212--8-8-8-8-4/5/7/10/8~--1515/1313/12121212-|
E:|---------------------------------------------------|

e:|---------------------|
B:|---------------------|
G:|-10/12/10-9/10/9-7/6-|
D:|--x-x--x--x-x--x-x-x-|
A:|--8/10/8--7/8/-7-5/4-|
E:|---------------------|

Outro Pt II:

Gtr I (x2)

e:|-----------------------------------------------------------------|
B:|-----------------------------------------------------------------|
G:|-7-7-7-7---------6-6-6-6---------3-3-3-3-3-3-3-3-----------------|
D:|-7-7-7-7-3-3-3-3-6-6-6-6-5-5-5-5-3-3-3-3-3-3-3-3-5-5-5-5-5-5-5-5-|
A:|-5-5-5-5-3-3-3-3-4-4-4-4-5-5-5-5-1-1-1-1-1-1-1-1-5-5-5-5-5-5-5-5-|
E:|---------1-1-1-1---------3-3-3-3-----------------3-3-3-3-3-3-3-3-|

Gtr II

e:|-10----------10----------------10----------10----|
B:|----10----10----10----10----11----11----11----11-|
G:|-------10----------10----12----------12----------|
D:|-------------------------------------------------|
A:|-------------------------------------------------|
E:|-------------------------------------------------|

e:|-----6-------6---------10--------9---|
B:|---8---8---8---8----11----11---8---8-|
G:|-9-------9-------12----------9-------|
D:|-------------------------------------|
A:|-------------------------------------|
E:|-------------------------------------|

e:|-----5-------5---------10----------10----|
B:|---6---6---6---6----11----11----11----11-|
G:|-7-------7-------12----------12----------|
D:|-----------------------------------------|
A:|-----------------------------------------|
E:|-----------------------------------------|

e:|-----6-------6---------10--------9---|
B:|---8---8---8---8----11----11---8---8-|
G:|-9-------9-------12----------9-------|
D:|-------------------------------------|
A:|-------------------------------------|
E:|-------------------------------------|

End on:

Both Gtr's

e:|-----------|
B:|-----------|
G:|-----------|
D:|-7-7~~~~~~-|
A:|-7-7~~~~~~-|
E:|-5-5~~~~~~-|

Gtr II

e:|-------------------------------------------------------|
B:|-------------------------------------------------------|
G:|-------------------------------------------------------|
D:|-------------------------------------------------------|
A:|-------------------------------------------------------|
E:|-//////////////////////Pick-Scrape////////////////////-|


----------------
VIII: Interlude
----------------

Gtr I: Ray Toro: Standard Tuning (e,B,G,D,A,E)

Pt I (x2)

e:|----------2----------------2-----|
B:|------2-------2-------2--------2-|
G:|---------------------------------|
D:|----4---4---4-------4---4----4---|
A:|---------------------------------|
E:|-2---------------2---------------|

e:|---------2----------------2-----|
B:|-----2-------2--------2-------2-|
G:|--------------------------------|
D:|---4---4---4--------4---4---4---|
A:|-5----------------5-------------|
E:|--------------------------------|

e:|---------2----------------2-----|
B:|-----2-------2--------2-------2-|
G:|--------------------------------|
D:|---4---4------------4---4---4---|
A:|-4----------------4-------------|
E:|--------------------------------|

e:|---------2----------------2-----|
B:|-----2-------2--------2-------2-|
G:|--------------------------------|
D:|---4---4---4--------4---4---4---|
A:|-0------------------------------|
E:|----------------4---------------|

Pt II (x2)

e:|------------------------------|
B:|---------2--------------2-----|
G:|-----2-----2--------2-----2---|
D:|---2---2-----2----2---2-----2-|
A:|-0--------------0-------------|
E:|------------------------------|

e:|------------------------------|
B:|---------0--------------0-----|
G:|-----1-------1------1-------1-|
D:|---2---2---2------2---2---2---|
A:|------------------------------|
E:|-0--------------0-------------|

e:|------------------------------|
B:|---------2--------------2-----|
G:|-----2-----2--------2-----2---|
D:|---4---4-----4----4---4-----4-|
A:|-2--------------2-------------|
E:|------------------------------|

e:|------------------------------|
B:|---------2--------------2-----|
G:|-----4-----4--------4-----4---|
D:|---3---3-----3----3---4-----3-|
A:|-4--------------4-------------|
E:|------------------------------|

End On:

e:|-0~~-2~~~-|
B:|-2~~------|
G:|-4~~------|
D:|-3~~------|
A:|-4~~------|
E:|----------|

-----------------------------
IX :Thank You For The Venom
-----------------------------

Gtr I Ray Toro: Standard tuning (e,B,G,D,A,E)
Gtr II Frank Iero: Standard tuning (e,B,G,D,A,E)

Intro I:

Gtr I

e:|-------------------------------------------------------------------|
B:|-------------------------------------------------------------------|
G:|-4-----------------------------------------------------------------|
D:|-4-----------------0h2-------------------2---4---5-----4---2---5---|
A:|-2-2-4-5-4-2-----------4-5-4-2-------------------------------------|
E:|-------------3-2-3-------------3-2-3-0-0---0---0---2-2---2---2---2-|
PM    * * * * * * * *     * * * * * * * * * * * * * * * * * * * * * *

e:|--------------------------------------------------------------|
B:|--------------------------------------------------------------|
G:|-4-----------------0h2----------------------------------------|
D:|-4---------------------------------------2---4---5---4-4--4-4-|
A:|-2-2-4-5-4-2-----------4-5-4-2-----------------------4-4--4-4-|
E:|-------------3-2-3-------------3-2-3-0-0---0---0---0-2-2--2-2-|
PM    * * * * * * * *     * * * * * * * * * * * * * * * * *  * *

Gtr II

e:|------------------------------------------------|
B:|------------------------------------------------|
G:|-4-----------------------4----------------------|
D:|-4-----2-2-----4-4--2-2--4-----2-2-----2-2--2-2-|
A:|-2-----2-2-----4-4--2-2--2-----2-2-----2-2--2-2-|
E:|-------0-0-----2-2--0-0--------0-0-----0-0--0-0-|
PM        * *     * *  * *        * *     * *  * * 

Intro II:

Gtr I (x2)

e:|-------------------------------------------------------------------|
B:|-------------------------------------------------------------------|
G:|-4-----------------------------------------------------------------|
D:|-4-----------------0h2-------------------2---4---5-----4---2---5---|
A:|-2-2-4-5-4-2-----------4-5-4-2-------------------------------------|
E:|-------------3-2-3-------------3-2-3-0-0---0---0---2-2---2---2---2-|
PM    * * * * * * * *     * * * * * * * * * * * * * * * * * * * * * *      

Gtr II

e:|---------------------------------------------------------|
B:|---------------------------------------------------------|
G:|-7-7-7-7-7-7-7-7-7-7-7-7-7-7-7-7-6-6-6-6-7-7-7-7-7-7-7-7-|
D:|-9-9-9-9-9-9-9-9-9-9-9-9-9-9-9-9-9-9-9-9-9-9-9-9-9-9-9-9-|
A:|---------------------------------------------------------|
E:|---------------------------------------------------------|

e:|----------------------------------------------------------|
B:|----------------------------------------------------------|
G:|-9-9-9-9-11111111-7-7-7-7-7-7-7-7-7-7-7-7-7-7-7-7-6-6-6-6-|
D:|-9-9-9-9--9-9-9-9-9-9-9-9-9-9-9-9-9-9-9-9-9-9-9-9-9-9-9-9-|
A:|----------------------------------------------------------|
E:|----------------------------------------------------------|

e:|-----------------------------------|
B:|-----------------------------------|
G:|-12121212-11111111-7-7-7-7-6-6-6-6-|
D:|--9-9-9-9--9-9-9-9-9-9-9-9-9-9-9-9-|
A:|-----------------------------------|
E:|-----------------------------------|

Pre-Verse:

Gtr II

e:|-----------------------------------------------------------------|
B:|-----------------------------------------------------------------|
G:|-7-7-7-7-7-7-7-7-6-6-6-6-6-6-6-6-7-7-7-7-7-7-7-7-6-6-6-6-6-6-6-6-|
D:|-9-9-9-9-9-9-9-9-9-9-9-9-9-9-9-9-9-9-9-9-9-9-9-9-9-9-9-9-9-9-9-9-|
A:|-----------------------------------------------------------------|
E:|-----------------------------------------------------------------|
PM  * * * * * * * * * * * * * * * * * * * * * * * * * * * * * * * *

Verse I:

Gtr I

e:|-------------------------------------------------------------|
B:|-------------------------------------------------------------|
G:|-----------------------------7-7-7-7-7-7-7/6/3-3-3-3-3-3-3-3-|
D:|-4-4-4-4-4-4-5-4-4-4-4-4-4-5-x-x-x-x-x-x-x-x-x-x-x-x-x-x-x-x-|
A:|-4-4-4-4-4-4-5-4-4-4-4-4-4-5-5-5-5-5-5-5-5/4/1-1-1-1-1-1-1-1-|
E:|-2-2-2-2-2-2-3-2-2-2-2-2-2-3---------------------------------|

e:|------------------------------------------------------|
B:|------------------------------------------------------|
G:|-6-6--6-7-7--7-6-6--6-7-7--7-6-6--6-7-7--7-6-6--6-7-7-|
D:|-7-7--7-7-7--7-7-7--7-7-7--7-7-7--7-7-7--7-7-7--7-7-7-|
A:|-x-x--x-x-x--x-x-x--x-x-x--x-x-x--x-x-x--x-x-x--x-x-x-|
E:|-7-7--7-7-7--7-7-7--7-7-7--7-7-7--7-7-7--7-7-7--7-7-7-|

e:|-------------------------------------------------------------|
B:|-------------------------------------------------------------|
G:|-------------------------------------------------------------|
D:|-4-4-4-4-4-4-4-4-4-4-4-4-7-7-7-4-4-4-4-4-4-4-4-4-4-4-4-7-9-9-|
A:|-2-2-2-2-2-2-2-2-2-2-2-2-5-7-7-2-2-2-2-2-2-2-2-2-2-2-2-5-7-7-|
E:|---------------------------5-5-------------------------------|

e:|-------------------------------------------------------------|
B:|-------------------------------------------------------------|
G:|-----------------------------7-7-7-7-7-7-7/6/3-3-3-3-3-3-3-3-|
D:|-4-4-4-4-4-4-5-4-4-4-4-4-4-5-x-x-x-x-x-x-x-x-x-x-x-x-x-x-x-x-|
A:|-4-4-4-4-4-4-5-4-4-4-4-4-4-5-5-5-5-5-5-5-5/4/1-1-1-1-1-1-1-1-|
E:|-2-2-2-2-2-2-3-2-2-2-2-2-2-3---------------------------------|

e:|------------------------------------------------------|
B:|------------------------------------------------------|
G:|-6-6--6-7-7--7-6-6--6-7-7--7-6-6--6-7-7--7-6-6--6-7-7-|
D:|-7-7--7-7-7--7-7-7--7-7-7--7-7-7--7-7-7--7-7-7--7-7-7-|
A:|-x-x--x-x-x--x-x-x--x-x-x--x-x-x--x-x-x--x-x-x--x-x-x-|
E:|-7-7--7-7-7--7-7-7--7-7-7--7-7-7--7-7-7--7-7-7--7-7-7-|

e:|-------------------------------------------------------------|
B:|-------------------------------------------------------------|
G:|-----------------------------7-7-7-7-7-7-7/6/3-3-3-3-3-3-3-3-|
D:|-4-4-4-4-4-4-5-4-4-4-4-4-4-5-x-x-x-x-x-x-x-x-x-x-x-x-x-x-x-x-|
A:|-4-4-4-4-4-4-5-4-4-4-4-4-4-5-5-5-5-5-5-5-5/4/1-1-1-1-1-1-1-1-|
E:|-2-2-2-2-2-2-3-2-2-2-2-2-2-3---------------------------------|

Gtr II

e:|-------------------------------------------------------------|
B:|-------------------------------------------------------------|
G:|-----------------------------7-7-7-7-7-7-7/9/6-6-6-6-6-6-6-6-|
D:|-4-4-4-4-4-4-5-4-4-4-4-4-4-5-x-x-x-x-x-x-x-x-x-x-x-x-x-x-x-x-|
A:|-4-4-4-4-4-4-5-4-4-4-4-4-4-5-5-5-5-5-5-5-5/7/4-4-4-4-4-4-4-4-|
E:|-2-2-2-2-2-2-3-2-2-2-2-2-2-3---------------------------------|

e:|------------------------------------------------------------|
B:|------------------------------------------------------------|
G:|---------------9-9--9/1111-11---------------1414-14/1111-11-|
D:|-9-9--9-9-9--9-x-x--x--x-x--x-9-9--9-9-9--9--x-x--x--x-x--x-|
A:|-9-9--9-9-9--9-7-7--7/-9-9--9-9-9--9-9-9--9-1212-12/-9-9--9-|
E:|-7-7--7-7-7--7----------------7-7--7-7-7--7-----------------|

e:|-------------------------------------------------------------|
B:|-------------------------------------------------------------|
G:|-----------------------------7-7-7-7-7-7-7/9/6-6-6-6-6-6-6-6-|
D:|-4-4-4-4-4-4-5-4-4-4-4-4-4-5-x-x-x-x-x-x-x-x-x-x-x-x-x-x-x-x-|
A:|-4-4-4-4-4-4-5-4-4-4-4-4-4-5-5-5-5-5-5-5-5/7/4-4-4-4-4-4-4-4-|
E:|-2-2-2-2-2-2-3-2-2-2-2-2-2-3---------------------------------|

e:|-------------------------------------------------------------|
B:|-------------------------------------------------------------|
G:|-------------------------------------------------------------|
D:|-4-4-4-4-4-4-4-4-4-4-4-4-7-7-7-4-4-4-4-4-4-4-4-4-4-4-4-7-9-9-|
A:|-2-2-2-2-2-2-2-2-2-2-2-2-5-7-7-2-2-2-2-2-2-2-2-2-2-2-2-5-7-7-|
E:|---------------------------5-5-------------------------------|

e:|-------------------------------------------------------------|
B:|-------------------------------------------------------------|
G:|-----------------------------7-7-7-7-7-7-7/9/6-6-6-6-6-6-6-6-|
D:|-4-4-4-4-4-4-5-4-4-4-4-4-4-5-x-x-x-x-x-x-x-x-x-x-x-x-x-x-x-x-|
A:|-4-4-4-4-4-4-5-4-4-4-4-4-4-5-5-5-5-5-5-5-5/7/4-4-4-4-4-4-4-4-|
E:|-2-2-2-2-2-2-3-2-2-2-2-2-2-3---------------------------------|

e:|------------------------------------------------------------|
B:|------------------------------------------------------------|
G:|---------------9-9--9/1111-11---------------1414-14/1111-11-|
D:|-9-9--9-9-9--9-x-x--x--x-x--x-9-9--9-9-9--9--x-x--x--x-x--x-|
A:|-9-9--9-9-9--9-7-7--7/-9-9--9-9-9--9-9-9--9-1212-12/-9-9--9-|
E:|-7-7--7-7-7--7----------------7-7--7-7-7--7-----------------|

e:|--------------------------------------------------|
B:|--------------------------------------------------|
G:|-----------------------------7-7-7-7-7-7-7/9/11~~-|
D:|-4-4-4-4-4-4-5-4-4-4-4-4-4-5-x-x-x-x-x-x-x-x--x---|
A:|-4-4-4-4-4-4-5-4-4-4-4-4-4-5-5-5-5-5-5-5-5/7/-9~~-|
E:|-2-2-2-2-2-2-3-2-2-2-2-2-2-3----------------------|

Pre-Chorus:

Gtr I

e:|-----------------------------------------------------------------|
B:|-----------------------------------------------------------------|
G:|-----------------------------------------------------------------|
D:|-5-5-5-5-5-5-5-5-7-7-7-7-9-9-9-9---------------------------------|
A:|-5-5-5-5-5-5-5-5-7-7-7-7-9-9-9-9-9-9-9-9-9-9-9-9-5-5-5-5-7-7-7-7-|
E:|-3-3-3-3-3-3-3-3-5-5-5-5-7-7-7-7-6-6-6-6-6-6-6-6-7-7-7-7-9-9-9-9-|

e:|-----------------------------------------------------------------|
B:|-----------------------------------------------------------------|
G:|-----------------------------------------------------------------|
D:|-5-5-5-5-5-5-5-5-5-5-5-5-5-5-5-5-7-7-7-7-7-7-7-7-7-7-7-7-7-7-7-7-|
A:|-5-5-5-5-5-5-5-5-5-5-5-5-5-5-5-5-7-7-7-7-7-7-7-7-7-7-7-7-7-7-7-7-|
E:|-3-3-3-3-3-3-3-3-3-3-3-3-3-3-3-3-5-5-5-5-5-5-5-5-5-5-5-5-5-5-5-5-|

Gtr II

e:|-----------------------------------------------------------------|
B:|-----------------------------------------------------------------|
G:|-----------------2-2-2-2-4-4-4-4-----------------4-4-4-4/6-6-6-6-|
D:|-5-5-5-5-5-5-5-5-2-2-2-2-4-4-4-4-4-4-4-4-4-4-4-4-x-x-x-x-x-x-x-x-|
A:|-5-5-5-5-5-5-5-5-0-0-0-0-2-2-2-2-1-1-1-1-1-1-1-1-2-2-2-2/4-4-4-4-|
E:|-3-3-3-3-3-3-3-3-------------------------------------------------|

e:|-----------------------------------------------------------------|
B:|-----------------------------------------------------------------|
G:|---------------------------------2-2-2-2-2-2-2-2-4-4-4-4/6-6-6-6-|
D:|-5-5-5-5-5-5-5-5-5-5-5-5-5-5-5-5-2-2-2-2-2-2-2-2-x-x-x-x-x-x-x-x-|
A:|-5-5-5-5-5-5-5-5-5-5-5-5-5-5-5-5-0-0-0-0-0-0-0-0-2-2-2-2/4-4-4-4-|
E:|-3-3-3-3-3-3-3-3-3-3-3-3-3-3-3-3---------------------------------|

Chorus:

Gtr I (x4)

e:|-----------------------------------------------------------------|
B:|-8-8-8-8-8-8-8-8-7-7-7-7-7-7-7-7-8-8-8-8-8-8-8-8-7-7-7-7-7-7-7-7-|
G:|-7-7-7-7-7-7-7-7-7-7-7-7-7-7-7-7-7-7-7-7-7-7-7-7-7-7-7-7-7-7-7-7-|
D:|-x-x-x-x-x-x-x-x-x-x-x-x-x-x-x-x-x-x-x-x-x-x-x-x-x-x-x-x-x-x-x-x-|
A:|-5-5-5-5-5-5-5-5-5-5-5-5-5-5-5-5-4-4-4-4-4-4-4-4-4-4-4-4-4-4-4-4-|
E:|-----------------------------------------------------------------|

e:|-----------------------------------------------------------------|
B:|-2-2-2-2-2-2-2-2-3-3-3-3-3-3-3-3---------------------------------|
G:|-4-4-4-4-4-4-4-4-4-4-4-4-4-4-4-4-6-6-6-6-6-6-6-6-7-7-7-7-7-7-7-7-|
D:|-4-4-4-4-4-4-4-4-4-4-4-4-4-4-4-4-5-5-5-5-5-5-5-5-5-5-5-5-5-5-5-5-|
A:|-2-2-2-2-2-2-2-2-2-2-2-2-2-2-2-2-5-5-5-5-5-5-5-5-5-5-5-5-5-5-5-5-|
E:|---------------------------------3-3-3-3-3-3-3-3-3-3-3-3-3-3-3-3-|

Gtr II

e:|-----------------------------------------------------------------|
B:|-----------------------------------------------------------------|
G:|-7-7-7-7-7-7-7-7-7-7-7-7-7-7-7-7-6-6-6-6-6-6-6-6-6-6-6-6-6-6-6-6-|
D:|-7-7-7-7-7-7-7-7-7-7-7-7-7-7-7-7-7-7-7-7-7-7-7-7-7-7-7-7-7-7-7-7-|
A:|-5-5-5-5-5-5-5-5-5-5-5-5-5-5-5-5-4-4-4-4-4-4-4-4-4-4-4-4-4-4-4-4-|
E:|-----------------------------------------------------------------|

e:|-----------------------------------------------------------------|
B:|-----------------------------------------------------------------|
G:|-4-4-4-4-4-4-4-4-4-4-4-4-4-4-4-4---------------------------------|
D:|-4-4-4-4-4-4-4-4-4-4-4-4-4-4-4-4-5-5-5-5-5-5-5-5-5-5-5-5-5-5-5-5-|
A:|-2-2-2-2-2-2-2-2-2-2-2-2-2-2-2-2-5-5-5-5-5-5-5-5-5-5-5-5-5-5-5-5-|
E:|---------------------------------3-3-3-3-3-3-3-3-3-3-3-3-3-3-3-3-|

e:|------------------------------------------------------------------|
B:|------------------------------------------------------------------|
G:|-7-7-7-7-7-7-7-7/9-9-9-9/11111111-6-6-6-6-6-6-6-6/7-7-7-7/9-9-9-9-|
D:|-x-x-x-x-x-x-x-x-x-x-x-x--x-x-x-x-x-x-x-x-x-x-x-x-x-x-x-x-x-x-x-x-|
A:|-5-5-5-5-5-5-5-5/7-7-7-7/-9-9-9-9-4-4-4-4-4-4-4-4/5-5-5-5/7-7-7-7-|
E:|------------------------------------------------------------------|

e:|-----------------------------------------------------------------|
B:|-----------------------------------------------------------------|
G:|-4-4-4-4-4-4-4-4/7-7-7-7-7-7-7-7-9-9-9-9-9-9-9-9/7-7-7-7-7-7-7-7-|
D:|-x-x-x-x-x-x-x-x-x-x-x-x-x-x-x-x-x-x-x-x-x-x-x-x-x-x-x-x-x-x-x-x-|
A:|-2-2-2-2-2-2-2-2/5-5-5-5-5-5-5-5-7-7-7-7-7-7-7-7/5-5-5-5-5-5-5-5-|
E:|-----------------------------------------------------------------|

Verse II:

Gtr I

e:|-----------------------------------------------------------------|
B:|-----------------------------------------------------------------|
G:|-4-------------------------------4-------------------------------|
D:|-4-4-4-4-4-4-4-4-4-4-4-4-4-7-7-7-4-4-4-4-4-4-4-4-4-4-4-4-4-7-9-9-|
A:|-2-2-2-2-2-2-2-2-2-2-2-2-2-5-7-7-2-2-2-2-2-2-2-2-2-2-2-2-2-5-7-7-|
E:|-----------------------------5-5---------------------------------|
PM    * * * * * * * * * * * *         * * * * * * * * * * * *

e:|-------------------------------------------------------------|
B:|-------------------------------------------------------------|
G:|-----------------------------7-7-7-7-7-7-7/6/3-3-3-3-3-3-3-3-|
D:|-4-4-4-4-4-4-5-4-4-4-4-4-4-5-x-x-x-x-x-x-x-x-x-x-x-x-x-x-x-x-|
A:|-4-4-4-4-4-4-5-4-4-4-4-4-4-5-5-5-5-5-5-5-5/4/1-1-1-1-1-1-1-1-|
E:|-2-2-2-2-2-2-3-2-2-2-2-2-2-3---------------------------------|

e:|------------------------------------------------------|
B:|------------------------------------------------------|
G:|-6-6--6-7-7--7-6-6--6-7-7--7-6-6--6-7-7--7-6-6--6-7-7-|
D:|-7-7--7-7-7--7-7-7--7-7-7--7-7-7--7-7-7--7-7-7--7-7-7-|
A:|-x-x--x-x-x--x-x-x--x-x-x--x-x-x--x-x-x--x-x-x--x-x-x-|
E:|-7-7--7-7-7--7-7-7--7-7-7--7-7-7--7-7-7--7-7-7--7-7-7-|

e:|-------------------------------------------------------------|
B:|-------------------------------------------------------------|
G:|-----------------------------7-7-7-7-7-7-7/6/3-3-3-3-3-3-3-3-|
D:|-4-4-4-4-4-4-5-4-4-4-4-4-4-5-x-x-x-x-x-x-x-x-x-x-x-x-x-x-x-x-|
A:|-4-4-4-4-4-4-5-4-4-4-4-4-4-5-5-5-5-5-5-5-5/4/1-1-1-1-1-1-1-1-|
E:|-2-2-2-2-2-2-3-2-2-2-2-2-2-3---------------------------------|

Gtr II

e:|-----------------------------------------------------------------|
B:|-----------------------------------------------------------------|
G:|-4-------------------------------4-------------------------------|
D:|-4-4-4-4-4-4-4-4-4-4-4-4-4-7-7-7-4-4-4-4-4-4-4-4-4-4-4-4-4-7-9-9-|
A:|-2-2-2-2-2-2-2-2-2-2-2-2-2-5-7-7-2-2-2-2-2-2-2-2-2-2-2-2-2-5-7-7-|
E:|-----------------------------5-5---------------------------------|
PM    * * * * * * * * * * * *         * * * * * * * * * * * *

e:|-------------------------------------------------------------|
B:|-------------------------------------------------------------|
G:|-----------------------------7-7-7-7-7-7-7/9/6-6-6-6-6-6-6-6-|
D:|-4-4-4-4-4-4-5-4-4-4-4-4-4-5-x-x-x-x-x-x-x-x-x-x-x-x-x-x-x-x-|
A:|-4-4-4-4-4-4-5-4-4-4-4-4-4-5-5-5-5-5-5-5-5/7/4-4-4-4-4-4-4-4-|
E:|-2-2-2-2-2-2-3-2-2-2-2-2-2-3---------------------------------|

e:|------------------------------------------------------------|
B:|------------------------------------------------------------|
G:|---------------9-9--9/1111-11---------------1414-14/1111-11-|
D:|-9-9--9-9-9--9-x-x--x--x-x--x-9-9--9-9-9--9--x-x--x--x-x--x-|
A:|-9-9--9-9-9--9-7-7--7/-9-9--9-9-9--9-9-9--9-1212-12/-9-9--9-|
E:|-7-7--7-7-7--7----------------7-7--7-7-7--7-----------------|

e:|--------------------------------------------------|
B:|--------------------------------------------------|
G:|-----------------------------7-7-7-7-7-7-7/9/11~~-|
D:|-4-4-4-4-4-4-5-4-4-4-4-4-4-5-x-x-x-x-x-x-x-x--x---|
A:|-4-4-4-4-4-4-5-4-4-4-4-4-4-5-5-5-5-5-5-5-5/7/-9~~-|
E:|-2-2-2-2-2-2-3-2-2-2-2-2-2-3----------------------|

Repeat Pre-Chorus

Repeat Chorus

Pre-Solo:

Gtr I

    
e:|------------------------------------------------|
B:|------------------------------------------------|
G:|------------------------------------------------|
D:|------------------------------------------------|
A:|-t9p5p2-t9p5p2-t9p5p2-t9p5p2-t9p5p2-t9p5p2-/12\-|
E:|------------------------------------------------|

Gtr II

e:|-------|
B:|-------|
G:|-4-(S)-|
D:|-4-(T)-|
A:|-2-(O)-|
E:|---(P)-|

Solo Pt I: 

Gtr I (Pick these notes extremely fast)

e:|-------------------------------------------------------------------|
B:|-------------------------------------------------------------------|
G:|-4-4-4-4-4-4-4-4/7-7-7-7-4/7-7-7-7-6-6-6-6/7-7-7-7-6-6-6-6-6-6-6-6-|
D:|-------------------------------------------------------------------|
A:|-------------------------------------------------------------------|
E:|-------------------------------------------------------------------|

e:|-----------------------------------------------------|
B:|-----------------------------------------------------|
G:|-6/7-7-7-7/9-9-9-9-7/9-9-9-9-9-9-9-9-7-7-7-7-6-6-6-6-|
D:|-----------------------------------------------------|
A:|-----------------------------------------------------|
E:|-----------------------------------------------------|

   [Elevens not ones]
e:|-----------------------------------------------------|
B:|-----------------------------------------------------|
G:|-1111111111111111/9/4-4-4-4-4/11111111-4/11111111/12-|
D:|-----------------------------------------------------|
A:|-----------------------------------------------------|
E:|-----------------------------------------------------|

e:|-----------------------------------------------|
B:|-----------------------------------------------|
G:|-9-9-9-9-7/9-9-9-9-7/9-9-9-9-11111111/12121212-|
D:|-----------------------------------------------|
A:|-----------------------------------------------|
E:|-----------------------------------------------|

Gtr II

e:|-----------------------------------------------------------------|
B:|-----------------------------------------------------------------|
G:|-4-4-4-4-4-4-4-4-4-4-4-4-4-4-4-4---------------------------------|
D:|-4-4-4-4-4-4-4-4-4-4-4-4-4-4-4-4-5-5-5-5-5-5-5-5-5-5-5-5-5-5-5-5-|
A:|-2-2-2-2-2-2-2-2-2-2-2-2-2-2-2-2-5-5-5-5-5-5-5-5-5-5-5-5-5-5-5-5-|
E:|---------------------------------3-3-3-3-3-3-3-3-3-3-3-3-3-3-3-3-|

e:|-----------------------------------------------------------------|
B:|-----------------------------------------------------------------|
G:|-----------------------------------------------------------------|
D:|---------------------------------4-4-4-4-4-4-4-4-8-8-8-8-8-8-8-8-|
A:|-4-4-4-4-4-4-4-4-4-4-4-4-4-4-4-4-4-4-4-4-4-4-4-4-8-8-8-8-8-8-8-8-|
E:|-1-1-1-1-1-1-1-1-1-1-1-1-1-1-1-1-2-2-2-2-2-2-2-2-6-6-6-6-6-6-6-6-|


e:|-----------------------------------------------------------------|
B:|-----------------------------------------------------------------|
G:|-4-4-4-4-4-4-4-4-4-4-4-4-4-4-4-4---------------------------------|
D:|-4-4-4-4-4-4-4-4-4-4-4-4-4-4-4-4-5-5-5-5-5-5-5-5-5-5-5-5-5-5-5-5-|
A:|-2-2-2-2-2-2-2-2-2-2-2-2-2-2-2-2-5-5-5-5-5-5-5-5-5-5-5-5-5-5-5-5-|
E:|---------------------------------3-3-3-3-3-3-3-3-3-3-3-3-3-3-3-3-|

e:|---------------------------------|
B:|---------------------------------|
G:|---------------------------------|
D:|---------------------------------|
A:|-4-4-4-4-4-4-4-4-4-4-4-4-4-4-4-4-|
E:|-1-1-1-1-1-1-1-1-1-1-1-1-1-1-1-1-|

Solo:

e:|-------------------------------12-14-15-14-15/17-|
B:|-------------------12-14-15-14-------------------|
G:|-11-12-14-12-11-14-------------------------------|
D:|-------------------------------------------------|
A:|-------------------------------------------------|
E:|-------------------------------------------------|

e:|-17/19-17~-14h15p14----14-14~-14h15p14----14----------|
B:|--------------------17-----------------17----17-15-14-|
G:|------------------------------------------------------|
D:|------------------------------------------------------|
A:|------------------------------------------------------|
E:|------------------------------------------------------|

e:|-19-15-14----14----------|
B:|----------17----17-15-14-|
G:|-------------------------|
D:|-------------------------|
A:|-------------------------|
E:|-------------------------|

e:|-10p9h7h9h7----7-------------------------------------|
B:|------------10---10p8h10p8p7-8p7---7-----------------|
G:|---------------------------------9---9p7h9p7p6h7p6---|
D:|---------------------------------------------------9-|
A:|-----------------------------------------------------|
E:|-----------------------------------------------------|


e:|------------------------------|
B:|------------------------------|
G:|-6p4---4----------------------|
D:|-----7---7p5h7p5h4h5p4/2------|
A:|-------------------------4^~~-|
E:|------------------------------|

Gtr II

e:|---------------------------------|
B:|---------------------------------|
G:|---------------------------------|
D:|-4-4-4-4-4-4-4-4-8-8-8-8-8-8-8-8-|
A:|-4-4-4-4-4-4-4-4-8-8-8-8-8-8-8-8-|
E:|-2-2-2-2-2-2-2-2-6-6-6-6-6-6-6-6-|

e:|-----------------------------------------------------------------|
B:|-----------------------------------------------------------------|
G:|-----------------------------------------------------------------|
D:|-5-5-5-5-5-5-5-5-5-5-5-5-5-5-5-5-2-2-2-2-2-2-2-2-2-2-2-2-2-2-2-2-|
A:|-5-5-5-5-5-5-5-5-5-5-5-5-5-5-5-5-2-2-2-2-2-2-2-2-2-2-2-2-2-2-2-2-|
E:|-3-3-3-3-3-3-3-3-3-3-3-3-3-3-3-3-0-0-0-0-0-0-0-0-0-0-0-0-0-0-0-0-|

e:|------------------------------------------------------|
B:|------------------------------------------------------|
G:|---------------------------------2-2-2-2-2-2-2-2------|
D:|-3-3-3-3-3-3-3-3-4-4-4-4-4-4-4-4-2-2-2-2-2-2-2-2------|
A:|-3-3-3-3-3-3-3-3-4-4-4-4-4-4-4-4-0-0-0-0-0-0-0-0-4^~~-|
E:|-1-1-1-1-1-1-1-1-2-2-2-2-2-2-2-2----------------------|
PM  * * * * * * * * * * * * * * * * * * * * * * * *

After Solo:

Gtr I

e:|-----------------------------------------------------------------|
B:|-----------------------------------------------------------------|
G:|-----------------------------------------------------------------|
D:|-----------------------------------------------------------------|
A:|-----------------------------------------------------------------|
E:|-3-3-3-3-3-3-3-3-5-5-5-5-7-7-7-7-6-6-6-6-6-6-6-6-7-7-7-7-9-9-9-9-|

e:|---------------------------------|
B:|---------------------------------|
G:|---------------------------------|
D:|---------------------------------|
A:|---------------------------------|
E:|-3-3-3-3-3-3-3-3-5-5-5-5-7-7-7-7-|

Both Gtr's

e:|-----------------------------|
B:|-----------------------------|
G:|-----------------------------|
D:|-------------------------9-9-|
A:|-9-9-9-9-9-9-9-9-9-9-9-9-9-9-|
E:|-6-6-6-6-6-6-6-6-7-7-7-7-7-7-|
PM  * * * * * * * * * * * *

Repeat Pre-Chorus

Repeat Chorus

Final Chorus:

Gtr I (x2)

e:|-----------------------------------------------------------------|
B:|-8-8-8-8-8-8-8-8-7-7-7-7-7-7-7-7-8-8-8-8-8-8-8-8-7-7-7-7-7-7-7-7-|
G:|-7-7-7-7-7-7-7-7-7-7-7-7-7-7-7-7-7-7-7-7-7-7-7-7-7-7-7-7-7-7-7-7-|
D:|-x-x-x-x-x-x-x-x-x-x-x-x-x-x-x-x-x-x-x-x-x-x-x-x-x-x-x-x-x-x-x-x-|
A:|-5-5-5-5-5-5-5-5-5-5-5-5-5-5-5-5-4-4-4-4-4-4-4-4-4-4-4-4-4-4-4-4-|
E:|-----------------------------------------------------------------|

e:|-----------------------------------------------------------------|
B:|-2-2-2-2-2-2-2-2-3-3-3-3-3-3-3-3---------------------------------|
G:|-4-4-4-4-4-4-4-4-4-4-4-4-4-4-4-4-6-6-6-6-6-6-6-6-7-7-7-7-7-7-7-7-|
D:|-4-4-4-4-4-4-4-4-4-4-4-4-4-4-4-4-5-5-5-5-5-5-5-5-5-5-5-5-5-5-5-5-|
A:|-2-2-2-2-2-2-2-2-2-2-2-2-2-2-2-2-5-5-5-5-5-5-5-5-5-5-5-5-5-5-5-5-|
E:|---------------------------------3-3-3-3-3-3-3-3-3-3-3-3-3-3-3-3-|

Gtr II (Timing's off here but I'm sure you can figure it out)

e:|---------------------------------------------------------|
B:|---------------------------------------------------------|
G:|-7-7-7-7/9-9/1111-6-6-6-6/9-9/1111-11/9-7/9/7-11/9-7/9/7-|
D:|-x-x-x-x-x-x--x-x-x-x-x-x-x-x--x-x--x-x-x-x-x--x-x-x-x-x-|
A:|-5-5-5-5/7-7/-9-9-4-4-4-4/7-7/-9-9--9/7-5/7/5--9/7-5/7/5-|
E:|---------------------------------------------------------|

e:|---------------------------------------------------|
B:|---------------------------------------------------|
G:|-14/12-11/12/11-14/12-11/12/11-9/11/9/7-9/11/9/7/6-|
D:|--x--x--x--x--x--x--x--x--x--x-x--x-x-x-x--x-x-x-x-|
A:|-12/10--9/10/-9-12/10--9/10/-9-7/-9/7/5-7/-9/7/5/4-|
E:|---------------------------------------------------|

End with:

Gtr I

e:|-------------------------------------|
B:|-------------------------------------|
G:|-4---------------------------------4-|
D:|-4-----------------0h2-------------4-|
A:|-2-2-4-5-4-2-----------4-5-4-2-----2-|
E:|-------------3-2-3-------------3-2---|
PM    * * * * * * * *     * * * * * *

Gtr II

e:|------------|
B:|------------|
G:|-4--------4-|
D:|-4--------4-|
A:|-2--------2-|
E:|------------|




-----------------
X: Hang 'em High
-----------------

Gtr I: Ray Toro: Standard Tuning (e,B,G,D,A,E)
Gtr II: Frank Iero: Standard Tuning (e,B,G,D,A,E)

Intro Pt I:

Gtr I

e:|-1~---0~---0~---0~-------------------|
B:|-3~---2~---1~---2~-------------------|
G:|-2~---2~---2~---2~-------------------|
D:|-0~---2~---2~---2~-------------------|
A:|----------------0~-------------------|
E:|-------------------///Pick-scrape\\\-|

Gtr II

e:|-----------------------------------------------------------|
B:|-----------------------------------------------------------|
G:|-10-12-14-12-10--9--9-10--9~-14-15-17-15-14----------14----|
D:|-12-14-15-14-12-10-10-12-10~-15-17-19-17-15-11h14-14----14-|
A:|-----------------------------------------------------------|
E:|-----------------------------------------------------------|

Intro Pt II:

Gtr I

e:|-----------------------------------------------------------------|
B:|-----------------------------------------------------------------|
G:|-7-7-7-7-7-7-7-7-7-7-7-7-7-7-7-7-7-7-7-7-7-7-7-7-7-7-7-7-7-7-7-7-|
D:|-7-7-7-7-7-7-7-7-7-7-7-7-7-7-7-7-7-7-7-7-7-7-7-7-7-7-7-7-7-7-7-7-|
A:|-5-5-5-5-5-5-5-5-5-5-5-5-5-5-5-5-5-5-5-5-5-5-5-5-5-5-5-5-5-5-5-5-|
E:|-----------------------------------------------------------------|

e:|-----------------------------------------------------------------|
B:|-----------------------------------------------------------------|
G:|-----------------------------------------------------------------|
D:|-3-3-3-3-3-3-3-3-3-3-3-3-3-3-3-3-7-7-7-7-7-7-7-7-7-7-7-7-7-7-7-7-|
A:|-3-3-3-3-3-3-3-3-3-3-3-3-3-3-3-3-7-7-7-7-7-7-7-7-7-7-7-7-7-7-7-7-|
E:|-1-1-1-1-1-1-1-1-1-1-1-1-1-1-1-1-5-5-5-5-5-5-5-5-5-5-5-5-5-5-5-5-|

Gtr II

e:|---------------------------------------------------------------------|
B:|---------------------------------------------------------------------|
G:|-1414141414141414/1515151515151515/1717171717171717/1515151515151515-|
D:|--x-x-x-x-x-x-x-x--x-x-x-x-x-x-x-x--x-x-x-x-x-x-x-x--x-x-x-x-x-x-x-x-|
A:|-1212121212121212/1313131313131313/1515151515151515/1313131313131313-|
E:|---------------------------------------------------------------------|

e:|-------------------------------------------------------------------|
B:|-------------------------------------------------------------------|
G:|-10101010101010101010101010101010-141414141414/15/1414141414141414-|
D:|--x-x-x-x-x-x-x-x-x-x-x-x-x-x-x-x--x-x-x-x-x-x--x--x-x-x-x-x-x-x-x-|
A:|--8-8-8-8-8-8-8-8-8-8-8-8-8-8-8-8-121212121212/13/1212121212121212-|
E:|-------------------------------------------------------------------|

Verse I Pt I:

Gtr I

e:|------------------------------------------------------------------------|
B:|------------------------------------------------------------------------|
G:|------------------------------------------------------------------------|
D:|-7-7-7-7-7-7-7-8-7-7-7-7-7-8-7-7-8-7-7-7-7-7-8-7-7-8-7-7-7-7-7-8-7-7-8-7|
A:|-5-5-5-5-5-5-5-5-5-5-5-5-5-5-5-5-5-5-5-5-5-5-5-5-5-5-5-5-5-5-5-5-5-5-5-5|
E:|------------------------------------------------------------------------|
PM  * * * *   * *     * * * *   * *     * * * *   * *     * * * *   * *

Gtr II

e:|--------------------------------------------|
B:|--------------------------------------------|
G:|---------7-----10/9~---------7-----10/9/12~-|
D:|---------x------x-x----------x------x-x--x--|
A:|-5-5-5-5-5-5-5--8/7~-5-5-5-5-5-5-5--8/7/10~-|
E:|--------------------------------------------|
PM  * * * *   * *       * * * *   * *

e:|-------------------------------------------|
B:|-------------------------------------------|
G:|---------7-----10/9~-----------------------|
D:|---------x------x-x----------5^(6)r5~-2----|
A:|-5-5-5-5-5-5-5--8/7~-5-5-5-5------------3~-|
E:|-------------------------------------------|
PM  * * * *   * *       * * * *   

Verse I Pt II:

Gtr I

e:|-------------------------------------------------|
B:|-------------------------------------------------|
G:|-----3-----3-----3-----3-----3-----3-----3-----3-|
D:|-----5-----5-----5-----5-----5-----5-----5-----5-|
A:|-----5-----5-----5-----5-----5-----5-----5-----5-|
E:|-3-3---3-3---3-3---3-3---3-3---3-3---3-3---3-3---|
PM  * *   * *   * *   * *   * *   * *   * *   * *

e:|-----------------------------------------------------------------|
B:|-----------------------------------------------------------------|
G:|-----------------------------------------------------------------|
D:|-3-3-3-3-3-3-3-3-3-3-3-3-3-3-3-3-7-7-7-7-7-7-7-7-7-7-7-7-7-7-7-7-|
A:|-3-3-3-3-3-3-3-3-3-3-3-3-3-3-3-3-7-7-7-7-7-7-7-7-7-7-7-7-7-7-7-7-|
E:|-1-1-1-1-1-1-1-1-1-1-1-1-1-1-1-1-5-5-5-5-5-5-5-5-5-5-5-5-5-5-5-5-|

Gtr II

e:|-----------------------------------------------------|
B:|-----------------------------------------------------|
G:|-----7-----7-----7-----7-----7-----7-----7-----7-----|
D:|-----x-----x-----x-----x-----x-----x-----x-----x-----|
A:|-5-5-5-5-5-5-5-5-5-5-5-5-5-5-5-5-5-5-5-5-5-5-5-5-5-5-|
E:|-----------------------------------------------------|
PM  * *   * *   * *   * *   * *   * *   * *   * *   * *

e:|--------------------------------------------------|
B:|--------------------------------------------------|
G:|--------------------------------------------------|
D:|-3~~~~---------------------7-7-7-7----------------|
A:|-3~~~~---------------------7-7-7-7----------------|
E:|-1~~~~-////Pick-scrape\\\\-5-5-5-5-6-5^r-5^r-5^r~-|

Pre-Chorus:

Gtr I

e:|-----------------------------------------------------------------|
B:|-----------------------------------------------------------------|
G:|-3-3-3-3-3-3-3-3-3-3-3-3-3-3-3-3-6-6-6-6-6-6-6-6-6-6-6-6-6-6-6-6-|
D:|-3-3-3-3-3-3-3-3-3-3-3-3-3-3-3-3-7-7-7-7-7-7-7-7-7-7-7-7-7-7-7-7-|
A:|-1-1-1-1-1-1-1-1-1-1-1-1-1-1-1-1-4-4-4-4-4-4-4-4-4-4-4-4-4-4-4-4-|
E:|-----------------------------------------------------------------|

e:|-----------------------------------------------------------------|
B:|-----------------------------------------------------------------|
G:|-7-7-7-7-7-7-7-7-7-7-7-7-7-7-7-7---------------------------------|
D:|-7-7-7-7-7-7-7-7-7-7-7-7-7-7-7-7-3-3-3-3-3-3-3-3-3-3-3-3-3-3-3-3-|
A:|-5-5-5-5-5-5-5-5-5-5-5-5-5-5-5-5-3-3-3-3-3-3-3-3-3-3-3-3-3-3-3-3-|
E:|---------------------------------1-1-1-1-1-1-1-1-1-1-1-1-1-1-1-1-|

e:|-----------------------------------------------------------------|
B:|-----------------------------------------------------------------|
G:|-3-3-3-3-3-3-3-3-3-3-3-3-3-3-3-3-6-6-6-6-6-6-6-6-6-6-6-6-6-6-6-6-|
D:|-3-3-3-3-3-3-3-3-3-3-3-3-3-3-3-3-7-7-7-7-7-7-7-7-7-7-7-7-7-7-7-7-|
A:|-1-1-1-1-1-1-1-1-1-1-1-1-1-1-1-1-4-4-4-4-4-4-4-4-4-4-4-4-4-4-4-4-|
E:|-----------------------------------------------------------------|

Gtr II

e:|-----------------------------------------------------------------|
B:|-----------------------------------------------------------------|
G:|-3-3-3-3-3-3-3-3-3-3-3-3-3-3-3-3-6-6-6-6-6-6-6-6-6-6-6-6-6-6-6-6-|
D:|-3-3-3-3-3-3-3-3-3-3-3-3-3-3-3-3-7-7-7-7-7-7-7-7-7-7-7-7-7-7-7-7-|
A:|-1-1-1-1-1-1-1-1-1-1-1-1-1-1-1-1-4-4-4-4-4-4-4-4-4-4-4-4-4-4-4-4-|
E:|-----------------------------------------------------------------|

e:|---------------------------------------------------------------------|
B:|---------------------------------------------------------------------|
G:|-7-7-7-7-7-7-7-7-7-7-7-7-7-7-7-7-----------------12/1010101010101010-|
D:|-7-7-7-7-7-7-7-7-7-7-7-7-7-7-7-7-3-3-3-3-3-3-3-3--x--x-x-x-x-x-x-x-x-|
A:|-5-5-5-5-5-5-5-5-5-5-5-5-5-5-5-5-3-3-3-3-3-3-3-3-10/-8-8-8-8-8-8-8-8-|
E:|---------------------------------1-1-1-1-1-1-1-1---------------------|

e:|--------------------------------------------------------------------|
B:|--------------------------------------------------------------------|
G:|-12121212/10101010/9-9-9-9/10101010-6-6-6-6/7-7-7-7-----------------|
D:|--x-x-x-x--x-x-x-x-x-x-x-x--x-x-x-x-x-x-x-x-x-x-x-x-7-7-7-7-7-7-7-7-|
A:|-10101010/-8-8-8-8/7-7-7-7/-8-8-8-8-4-4-4-4/5-5-5-5-x-x-x-x-x-x-x-x-|
E:|----------------------------------------------------5-5-5-5-5-5-5-5-|

Verse II:

Gtr I

e:|------------------------------------------------------------------------|
B:|------------------------------------------------------------------------|
G:|------------------------------------------------------------------------|
D:|-7-7-7-7-7-7-7-8-7-7-7-7-7-8-7-7-8-7-7-7-7-7-8-7-7-8-7-7-7-7-7-8-7-7-8-7|
A:|-5-5-5-5-5-5-5-5-5-5-5-5-5-5-5-5-5-5-5-5-5-5-5-5-5-5-5-5-5-5-5-5-5-5-5-5|
E:|------------------------------------------------------------------------|
PM  * * * *   * *     * * * *   * *     * * * *   * *     * * * *   * *

Gtr II 

e:|------------------------------------------|
B:|------------------------------------------|
G:|-14141414---------------------------------| (x3)
D:|----------14141414-15151515-1414-12121212-|
A:|------------------------------------------|
E:|------------------------------------------|

e:|-------------------|
B:|---------------10~-|
G:|-------------------|
D:|-11^(12)r11--------|
A:|------------12-----|
E:|-------------------|

Repeat Pre-Chorus

Chorus:

Gtr I (x4)

e:|------------------------------------------------------------------|
B:|------------------------------------------------------------------|
G:|------------------------------------------------------------------|
D:|-7-7-7-7-7-7-7-7-1010101010101010-8-8-8-8-8-8-8-8-8-8-8-8-8-8-8-8-|
A:|-5-5-5-5-5-5-5-5--8-8-8-8-8-8-8-8-8-8-8-8-8-8-8-8-8-8-8-8-8-8-8-8-|
E:|----------------------------------6-6-6-6-6-6-6-6-6-6-6-6-6-6-6-6-|

Gtr II

e:|------------------------------------------------------------------|
B:|------------------------------------------------------------------|
G:|-7-7-7-7-7-7-7-7/1010101010101010-3-3-3-3-3-3-3-3-3-3-3-3-3-3-3-3-|
D:|-x-x-x-x-x-x-x-x--x-x-x-x-x-x-x-x-x-x-x-x-x-x-x-x-x-x-x-x-x-x-x-x-|
A:|-5-5-5-5-5-5-5-5/-8-8-8-8-8-8-8-8-1-1-1-1-1-1-1-1-1-1-1-1-1-1-1-1-|
E:|------------------------------------------------------------------|

e:|--------------------------------------------------------------|
B:|--------------------------------------------------------------|
G:|-7-7-7-7-7-7-7-7/1010101010101010-12121212/10/9-9-9-9-9-9-9-9-|
D:|-x-x-x-x-x-x-x-x--x-x-x-x-x-x-x-x--x-x-x-x--x-x-x-x-x-x-x-x-x-|
A:|-5-5-5-5-5-5-5-5/-8-8-8-8-8-8-8-8-10101010/-8/7-7-7-7-7-7-7-7-|
E:|--------------------------------------------------------------|

e:|------------------------------------------------------------------|
B:|------------------------------------------------------------------|
G:|-7-7-7-7-7-7-7-7/1010101010101010-3-3-3-3-3-3-3-3-3-3-3-3-3-3-3-3-|
D:|-x-x-x-x-x-x-x-x--x-x-x-x-x-x-x-x-x-x-x-x-x-x-x-x-x-x-x-x-x-x-x-x-|
A:|-5-5-5-5-5-5-5-5/-8-8-8-8-8-8-8-8-1-1-1-1-1-1-1-1-1-1-1-1-1-1-1-1-|
E:|------------------------------------------------------------------|

e:|---------------------------------------------------------------|
B:|---------------------------------------------------------------|
G:|-7-7-7-7-7-7-7-7/1010101010101010-12121212/10/1414141414141414-|
D:|-x-x-x-x-x-x-x-x--x-x-x-x-x-x-x-x--x-x-x-x--x--x-x-x-x-x-x-x-x-|
A:|-5-5-5-5-5-5-5-5/-8-8-8-8-8-8-8-8-10101010/-8/1212121212121212-|
E:|---------------------------------------------------------------|

Bridge Pt I:

(you will have to figure out timing yourself here for both Gtrs)

Gtr I

(Just tremelo pick each of these notes)

e:|-------------------|
B:|-------------------|
G:|-------------------|
D:|-12-14-15-14-12-11-|
A:|-------------------|
E:|-------------------|

Gtr II

e:|-------------------------------------------------|
B:|-15^-15^-15^-17^-18^-18^-18^-18^-18^-18^-18^-18^-|
G:|-------------------------------------------------|
D:|-------------------------------------------------|
A:|-------------------------------------------------|
E:|-------------------------------------------------|

Bridge Pt II:

Gtr I

e:|-------------------------------------------------------|
B:|-------------------------------------------------------|
G:|-------------------------------------------------------|
D:|-------------------------------------------------------|
A:|-5~-/5--3~---------------------------------------------|
E:|------------6-5---5-5h6p5~-3-3h5p3/1-0-1-3-1~-1-0-0/5~-|

Gtr II

e:|------------------------------------------------------------|
B:|------------------------------------------------------------|
G:|------------------------------------------------------------|
D:|-3~-/3-2~----------------------------------------------5/7~-|
A:|----------5-4-2-4-4h5p4~-2-2h4p2/5~-5~----5~-----5~---------|
E:|------------------------------------------------------------|

Bridge Pt III: 

Gtr I (x2)

e:|-----------------------------------------------------------------|
B:|-----------------------------------------------------------------|
G:|-7-7-7-7-7-7-7-7-7-7-7-7-7-7-7-7-7-7-7-7-7-7-7-7-7-7-7-7-7-7-7-7-|
D:|-7-7-7-7-7-7-7-7-7-7-7-7-7-7-7-7-7-7-7-7-7-7-7-7-7-7-7-7-7-7-7-7-|
A:|-5-5-5-5-5-5-5-5-5-5-5-5-5-5-5-5-5-5-5-5-5-5-5-5-5-5-5-5-5-5-5-5-|
E:|-----------------------------------------------------------------|

e:|-----------------------------------------------------------------|
B:|-----------------------------------------------------------------|
G:|-----------------------------------------------------------------|
D:|-3-3-3-3-3-3-3-3-3-3-3-3-3-3-3-3-7-7-7-7-7-7-7-7-7-7-7-7-7-7-7-7-|
A:|-3-3-3-3-3-3-3-3-3-3-3-3-3-3-3-3-7-7-7-7-7-7-7-7-7-7-7-7-7-7-7-7-|
E:|-1-1-1-1-1-1-1-1-1-1-1-1-1-1-1-1-5-5-5-5-5-5-5-5-5-5-5-5-5-5-5-5-|

Gtr II

e:|--------------------------------------------------------------------|
B:|--------------------------------------------------------------------|
G:|-14141414141414141414141414141414/1515151515151515/1717171717171717-|
D:|--x-x-x-x-x-x-x-x-x-x-x-x-x-x-x-x--x-x-x-x-x-x-x-x--x-x-x-x-x-x-x-x-|
A:|-12121212121212121212121212121212/1313131313131313/1515151515151515-|
E:|--------------------------------------------------------------------|

e:|--------------------------------------------------------------------|
B:|--------------------------------------------------------------------|
G:|-15151515151515151515151515151515-1010101010101010/1212121212121212-|
D:|--x-x-x-x-x-x-x-x-x-x-x-x-x-x-x-x--x-x-x-x-x-x-x-x--x-x-x-x-x-x-x-x-|
A:|-13131313131313131313131313131313--8-8-8-8-8-8-8-8/1010101010101010-|
E:|--------------------------------------------------------------------|

e:|--------------------------------------------------------------------|
B:|--------------------------------------------------------------------|
G:|-14141414141414141414141414141414/1515151515151515/1717171717171717-|
D:|--x-x-x-x-x-x-x-x-x-x-x-x-x-x-x-x--x-x-x-x-x-x-x-x--x-x-x-x-x-x-x-x-|
A:|-12121212121212121212121212121212/1313131313131313/1515151515151515-|
E:|--------------------------------------------------------------------|

e:|---------------------------------------------------------------------|
B:|---------------------------------------------------------------------|
G:|-1515151515151515/1414141414141414/1212121212121212/1010101010101010-|
D:|--x-x-x-x-x-x-x-x--x-x-x-x-x-x-x-x--x-x-x-x-x-x-x-x--x-x-x-x-x-x-x-x-|
A:|-1313131313131313/1212121212121212/1010101010101010/-8-8-8-8-8-8-8-8-|
E:|---------------------------------------------------------------------|

Repeat Chorus

After Chorus has been played four times, Gtr II changes to this:

Gtr II (x4)

e:|-------------------------------------------------------------------|
B:|-------------------------------------------------------------------|
G:|-1212121212121212/1010101010101010/9-9-9-9-9-9-9-9-9-9-9-9-9-9-9-9-|
D:|--x-x-x-x-x-x-x-x--x-x-x-x-x-x-x-x-x-x-x-x-x-x-x-x-x-x-x-x-x-x-x-x-|
A:|-1010101010101010/-8-8-8-8-8-8-8-8/7-7-7-7-7-7-7-7-7-7-7-7-7-7-7-7-|
E:|-------------------------------------------------------------------|

For the outro, just go crazy and end on

Gtr I

e:|----|
B:|----|
G:|-0~-|
D:|-0~-|
A:|-0~-|
E:|----|

Gtr II

e:|--------------|
B:|-<5>----------|
G:|-----<5>-<3>~-|
D:|--------------|
A:|--------------|
E:|--------------|

------------------------------------------------------------
XI: It's Not A Fashion Statement, It's A Fucking Deathwish
-------------------------------------------------------------

Gtr I: Ray Toro: Standard Tuning (e,B,G,D,A,E)
Gtr II: Frank Iero: Standard Tuning (e,B,G,D,A,E)

Intro Pt I:

Gtr I

e:|-----------------------------------------------------------------|
B:|-----------------------------------------------------------------|
G:|-6-x-6-6-x-x-6-6-6-6-x-6-x-6-6-x-x-8-9-8-6-x-9-x-9-9-x-8-8-8-8-x-|
D:|-x-x-x-x-x-x-x-x-x-x-x-x-x-x-x-x-x-x-x-x-x-x-x-x-x-x-x-x-x-x-x-x-|
A:|-4-x-4-4-x-x-4-4-4-4-x-x-x-x-x-x-x-x-x-x-x-x-x-x-x-x-x-x-x-x-x-x-|
E:|-----------------------5-x-5-5-x-x-5-5-5-5-x-7-x-7-7-x-7-7-7-7-x-|

e:|-------------------|
B:|-------------------|
G:|-6-x-6-8-6-5-x-5-5-|
D:|-x-x-x-x-x-x-x-x-x-|
A:|-x-x-x-x-x-x-x-x-x-|
E:|-4-x-4-4-4-4-x-4-4-|

When the lyrics start:

Gtr I

e:|-----------------------------------------------------------------|
B:|-----------------------------------------------------------------|
G:|-6-x-6-6-x-x-6-6-6-6-x-6-x-6-6-x-x-8-9-8-6-x-9-x-9-9-x-8-8-8-8-x-|
D:|-x-x-x-x-x-x-x-x-x-x-x-x-x-x-x-x-x-x-x-x-x-x-x-x-x-x-x-x-x-x-x-x-|
A:|-4-x-4-4-x-x-4-4-4-4-x-x-x-x-x-x-x-x-x-x-x-x-x-x-x-x-x-x-x-x-x-x-|
E:|-----------------------5-x-5-5-x-x-5-5-5-5-x-7-x-7-7-x-7-7-7-7-x-|

e:|-----------------------------|
B:|-----------------------------|
G:|-----------------------------|
D:|-6-6-6-6-6-6-6-6-6-6-6-6-6-6-|
A:|-6-6-6-6-6-6-6-6-6-6-6-6-6-6-|
E:|-4-4-4-4-4-4-4-4-4-4-4-4-4-4-|
PM  * * * * * * * * * * * *

Gtr II

e:|---------------------------------------------------------------|
B:|---------------------------------------------------------------|
G:|-6-6-----------------------------------------------------------|
D:|-6-6--------7-7--------9--9--9--9--6-6-6-6-6-6-6-6-6-6-6-6-6-6-|
A:|-4-4--------7-7--------9--9--9--9--6-6-6-6-6-6-6-6-6-6-6-6-6-6-|
E:|------------5-5--------7--7--7--7--4-4-4-4-4-4-4-4-4-4-4-4-4-4-|
PM                                    * * * * * * * * * * * *

Intro Pt II:

Gtr I

e:|-----------------------------------------------------------|
B:|-----------------------------------------------------------|
G:|-9-9-9-9-9-9-9-9-9-9-9-9-9-9-8/9-9-9-9-9-9-9-9-9-9-9-9-9-9-|
D:|-x-x-x-x-x-x-x-x-x-x-x-x-x-x-x-x-x-x-x-x-x-x-x-x-x-x-x-x-x-|
A:|-7-7-7-7-7-7-7-7-7-7-7-7-7-7-6/7-7-7-7-7-7-7-7-7-7-7-7-7-7-|
E:|-----------------------------------------------------------|

e:|----------------------------------------------------|
B:|----------------------------------------------------|
G:|-11/1313131313131313131313131313-11/9-9-9-9-9-9-9-9-|
D:|--x--x-x-x-x-x-x-x-x-x-x-x-x-x-x--x-x-x-x-x-x-x-x-x-|
A:|--9/1111111111111111111111111111--9/7-7-7-7-7-7-7-7-|
E:|----------------------------------------------------|

e:|--------------------|
B:|--------------------|
G:|-9/11111111/8-8-8-8-|
D:|-x--x-x-x-x-x-x-x-x-|
A:|-7/-9-9-9-9/6-6-6-6-|
E:|--------------------|

Gtr II

e:|-----------------------------------------------------------------|
B:|-----------------------------------------------------------------|
G:|-6-6-6-6-6-6-6-6-6-6-6-6-6-6-6-6---------------------------------|
D:|-6-6-6-6-6-6-6-6-6-6-6-6-6-6-6-6-7-7-7-7-7-7-7-7-7-7-7-7-7-7-7-7-|
A:|-4-4-4-4-4-4-4-4-4-4-4-4-4-4-4-4-7-7-7-7-7-7-7-7-7-7-7-7-7-7-7-7-|
E:|---------------------------------5-5-5-5-5-5-5-5-5-5-5-5-5-5-5-5-|

e:|-----------------------------------------------------------------|
B:|-----------------------------------------------------------------|
G:|-----------------------------------------------------------------|
D:|-9-9-9-9-9-9-9-9-9-9-9-9-9-9-9-9-6-6-6-6-6-6-6-6-6-6-6-6-6-6-6-6-|
A:|-9-9-9-9-9-9-9-9-9-9-9-9-9-9-9-9-6-6-6-6-6-6-6-6-6-6-6-6-6-6-6-6-|
E:|-7-7-7-7-7-7-7-7-7-7-7-7-7-7-7-7-4-4-4-4-4-4-4-4-4-4-4-4-4-4-4-4-|

Pre-Verse:

Gtr I

e:|---------------------|-------------------------------|
B:|---------------------|-------------------------------|
G:|-6-x-6-6-x-x-6-6-6-6-|-9-x-9-9-x-x-13-13-13-13/14/13-|
D:|-x-x-x-x-x-x-x-x-x-x-|-x-x-x-x-x-x--x--x--x--x--x--x-|
A:|-4-x-4-4-x-x-4-4-4-4-|-7-x-7-7-x-x-11-11-11-11/12/11-|
E:|---------------------|-------------------------------|

Gtr II

e:|---------------------|-------------------------|
B:|---------------------|-------------------------|
G:|---------------------|-6-x-x-6-x-x-6-x-x-6-x-x-|
D:|---------------------|-x-x-x-x-x-x-x-x-x-x-x-x-|
A:|---------------------|-4-x-x-4-x-x-4-x-x-4-x-x-|
E:|---------------------|-------------------------|

Verse I Pt I:

Gtr I (x2)

e:|-----------------------------------------------------------------|
B:|-----------------------------------------------------------------|
G:|-6-6-6-6-6-6-6-6-6-6-6-6-6-6-6-6---------------------------------|
D:|-6-6-6-6-6-6-6-6-6-6-6-6-6-6-6-6-7-7-7-7-7-7-7-7-7-7-7-7-7-7-7-7-|
A:|-4-4-4-4-4-4-4-4-4-4-4-4-4-4-4-4-7-7-7-7-7-7-7-7-7-7-7-7-7-7-7-7-|
E:|---------------------------------5-5-5-5-5-5-5-5-5-5-5-5-5-5-5-5-|

e:|---------------------------------------------------------|
B:|---------------------------------------------------------|
G:|---------------------------------------------------------|
D:|-9-9-9-9-9-9-9-9-9-9-9-9-9-9-9-9-------------------------|
A:|-9-9-9-9-9-9-9-9-9-9-9-9-9-9-9-9-6-6-6-6-6-7-6-6-6-6-6-6-|
E:|-7-7-7-7-7-7-7-7-7-7-7-7-7-7-7-7-4-4-4-4-4-4-4-4-4-4-4-4-|
PM                                  * *   * *   * *   * *

Gtr II (x2)

e:|-----------------------------------------------------------------|
B:|-----------------------------------------------------------------|
G:|-6-6-6-6-6-6-6-6-6-6-6-6-6-6-6-6-6-6-6-6-6-6-6-6-8-8-9-9-8-8-6-6-|
D:|-x-x-x-x-x-x-x-x-x-x-x-x-x-x-x-x-x-x-x-x-x-x-x-x-x-x-x-x-x-x-x-x-|
A:|-4-4-4-4-4-4-4-4-4-4-4-4-4-4-4-4-x-x-x-x-x-x-x-x-x-x-x-x-x-x-x-x-|
E:|---------------------------------5-5-5-5-5-5-5-5-5-5-5-5-5-5-5-5-|

e:|---------------------------------------------------------|
B:|---------------------------------------------------------|
G:|-9-9-9-9-9-9-9-9-8-8-8-8-8-8-8-8-------------------------|
D:|-x-x-x-x-x-x-x-x-x-x-x-x-x-x-x-x-------------------------|
A:|-x-x-x-x-x-x-x-x-x-x-x-x-x-x-x-x-----6-----7-----9-----6-|
E:|-7-7-7-7-7-7-7-7-7-7-7-7-7-7-7-7-4-4---4-4---4-4---4-4---|
PM                                  * *   * *   * *   * *

Verse I Pt II:

Gtr I

e:|-----------------------------------------------------------------|
B:|-----------------------------------------------------------------|
G:|-----------------------------------------------------------------|
D:|-7-7-7-7-7-7-7-7-7-7-7-7-7-7-7-7-9-9-9-9-9-9-9-9-9-9-9-9-9-9-9-9-|
A:|-7-7-7-7-7-7-7-7-7-7-7-7-7-7-7-7-9-9-9-9-9-9-9-9-9-9-9-9-9-9-9-9-|
E:|-5-5-5-5-5-5-5-5-5-5-5-5-5-5-5-5-7-7-7-7-7-7-7-7-7-7-7-7-7-7-7-7-|

e:|
B:|-----------------------------------------------------------------|
G:|-----------------------------------------------------------------|
D:|-6-6-6-6-6-6-6-6-6-6-6-6-6-6-6-6-7-7-7-7-7-7-7-7-6-6-4-4-2-2-2-2-|
A:|-6-6-6-6-6-6-6-6-6-6-6-6-6-6-6-6-7-7-7-7-7-7-7-7-7-7-4-4-2-2-2-2-|
E:|-4-4-4-4-4-4-4-4-4-4-4-4-4-4-4-4-5-5-5-5-5-5-5-5-4-4-2-2-0-0-0-0-|

Gtr II

e:|-----------------------------------------------------------------|
B:|-----------------------------------------------------------------|
G:|-----------------------------------------------------------------|
D:|-7-7-7-7-7-7-7-7-7-7-7-7-7-7-7-7-9-9-9-9-9-9-9-9-9-9-9-9-9-9-9-9-|
A:|-7-7-7-7-7-7-7-7-7-7-7-7-7-7-7-7-9-9-9-9-9-9-9-9-9-9-9-9-9-9-9-9-|
E:|-5-5-5-5-5-5-5-5-5-5-5-5-5-5-5-5-7-7-7-7-7-7-7-7-7-7-7-7-7-7-7-7-|

e:|
B:|-----------------------------------------------------------------|
G:|-----------------------------------------------------------------|
D:|-6-6-6-6-6-6-6-6-6-6-6-6-6-6-6-6-7-7-7-7-7-7-7-7-7-7-7-7-7-7-7-7-|
A:|-6-6-6-6-6-6-6-6-6-6-6-6-6-6-6-6-7-7-7-7-7-7-7-7-7-7-7-7-7-7-7-7-|
E:|-4-4-4-4-4-4-4-4-4-4-4-4-4-4-4-4-5-5-5-5-5-5-5-5-5-5-5-5-5-5-5-5-|

Pre-Chorus I:

Gtr I

e:|-----------------------------------------------------------------|
B:|-----------------------------------------------------------------|
G:|-6-6-6-6-6-6-6-6/8-8-8-8/9-9-9-9-4-4-4-4-4-4-4-4/8-8-8-8/9-9-9-9-|
D:|-x-x-x-x-x-x-x-x-x-x-x-x-x-x-x-x-x-x-x-x-x-x-x-x-x-x-x-x-x-x-x-x-|
A:|-4-4-4-4-4-4-4-4/6-6-6-6/7-7-7-7-2-2-2-2-2-2-2-2/6-6-6-6/7-7-7-7-|
E:|-----------------------------------------------------------------|

e:|--------------------------------------------------------------|
B:|--------------------------------------------------------------|
G:|--------------------------------------------------------------|
D:|-6-6-6-6-6-6-6-6-6-6-6-6-6-6-6-6-6-7-9-11-11/9-6/7--------7-9-|
A:|-6-6-6-6-6-6-6-6-6-6-6-6-6-6-6-6-x-x-x--x--x-x-x-x--------7-9-|
E:|-4-4-4-4-4-4-4-4-4-4-4-4-4-4-4-4-4-5-7--9--9/7-4/5--------5-7-|

Gtr II

e:|-----------------------------------------------------------------|
B:|-----------------------------------------------------------------|
G:|-6-6-6-6-6-6-6-6-6-6-6-6-6-6-6-6---------------------------------|
D:|-6-6-6-6-6-6-6-6-6-6-6-6-6-6-6-6-7-7-7-7-7-7-7-7-7-7-7-7-7-7-7-7-|
A:|-4-4-4-4-4-4-4-4-4-4-4-4-4-4-4-4-7-7-7-7-7-7-7-7-7-7-7-7-7-7-7-7-|
E:|---------------------------------5-5-5-5-5-5-5-5-5-5-5-5-5-5-5-5-|

e:|------------------------------------------------------------|
B:|------------------------------------------------------------|
G:|------------------------------------------------------------|
D:|-6-6-6-6-6-6-6-6-6-6-6-6-6-6-6-6-6-7-6-7-6/7-6/7--------7-9-|
A:|-6-6-6-6-6-6-6-6-6-6-6-6-6-6-6-6-x-x-x-x-x-x-x-x--------7-9-|
E:|-4-4-4-4-4-4-4-4-4-4-4-4-4-4-4-4-4-5-4-5-4/5-4/5--------5-7-|

e:|---------------------------------|
B:|---------------------------------|
G:|---------------------------------|
D:|---------------------------------|
A:|---------------------------------|
E:|-//////////Pick-Scrape\\\\\\\\\\-|

Chorus type thingy:

Gtr I

e:|-----------------------------------------------------------------|
B:|-----------------------------------------------------------------|
G:|-9-9-9-9-9-9-9-9/8-8-8-8-8-8-8-8/6-6-6-6-6-6-6-6-6-6-6-6-6-6-6-6-|
D:|-x-x-x-x-x-x-x-x-x-x-x-x-x-x-x-x-x-x-x-x-x-x-x-x-x-x-x-x-x-x-x-x-|
A:|-7-7-7-7-7-7-7-7/6-6-6-6-6-6-6-6/4-4-4-4-4-4-4-4-4-4-4-4-4-4-4-4-|
E:|-----------------------------------------------------------------|

e:|-------------------------------------------------------------|
B:|-4h5-5-5-4h5-5-5-4h5-5-5-5p4/2-4h5-5-5-4h5-5-5-4h5-5-5-5p4/2-|
G:|-------------------------------------------------------------|
D:|-------------------------------------------------------------|
A:|-------------------------------------------------------------|
E:|-------------------------------------------------------------|

e:|---------------------------------------------------------|
B:|---------------------------------------------------------|
G:|-9-9-9-9-9-9-9-9/8-8-8-8-8-8-8-8-6-x-6-6-x-x-6-6-6-6-x-x-|
D:|-x-x-x-x-x-x-x-x-x-x-x-x-x-x-x-x-x-x-x-x-x-x-x-x-x-x-x-x-|
A:|-7-7-7-7-7-7-7-7/6-6-6-6-6-6-6-6-4-x-4-4-x-x-4-4-4-4-x-x-|
E:|---------------------------------------------------------|

e:|-----------------------------------------------------------------|
B:|-----------------------------------------------------------------|
G:|-----------------------------------------------------------------|
D:|-7-7-7-7-7-7-7-7-7-7-7-7-7-7-7-7-9-9-9-9-9-9-9-9-----------------|
A:|-7-7-7-7-7-7-7-7-7-7-7-7-7-7-7-7-9-9-9-9-9-9-9-9-9-9-9-9-9-9-9-9-|
E:|-5-5-5-5-5-5-5-5-5-5-5-5-5-5-5-5-7-7-7-7-7-7-7-7-7-7-7-7-7-7-6-6-|
PM                                                  * * * * * * * *

Gtr II

e:|---------------------------------------------------------------|
B:|---------------------------------------------------------------|
G:|-9-9-9-9-9-9-9-9/11111111-9-9/1111/1313131313131313/14/1313/11-|
D:|-x-x-x-x-x-x-x-x--x-x-x-x-x-x--x-x--x-x-x-x-x-x-x-x--x--x-x--x-|
A:|-7-7-7-7-7-7-7-7/-9-9-9-9-7-7/-9-9/1111111111111111/12/1111/-9-|
E:|---------------------------------------------------------------|

e:|------------------------------------------------------------------|
B:|------------------------------------------------------------------|
G:|-9-9-9-9-9-9-9-9-9-9-9-9-9-9-9-9/11111111111111111111111111111111-|
D:|-x-x-x-x-x-x-x-x-x-x-x-x-x-x-x-x--x-x-x-x-x-x-x-x-x-x-x-x-x-x-x-x-|
A:|-7-7-7-7-7-7-7-7-7-7-7-7-7-7-7-7/-9-9-9-9-9-9-9-9-9-9-9-9-9-9-9-9-|
E:|------------------------------------------------------------------|

e:|------------------------------------------------------------|
B:|------------------------------------------------------------|
G:|-9-9-9-9-9-9-9-9/11111111/1313/1111-9-x-9-9-x-x-9-9-9-9-x-x-|
D:|-x-x-x-x-x-x-x-x--x-x-x-x--x-x--x-x-x-x-x-x-x-x-x-x-x-x-x-x-|
A:|-7-7-7-7-7-7-7-7/-9-9-9-9/1111/-9-9-7-x-7-7-x-x-7-7-7-7-x-x-|
E:|------------------------------------------------------------|

e:|-----------------------------------------------------------------|
B:|-----------------------------------------------------------------|
G:|-----------------------------------------------------------------|
D:|-7-7-7-7-7-7-7-7-7-7-7-7-7-7-7-7-9-9-9-9-9-9-9-9-----------------|
A:|-7-7-7-7-7-7-7-7-7-7-7-7-7-7-7-7-9-9-9-9-9-9-9-9-9-9-9-9-9-9-9-9-|
E:|-5-5-5-5-5-5-5-5-5-5-5-5-5-5-5-5-7-7-7-7-7-7-7-7-7-7-7-7-7-7-6-6-|
PM                                                  * * * * * * * *

Repeat Pre-Verse

Verse II Pt I:

Gtr I

e:|-----------------------------------------------------------------|
B:|-----------------------------------------------------------------|
G:|-6-6-6-6-6-6-6-6-6-6-6-6-6-6-6-6---------------------------------|
D:|-6-6-6-6-6-6-6-6-6-6-6-6-6-6-6-6-7-7-7-7-7-7-7-7-7-7-7-7-7-7-7-7-|
A:|-4-4-4-4-4-4-4-4-4-4-4-4-4-4-4-4-7-7-7-7-7-7-7-7-7-7-7-7-7-7-7-7-|
E:|---------------------------------5-5-5-5-5-5-5-5-5-5-5-5-5-5-5-5-|

e:|---------------------------------------------------------|
B:|---------------------------------------------------------|
G:|---------------------------------------------------------|
D:|-9-9-9-9-9-9-9-9-9-9-9-9-9-9-9-9-------------------------|
A:|-9-9-9-9-9-9-9-9-9-9-9-9-9-9-9-9-6-6-6-6-6-7-6-6-6-6-6-6-|
E:|-7-7-7-7-7-7-7-7-7-7-7-7-7-7-7-7-4-4-4-4-4-4-4-4-4-4-4-4-|
PM                                  * *   * *   * *   * *

e:|-------------------------------------------------------------|
B:|-------------------------------------------------------------|
G:|-------------------------------------------------------------|
D:|-----------6-4---4-------------6-4---4-------------6-4---4---|
A:|-4-4-6h7p6-----7---7-4-4-6h7p6-----7---7-4-4-6h7p6-----7---7-|
E:|-------------------------------------------------------------|

e:|---------------|
B:|---------------|
G:|---------------|
D:|---------------|
A:|-4-4-6h7p6/3~~-|
E:|---------------|

Gtr II

e:|-----------------------------------------------------------------|
B:|-----------------------------------------------------------------|
G:|-6-6-6-6-6-6-6-6-6-6-6-6-6-6-6-6-6-6-6-6-6-6-6-6-8-8-9-9-8-8-6-6-|
D:|-x-x-x-x-x-x-x-x-x-x-x-x-x-x-x-x-x-x-x-x-x-x-x-x-x-x-x-x-x-x-x-x-|
A:|-4-4-4-4-4-4-4-4-4-4-4-4-4-4-4-4-x-x-x-x-x-x-x-x-x-x-x-x-x-x-x-x-|
E:|---------------------------------5-5-5-5-5-5-5-5-5-5-5-5-5-5-5-5-|

e:|---------------------------------------------------------|
B:|---------------------------------------------------------|
G:|-9-9-9-9-9-9-9-9-8-8-8-8-8-8-8-8-------------------------|
D:|-x-x-x-x-x-x-x-x-x-x-x-x-x-x-x-x-----4-----6-----7-----6-|
A:|-x-x-x-x-x-x-x-x-x-x-x-x-x-x-x-x-------------------------|
E:|-7-7-7-7-7-7-7-7-7-7-7-7-7-7-7-7-4-4---4-4---4-4---4-4---|
PM                                  * *   * *   * *   * *  

e:|-----------------------------------------------------------------|
B:|-----------------------------------------------------------------|
G:|-6-6-6-6-6-6-6-6-6-6-6-6-6-6-6-6---------------------------------|
D:|-6-6-6-6-6-6-6-6-6-6-6-6-6-6-6-6-7-7-7-7-7-7-7-7-7-7-7-7-7-7-7-7-|
A:|-4-4-4-4-4-4-4-4-4-4-4-4-4-4-4-4-7-7-7-7-7-7-7-7-7-7-7-7-7-7-7-7-|
E:|---------------------------------5-5-5-5-5-5-5-5-5-5-5-5-5-5-5-5-|

e:|-----------------------------------------------------------------|
B:|-----------------------------------------------------------------|
G:|-----------------------------------------------------------------|
D:|-9-9-9-9-9-9-9-9-9-9-9-9-9-9-9-9-6-6-6-6-6-6-6-6-6-6-6-6-6-6-6-6-|
A:|-9-9-9-9-9-9-9-9-9-9-9-9-9-9-9-9-6-6-6-6-6-6-6-6-6-6-6-6-6-6-6-6-|
E:|-7-7-7-7-7-7-7-7-7-7-7-7-7-7-7-7-4-4-4-4-4-4-4-4-4-4-4-4-4-4-4-4-|

Verse II Pt II:

(I will avenge my ghost)

Gtr I

e:|---------------------------------|
B:|---------------------------------|
G:|-2-2-2-2-2-2-2-2-4-4-4-4-4-4-4-4-|
D:|-2-2-2-2-2-2-2-2-4-4-4-4-4-4-4-4-|
A:|---------------------------------|
E:|---------------------------------|

Both Gtrs

e:|------------------------------------------------|
B:|------------------------------------------------|
G:|------------------------------------------------|
D:|-6--6--6--6--6--6--6--6--7--7--7--7--7--7--7--7-|
A:|-6--6--6--6--6--6--6--6--7--7--7--7--7--7--7--7-|
E:|-4--4--4--4--4--4--4--4--5--5--5--5--5--5--5--5-|

Pre-Chorus II:

Gtr I

e:|-----------------------------------------------------------------|
B:|-----------------------------------------------------------------|
G:|-6-6-6-6-6-6-6-6/8-8-8-8/9-9-9-9-4-4-4-4-4-4-4-4/8-8-8-8/9-9-9-9-|
D:|-x-x-x-x-x-x-x-x-x-x-x-x-x-x-x-x-x-x-x-x-x-x-x-x-x-x-x-x-x-x-x-x-|
A:|-4-4-4-4-4-4-4-4/6-6-6-6/7-7-7-7-2-2-2-2-2-2-2-2/6-6-6-6/7-7-7-7-|
E:|-----------------------------------------------------------------|

e:|-----------------------------|
B:|-----------------------------|
G:|-----------------------------|
D:|-x-x-6~~~~~~~~-6-7-6-7-6/7/6-|
A:|-x-x-6~~~~~~~~-x-x-x-x-x-x-x-|
E:|-x-x-4~~~~~~~~-4-5-4-5-4/5/4-|

Gtr II

e:|-----------------------------------------------------------------|
B:|-----------------------------------------------------------------|
G:|-6-6-6-6-6-6-6-6-6-6-6-6-6-6-6-6---------------------------------|
D:|-6-6-6-6-6-6-6-6-6-6-6-6-6-6-6-6-7-7-7-7-7-7-7-7-7-7-7-7-7-7-7-7-|
A:|-4-4-4-4-4-4-4-4-4-4-4-4-4-4-4-4-7-7-7-7-7-7-7-7-7-7-7-7-7-7-7-7-|
E:|---------------------------------5-5-5-5-5-5-5-5-5-5-5-5-5-5-5-5-|

e:|------------------------------------------------|
B:|------------------------------------------------|
G:|---------------------------11-13-11-13-13/14/13-|
D:|-x-x-6~~~~------------------x--x--x--x--x--x--x-|
A:|-x-x-6~~~~------------------9-11--9-11-11/12/11-|
E:|-x-x-4~~~~-//Pick-Scrape\\----------------------|

Bridge:

Gtr I

e:|----5-5p4p2~-----5-5p4p2~----5-5p4p2~-5-4-2-4-|
B:|----0-0-0-0~-----0-0-0-0-----0-0-0-0~-0-0-0-0-|
G:|----------------------------------------------|
D:|----------------------------------------------|
A:|--------------0~------------------------------|
E:|-0~-----------------------6~------------------|

e:|----5-5p4p2~----5-5p4p2~-|
B:|----0-0-0-0~----0-0-0-0~-|
G:|-------------------------|
D:|-------------------------|
A:|-------------------------|
E:|-0~----------0~----------|

e:|-0-2p0---4p0---2p0---4p0---2p0---|
B:|-------0-----0-----0-----0-----0-|
G:|---------------------------------|
D:|---------------------------------|
A:|---------------------------------|
E:|---------------------------------|

e:|-2p0---4p0---5p0---4p0---2p0---4p0---2p0---2p0---|
B:|-----0-----0-----0-----0-----0-----0-----0-----0-|
G:|-------------------------------------------------|
D:|-------------------------------------------------|
A:|-------------------------------------------------|
E:|-------------------------------------------------|

Gtr II

e:|----------------------------------------------|
B:|----------------------------------------------|
G:|-9~~~~~~~~---------------------14-13-11-11/13-|
D:|-x---------7~~~~~~~~-8~~~~~~~~--x--x--x--x--x-|
A:|-7~~~~~~~~-x---------x---------12-11--9--9/11-|
E:|-----------5~~~~~~~~-6~~~~~~~~----------------|

e:|--------------------------|
B:|--------------------------|
G:|-9~~~~~~~~-9/11/9~~~~~~~~-|
D:|-x---------x--x-x---------|
A:|-7~~~~~~~~-7/-9/7~~~~~~~~-|
E:|--------------------------|

e:|-------------------------------|
B:|-------------------------------|
G:|-9~~~~~~~~---------------------|
D:|-x-----------------------------|
A:|-7~~~~~~~~---------------------|
E:|-----------////Pick-Scrape\\\\-|

Out-Chorus:

Gtr I (x2)

e:|-----------------------------------------------------------------|
B:|-----------------------------------------------------------------|
G:|-9-9-9-8-9-9-9-9-9-9-9-9-9-9-9-9---------------------------------|
D:|-9-9-9-9-9-9-9-9-9-9-9-9-9-9-9-9-7-7-7-7-7-7-7-7-7-7-7-7-7-7-7-7-|
A:|-7-7-7-7-7-7-7-7-7-7-7-7-7-7-7-7-7-7-7-7-7-7-7-7-7-7-7-7-7-7-7-7-|
E:|---------------------------------5-5-5-5-5-5-5-5-5-5-5-5-5-5-5-5-|

e:|-----------------------------------------------------------------|
B:|-----------------------------------------------------------------|
G:|-6-6-6-6-6-6-6-6-6-6-6-6-6-6-6-6-4-4-4-4-4-4-4-4-6-6-6-6-6-6-6-6-|
D:|-6-6-6-6-6-6-6-6-6-6-6-6-6-6-6-6-4-4-4-4-4-4-4-4-4-4-4-4-4-4-4-4-|
A:|-4-4-4-4-4-4-4-4-4-4-4-4-4-4-4-4-2-2-2-2-2-2-2-2-2-2-2-2-2-2-2-2-|
E:|-----------------------------------------------------------------|

e:|-----------------------------------------------------------------|
B:|-----------------------------------------------------------------|
G:|-----------------------------------------------------------------|
D:|-2-2-2-2-2-2-2-2-2-2-2-2-2-2-2-2-7-7-7-7-7-7-7-7-7-7-7-7-7-7-7-7-|
A:|-2-2-2-2-2-2-2-2-2-2-2-2-2-2-2-2-7-7-7-7-7-7-7-7-7-7-7-7-7-7-7-7-|
E:|-0-0-0-0-0-0-0-0-0-0-0-0-0-0-0-0-5-5-5-5-5-5-5-5-5-5-5-5-5-5-5-5-|

e:|-------------------------------------------------------------------|
B:|-------------------------------------------------------------------|
G:|-------------------------------------------------------------------|
D:|-11111111111111111111111111111111----------------------------------|
A:|-11111111111111111111111111111111-1111111111111111-9-9-9-9-9-9-9-9-|
E:|--9-9-9-9-9-9-9-9-9-9-9-9-9-9-9-9--7-7-7-7-7-7-7-7-7-7-7-7-7-7-7-7-|

After the above has been played twice, it changes ever so slightly to this:

e:|-----------------------------------------------------------------|
B:|-----------------------------------------------------------------|
G:|-9-9-9-8-9-9-9-9-9-9-9-9-9-9-9-9---------------------------------|
D:|-9-9-9-9-9-9-9-9-9-9-9-9-9-9-9-9-7-7-7-7-7-7-7-7-7-7-7-7-7-7-7-7-|
A:|-7-7-7-7-7-7-7-7-7-7-7-7-7-7-7-7-7-7-7-7-7-7-7-7-7-7-7-7-7-7-7-7-|
E:|---------------------------------5-5-5-5-5-5-5-5-5-5-5-5-5-5-5-5-|

e:|---------------------------------------------------------|
B:|---------------------------------------------------------|
G:|-6-6-6-6-6-6-6-6-6-6-6-6-6-6-6-6-4-4-4-4-4-4-4-4-6-6-6-6-|
D:|-6-6-6-6-6-6-6-6-6-6-6-6-6-6-6-6-4-4-4-4-4-4-4-4-4-4-4-4-|
A:|-4-4-4-4-4-4-4-4-4-4-4-4-4-4-4-4-2-2-2-2-2-2-2-2-2-2-2-2-|
E:|---------------------------------------------------------|
PM                                                  * * *

e:|-----------------------------------------------------------------|
B:|-----------------------------------------------------------------|
G:|-----------------------------------------------------------------|
D:|-2-2-2-2-2-2-2-2-2-2-2-2-2-2-2-2-7-7-7-7-7-7-7-7-7-7-7-7-7-7-7-7-|
A:|-2-2-2-2-2-2-2-2-2-2-2-2-2-2-2-2-7-7-7-7-7-7-7-7-7-7-7-7-7-7-7-7-|
E:|-0-0-0-0-0-0-0-0-0-0-0-0-0-0-0-0-5-5-5-5-5-5-5-5-5-5-5-5-5-5-5-5-|

e:|-------------------------------------------------------------------|
B:|-------------------------------------------------------------------|
G:|-------------------------------------------------------------------|
D:|-11111111111111111111111111111111----------------------------------|
A:|-11111111111111111111111111111111-1111111111111111-9-9-9-9-9-9-9-9-|
E:|--9-9-9-9-9-9-9-9-9-9-9-9-9-9-9-9--7-7-7-7-7-7-7-7-7-7-7-7-7-7-7-7-|

Gtr II (x3)

e:|-----------------------------------------------------------------|
B:|-----------------------------------------------------------------|
G:|-9-9-9-9-9-9-9-9-9-9-9-9-9-9-9-9-9-9-9-9-9-9-9-9-9-9-9-9-9-9-9-9-|
D:|-x-x-x-x-x-x-x-x-x-x-x-x-x-x-x-x-x-x-x-x-x-x-x-x-x-x-x-x-x-x-x-x-|
A:|-7-7-7-7-7-7-7-7-7-7-7-7-7-7-7-7-7-7-7-7-7-7-7-7-7-7-7-7-7-7-7-7-|
E:|-----------------------------------------------------------------|

e:|-------------------------------------------------------------------|
B:|-------------------------------------------------------------------|
G:|-6-6-6-6-6-6-6-6/8-8-8-8/9-9-9-9/1313131313131313/1111111111111111-|
D:|-x-x-x-x-x-x-x-x-x-x-x-x-x-x-x-x--x-x-x-x-x-x-x-x--x-x-x-x-x-x-x-x-|
A:|-4-4-4-4-4-4-4-4/6-6-6-6/7-7-7-7/1111111111111111/-9-9-9-9-9-9-9-9-|
E:|-------------------------------------------------------------------|

e:|----------------------------------------------------------------------|
B:|----------------------------------------------------------------------|
G:|-9-9-9-9-9-9-9-9/11111111/13131313/1414141414141414/16161616/14141414-|
D:|-x-x-x-x-x-x-x-x--x-x-x-x--x-x-x-x--x-x-x-x-x-x-x-x--x-x-x-x--x-x-x-x-|
A:|-7-7-7-7-7-7-7-7/-9-9-9-9/11111111/1212121212121212/14141414/12121212-|
E:|----------------------------------------------------------------------|

e:|---------------------------------------------------------------------|
B:|---------------------------------------------------------------------|
G:|-1313131313131313/14141414/13131313/1111111111111111/8-8-8-8-8-8-8-8-|
D:|--x-x-x-x-x-x-x-x--x-x-x-x--x-x-x-x--x-x-x-x-x-x-x-x-x-x-x-x-x-x-x-x-|
A:|-1111111111111111/12121212/11111111/-9-9-9-9-9-9-9-9/6-6-6-6-6-6-6-6-|
E:|---------------------------------------------------------------------|

Outro:

Gtr I

e:|---------------------|-----------------|
B:|---------------------|-----------------|
G:|-6-x-6-6-x-x-6-6-6-6-|-9-x-x-9-x-x-----|
D:|-x-x-x-x-x-x-x-x-x-x-|-x-x-x-x-x-x-----|
A:|-4-x-4-4-x-x-4-4-4-4-|-7-x-x-7-x-x-----|
E:|---------------------|-------------9//-|

Gtr II

e:|---------------------|-----------------|
B:|---------------------|-----------------|
G:|---------------------|-6-x-x-6-x-x-----|
D:|---------------------|-x-x-x-x-x-x-----|
A:|---------------------|-4-x-x-4-x-x-4//-|
E:|---------------------|-----------------|



----------------------
XII: Cemetery Drive
----------------------


Gtr I: Ray Toro: Standard Tuning (e,B,G,D,A,E)
Gtr II: Frank Iero: Standard Tuning (e,B,G,D,A,E)

Verse I Pt I:

Gtr I (Repeat throughout verse)

e:|-----------------------------------------|
B:|-----------------------------------------|
G:|-----------------------------------------|
D:|-2h4-4h6-6h7-7h9-6h7--2h4-4h6-6h7p6------|
A:|------------------------------------9-7~-|
E:|-----------------------------------------|

Gtr II (x2)

e:|-------------------------------------------------------------------|
B:|-------------------------------------------------------------------|
G:|-14141414141414141414141414141414-11111111111111111111111111111111-|
D:|--x-x-x-x-x-x-x-x-x-x-x-x-x-x-x-x--x-x-x-x-x-x-x-x-x-x-x-x-x-x-x-x-|
A:|-12121212121212121212121212121212--9-9-9-9-9-9-9-9-9-9-9-9-9-9-9-9-|
E:|-------------------------------------------------------------------|

e:|-----------------------------------------------------------------------|
B:|-----------------------------------------------------------------------|
G:|-1818181818181818181818181818/20/18-1616161616161616161616161616/18/16-|
D:|--x-x-x-x-x-x-x-x-x-x-x-x-x-x--x--x--x-x-x-x-x-x-x-x-x-x-x-x-x-x--x--x-|
A:|-1616161616161616161616161616/18/16-1414141414141414141414141414/16/14-|
E:|-----------------------------------------------------------------------|

Verse I Pt II:

Gtr I carries on with previous riff

Gtr II (x2)

e:|---------------------------------------------------------|
B:|---------------------------------------------------------|
G:|-11-9-11-9-9h11p9-6-7-6~-11-13-13h14p13-11h13p13-9-11-9~-|
D:|---------------------------------------------------------|
A:|---------------------------------------------------------|
E:|---------------------------------------------------------|

Pre-Chorus:

Both Gtrs

e:|---------------------------------|
B:|---------------------------------|
G:|---------------------------------|
D:|-9-9-9-9-9-9-9-9-9-9-9-9-9-9-9-9-|
A:|-9-9-9-9-9-9-9-9-9-9-9-9-9-9-9-9-|
E:|-7-7-7-7-7-7-7-7-7-7-7-7-7-7-7-7-|
PM  * * * * * * * * * * * * * * * *

Chorus:

Gtr I

e:|-----------------------------------------------------------------|
B:|-----------------------------------------------------------------|
G:|-----------------------------------------------------------------|
D:|-4-4-4-4-4-4-4-4-4-4-4-4-4-4-4-4-2-2-2-2-2-2-2-2-2-2-2-2-2-2-2-2-|
A:|-4-4-4-4-4-4-4-4-4-4-4-4-4-4-4-4-2-2-2-2-2-2-2-2-2-2-2-2-2-2-2-2-|
E:|-2-2-2-2-2-2-2-2-2-2-2-2-2-2-2-2-0-0-0-0-0-0-0-0-0-0-0-0-0-0-0-0-|

e:|-----------------------------------------------------------------|
B:|-----------------------------------------------------------------|
G:|-6-6-6-6-6-6-6-6-6-6-6-6-6-6-6-6-4-4-4-4-4-4-4-4-4-4-4-4-4-4-4-4-|
D:|-6-6-6-6-6-6-6-6-6-6-6-6-6-6-6-6-4-4-4-4-4-4-4-4-4-4-4-4-4-4-4-4-|
A:|-4-4-4-4-4-4-4-4-4-4-4-4-4-4-4-4-2-2-2-2-2-2-2-2-2-2-2-2-2-2-2-2-|
E:|-----------------------------------------------------------------|

e:|-----------------------------------------------------------------|
B:|-----------------------------------------------------------------|
G:|-2-2-2-2-2-2-2-2-2-2-2-2-2-2-2-2---------------------------------|
D:|-2-2-2-2-2-2-2-2-2-2-2-2-2-2-2-2-4-4-4-4-4-4-4-4-4-4-4-4-4-4-4-4-|
A:|-0-0-0-0-0-0-0-0-0-0-0-0-0-0-0-0-4-4-4-4-4-4-4-4-4-4-4-4-4-4-4-4-|
E:|---------------------------------2-2-2-2-2-2-2-2-2-2-2-2-2-2-2-2-|

e:|-----------------------------------------------------------------|
B:|-----------------------------------------------------------------|
G:|-6-6-6-6-6-6-6-6-6-6-6-6-6-6-6-6-4-4-4-4-4-4-4-4-4-4-4-4-4-4-4-4-|
D:|-6-6-6-6-6-6-6-6-6-6-6-6-6-6-6-6-4-4-4-4-4-4-4-4-4-4-4-4-4-4-4-4-|
A:|-4-4-4-4-4-4-4-4-4-4-4-4-4-4-4-4-2-2-2-2-2-2-2-2-2-2-2-2-2-2-2-2-|
E:|-----------------------------------------------------------------|

Gtr II

e:|-----------------------------------------------------------------|
B:|-----------------------------------------------------------------|
G:|-----------------------------------------------------------------|
D:|-4-4-4-4-4-4-4-4-4-4-4-4-4-4-4-4-2-2-2-2-2-2-2-2-2-2-2-2-2-2-2-2-|
A:|-4-4-4-4-4-4-4-4-4-4-4-4-4-4-4-4-2-2-2-2-2-2-2-2-2-2-2-2-2-2-2-2-|
E:|-2-2-2-2-2-2-2-2-2-2-2-2-2-2-2-2-0-0-0-0-0-0-0-0-0-0-0-0-0-0-0-0-|

e:|-----------------------------------------------------------------|
B:|-----------------------------------------------------------------|
G:|-6-6-6-6-6-6-6-6-6-6-6-6-6-6-6-6-4-4-4-4/6-6-6-6/8-8-8-8/9-9-9-9-|
D:|-6-6-6-6-6-6-6-6-6-6-6-6-6-6-6-6-x-x-x-x-x-x-x-x-x-x-x-x-x-x-x-x-|
A:|-4-4-4-4-4-4-4-4-4-4-4-4-4-4-4-4-2-2-2-2/4-4-4-4/6-6-6-6/7-7-7-7-|
E:|-----------------------------------------------------------------|

e:|-----------------------------------------------------------------|
B:|-----------------------------------------------------------------|
G:|-2-2-2-2-2-2-2-2-2-2-2-2-2-2-2-2---------------------------------|
D:|-2-2-2-2-2-2-2-2-2-2-2-2-2-2-2-2-4-4-4-4-4-4-4-4-4-4-4-4-4-4-4-4-|
A:|-0-0-0-0-0-0-0-0-0-0-0-0-0-0-0-0-4-4-4-4-4-4-4-4-4-4-4-4-4-4-4-4-|
E:|---------------------------------2-2-2-2-2-2-2-2-2-2-2-2-2-2-2-2-|

e:|-----------------------------------------------------------------|
B:|-----------------------------------------------------------------|
G:|-6-6-6-6-6-6-6-6-6-6-6-6-6-6-6-6-4-4-4-4/6-6-6-6/8-8-8-8/9-9-9-9-|
D:|-6-6-6-6-6-6-6-6-6-6-6-6-6-6-6-6-x-x-x-x-x-x-x-x-x-x-x-x-x-x-x-x-|
A:|-4-4-4-4-4-4-4-4-4-4-4-4-4-4-4-4-2-2-2-2/4-4-4-4/6-6-6-6/7-7-7-7-|
E:|-----------------------------------------------------------------|

Verse II Pt I:

Just repeat Verse I Pt I

Verse II Pt I:

Gtr I repeats verse I

Gtr II

e:|---------------------------------------|
B:|---------------------------------------|
G:|-14~~-13~~-11~~-9~~-11~~-13/14/13/11~~-|
D:|--x----x----x---x----x----x--x--x--x---|
A:|-12~~-11~~--9~~-7~~--9~~-11/12/12/-9~~-|
E:|---------------------------------------|

e:|--------------------------------|
B:|--------------------------------|
G:|-13-14~~-14/16-13-11~~-9~~-11~~-|
D:|--x--x----x--x--x--x---x----x---|
A:|-11-12~~-12/14-11--9~~-7~~--9~~-|
E:|--------------------------------|

Repeat Pre-Chorus

Repeat Chorus

Bridge:

Both Gtrs

e:|-----------------------------------------------------------------|
B:|-----------------------------------------------------------------|
G:|-----------------------------------------------------------------|
D:|-4-4-4-4-4-4-4-4-4-4-4-4-4-4-4-4-2-2-2-2-2-2-2-2-2-2-2-2-2-2-2-2-|
A:|-4-4-4-4-4-4-4-4-4-4-4-4-4-4-4-4-2-2-2-2-2-2-2-2-2-2-2-2-2-2-2-2-|
E:|-2-2-2-2-2-2-2-2-2-2-2-2-2-2-2-2-0-0-0-0-0-0-0-0-0-0-0-0-0-0-0-0-|
PM    * * * * * * * * * * * * * *     * * * * * * * * * * * * * *

e:|-----------------------------------------------------------------|
B:|-----------------------------------------------------------------|
G:|-6-6-6-6-6-6-6-6-6-6-6-6-6-6-6-6-4-4-4-4-4-4-4-4-4-4-4-4-4-4-4-4-|
D:|-6-6-6-6-6-6-6-6-6-6-6-6-6-6-6-6-4-4-4-4-4-4-4-4-4-4-4-4-4-4-4-4-|
A:|-4-4-4-4-4-4-4-4-4-4-4-4-4-4-4-4-2-2-2-2-2-2-2-2-2-2-2-2-2-2-2-2-|
E:|-----------------------------------------------------------------|
PM    * * * * * * * * * * * * * *     * * * * * * * * * * * * * *

e:|-----------------------------------------------------------------|
B:|-----------------------------------------------------------------|
G:|-2-2-2-2-2-2-2-2-2-2-2-2-2-2-2-2---------------------------------|
D:|-2-2-2-2-2-2-2-2-2-2-2-2-2-2-2-2-4-4-4-4-4-4-4-4-4-4-4-4-4-4-4-4-|
A:|-0-0-0-0-0-0-0-0-0-0-0-0-0-0-0-0-4-4-4-4-4-4-4-4-4-4-4-4-4-4-4-4-|
E:|---------------------------------2-2-2-2-2-2-2-2-2-2-2-2-2-2-2-2-|
PM    * * * * * * * * * * * * * *     * * * * * * * * * * * * * *

e:|-----------------------------------------------------------------|
B:|-----------------------------------------------------------------|
G:|-6-6-6-6-6-6-6-6-6-6-6-6-6-6-6-6-4-4-4-4-4-4-4-4-4-4-4-4-4-4-4-4-|
D:|-6-6-6-6-6-6-6-6-6-6-6-6-6-6-6-6-4-4-4-4-4-4-4-4-4-4-4-4-4-4-4-4-|
A:|-4-4-4-4-4-4-4-4-4-4-4-4-4-4-4-4-2-2-2-2-2-2-2-2-2-2-2-2-2-2-2-2-|
E:|-----------------------------------------------------------------|
PM    * * * * * * * * * * * * * *   * * * * * * * * * * * * * * * *

Repeat Chorus

Final Chorus:

Gtr I (x2)

e:|------------------------------------------------------------------------|
B:|-101010101010/9-9-9-9/5-5-5-5-5-5-5-5-101010101010/9-9-9-9/5-5-5-5-5-5-5|
G:|--x-x-x-x-x-x-x-x-x-x-x-x-x-x-x-x-x-x--x-x-x-x-x-x-x-x-x-x-x-x-x-x-x-x-x|
D:|--7-7-7-7-7-7/6-6-6-6/2-2-2-2-2-2-2-2--7-7-7-7-7-7/6-6-6-6/2-2-2-2-2-2-2|
A:|------------------------------------------------------------------------|
E:|------------------------------------------------------------------------|

e:|-----------------------------------------------------------------|
B:|-4-4-4-4-4-4-4-4/5-5-5-5/4-4-4-4---------------------------------|
G:|-x-x-x-x-x-x-x-x-x-x-x-x-x-x-x-x-7-7-7-7/6-6-6-6/4-4-4-4-4-4-4-4-|
D:|-1-1-1-1-1-1-1-1/2-2-2-2/1-1-1-1-x-x-x-x-x-x-x-x-x-x-x-x-x-x-x-x-|
A:|---------------------------------5-5-5-5/4-4-4-4/2-2-2-2-2-2-2-2-|
E:|-----------------------------------------------------------------|

Gtr II

e:|-----------------------------------------------------------------|
B:|-----------------------------------------------------------------|
G:|-----------------------------------------------------------------|
D:|-4-4-4-4-4-4-4-4-4-4-4-4-4-4-4-4-2-2-2-2-2-2-2-2-2-2-2-2-2-2-2-2-|
A:|-4-4-4-4-4-4-4-4-4-4-4-4-4-4-4-4-2-2-2-2-2-2-2-2-2-2-2-2-2-2-2-2-|
E:|-2-2-2-2-2-2-2-2-2-2-2-2-2-2-2-2-0-0-0-0-0-0-0-0-0-0-0-0-0-0-0-0-|

e:|-----------------------------------------------------------------|
B:|-----------------------------------------------------------------|
G:|-6-6-6-6-6-6-6-6-6-6-6-6-6-6-6-6-4-4-4-4-4-4-4-4-4-4-4-4-4-4-4-4-|
D:|-6-6-6-6-6-6-6-6-6-6-6-6-6-6-6-6-4-4-4-4-4-4-4-4-4-4-4-4-4-4-4-4-|
A:|-4-4-4-4-4-4-4-4-4-4-4-4-4-4-4-4-2-2-2-2-2-2-2-2-2-2-2-2-2-2-2-2-|
E:|-----------------------------------------------------------------|

e:|-----------------------------------------------------------------|
B:|-----------------------------------------------------------------|
G:|-2-2-2-2-2-2-2-2-2-2-2-2-2-2-2-2---------------------------------|
D:|-2-2-2-2-2-2-2-2-2-2-2-2-2-2-2-2-4-4-4-4-4-4-4-4-4-4-4-4-4-4-4-4-|
A:|-0-0-0-0-0-0-0-0-0-0-0-0-0-0-0-0-4-4-4-4-4-4-4-4-4-4-4-4-4-4-4-4-|
E:|---------------------------------2-2-2-2-2-2-2-2-2-2-2-2-2-2-2-2-|

e:|-----------------------------------------------------------------|
B:|-----------------------------------------------------------------|
G:|-6-6-6-6-6-6-6-6-6-6-6-6-6-6-6-6-4-4-4-4-4-4-4-4-4-4-4-4-4-4-4-4-|
D:|-6-6-6-6-6-6-6-6-6-6-6-6-6-6-6-6-4-4-4-4-4-4-4-4-4-4-4-4-4-4-4-4-|
A:|-4-4-4-4-4-4-4-4-4-4-4-4-4-4-4-4-2-2-2-2-2-2-2-2-2-2-2-2-2-2-2-2-|
E:|-----------------------------------------------------------------|

Outro:

Gtr I

e:|------------------<12>--------|
B:|-------------<12>------<12>~~-|
G:|-14~~~~~~~~-------------------|
D:|--x---------------------------|
A:|-12~~~~~~~~-------------------|
E:|------------------------------|

Gtr II

e:|-------------------------------------------------------------------|
B:|-------------------------------------------------------------------|
G:|-14~~~~------------------------------------------------------------|
D:|--X----------------------------------------------------------------|
A:|-12~~~~-12/14--11-9~--7-9~~--14/16/14/12~~--12~-12/14--11-9--7-9~~-|
E:|-------------------------------------------------------------------|

e:|-----------|
B:|-----------|
G:|-----------|
D:|-----------|
A:|-7/5/4/2~~-|
E:|-----------|

End on:

Gtr I

e:|---------|
B:|---------|
G:|---------|
D:|-<7>~~~~-|
A:|---------|
E:|---------|

Gtr II 

e:|--------|
B:|--------|
G:|-14~~~~-|
D:|-x------|
A:|-12~~~~-|
E:|--------|



------------------------------------------------
XIII: I Never Told You What I Do For A Living
------------------------------------------------


Gtr I: Ray Toro: Standard Tuning (e,B,G,D,A,E)
Gtr II: Frank Iero: Standard Tuning (e,B,G,D,A,E)
Gtr III: Ray Toro (Overdubbed): Standard Tuning (e,B,G,D,A,E)


Intro:

Gtr I

e:|-----------------------------------------|
B:|-----------------------------------------|
G:|-----------------------------------------|
D:|-----------------------------------------|
A:|-9~~~~~~~~-7~~~~~~~~-5~~~~~~~~-4~~~~~~~~-|
E:|-7~~~~~~~~-0~~~~~~~~-3~~~~~~~~-2~~~~~~~~-|

Gtr II

e:|--------------------------------------------------|
B:|----------------------------------------7h8p7~----|
G:|--------------------------------------------------|
D:|--------------------------------------------------|
A:|------------------------------------------------/-|
E:|-/////////////Pick Slide\\\\\\\\\\-0~-------------|

Verses:

Gtr I

e:|-----------------------------------------------------|
B:|-----------------------------------------------------|
G:|-----------------------------------------------------|
D:|-----------------------------------------------------|
A:|-9-9-9-9-9-9-9-9-9-9-9-9-9-7-7-7-7-7-7-7-7-7-7-7-7-7-|
E:|-7-7-7-7-7-7-7-7-7-7-7-7-7-0-0-0-0-0-0-0-0-0-0-0-0-0-|
PM  * *   * *   * *   * *     * *   * *   * *   * *

e:|-----------------------------------------------------|
B:|-----------------------------------------------------|
G:|-----------------------------------------------------|
D:|-----------------------------------------------------|
A:|-5-5-5-5-5-5-5-5-5-5-5-5-5-4-4-4-4-4-4-4-4-4-4-4-4-4-|
E:|-3-3-3-3-3-3-3-3-3-3-3-3-3-2-2-2-2-2-2-2-2-2-2-2-2-2-|
PM  * *   * *   * *   * *     * *   * *   * *   * *

e:|-----------------------------------------------------|
B:|-----------------------------------------------------|
G:|-----------------------------------------------------|
D:|-----------------------------------------------------|
A:|-9-9-9-9-9-9-9-9-9-9-9-9-9-7-7-7-7-7-7-7-7-7-7-7-7-7-|
E:|-7-7-7-7-7-7-7-7-7-7-7-7-7-0-0-0-0-0-0-0-0-0-0-0-0-0-|
PM  * *   * *   * *   * *     * *   * *   * *   * *

e:|-----------------------------------------------|
B:|-----------------------------------------------|
G:|-----------------------------------------------|
D:|---------------------------------------4--4--2-|
A:|-5-5-5-5-5-5-5-5-5-5-5-5-5-4-4-4-4-4-4-4--4--2-|
E:|-3-3-3-3-3-3-3-3-3-3-3-3-3-2-2-2-2-2-2-2--2--0-|
PM  * *   * *   * *   * *     * *   * *   *  *  * 

Gtr II

e:|----------------------------------------------------------------|
B:|----------------------------------------------------------------|
G:|----------------------------------------------------------------|
D:|-9-x-x-11-x-x-12-x-x-11-x-x-9-x-x-9-x-x-11-x-x-14-x-x-12-x-x-11-|
A:|-x-x-x--x-x-x--x-x-x--x-x-x-x-x-x-x-x-x--x-x-x--x-x-x--x-x-x--x-|
E:|-7-x-x--9-x-x-10-x-x--9-x-x-7-x-x-7-x-x--9-x-x-12-x-x-10-x-x--9-|

e:|-------------------------------------------------------------------|
B:|-------------------------------------------------------------------|
G:|-x-x-11-x-x-12-x-x-14-x-x-12-x-x-11-x-x-9-x-x-11-x-x-7-x-x-9-x-x-7-|
D:|-x-x--x-x-x--x-x-x--x-x-x--x-x-x--x-x-x-x-x-x--x-x-x-x-x-x-x-x-x-x-|
A:|-x-x--9-x-x-10-x-x-12-x-x-10-x-x--9-x-x-7-x-x--9-x-x-5-x-x-7-x-x-5-|
E:|-------------------------------------------------------------------|

e:|----------------------------------------------------------------|
B:|----------------------------------------------------------------|
G:|----------------------------------------------------------------|
D:|-9-x-x-11-x-x-12-x-x-11-x-x-9-x-x-9-x-x-11-x-x-14-x-x-12-x-x-11-|
A:|-x-x-x--x-x-x--x-x-x--x-x-x-x-x-x-x-x-x--x-x-x--x-x-x--x-x-x--x-|
E:|-7-x-x--9-x-x-10-x-x--9-x-x-7-x-x-7-x-x--9-x-x-12-x-x-10-x-x--9-|

e:|-------------------------------------------------------|
B:|-------------------------------------------------------|
G:|-x-x-11-x-x-12-x-x-14-xx--12-x-x-11-x-x-9/11\9---------|
D:|-x-x--x-x-x--x-x-x--x-x-x--x-x-x--x-x-x-x--x-x-4--4--2-|
A:|-x-x--9-x-x-10-x-x-12-x-x-10-x-x--9-x-x-7/-9\7-4--4--2-|
E:|-----------------------------------------------2--2--0-|
PM                                                *  *  *

Pre-Chorus:

Gtr I (x2)

e:|-----------------------------------------------------------------|
B:|-----------------------------------------------------------------|
G:|-----------------------------------------------------------------|
D:|-----------------------------------------------------------------|
A:|-9-9-9-9-9-9-9-9-9-9-9-9-9-9-9-9-7-7-7-7-7-7-7-7-7-7-7-7-7-7-7-7-|
E:|-7-7-7-7-7-7-7-7-7-7-7-7-7-7-7-7-0-0-0-0-0-0-0-0-0-0-0-0-0-0-0-0-|
PM    * * * * * * * * * * * * * * *   * * * * * * * * * * * * * * *

e:|-------------------------------------------------|
B:|-------------------------------------------------|
G:|-------------------------------------------------|
D:|-------------------------------------------------|
A:|-5-5-5-5-5-5-5-5-5-5-5-5-5-5-5-5-4~--4~--4-4~~~~-|
E:|-3-3-3-3-3-3-3-3-3-3-3-3-3-3-3-3-2~--2~--2-2~~~~-|
PM    * * * * * * * * * * * * * * * 

Gtr II (x2)

e:|--------------------------------------------------------------|
B:|--------------------------------------------------------------|
G:|--------------------------------------------------------7/9/7-|
D:|-------------------------9/11/9-------------------------x-x-x-|
A:|-9-----------------------x--x-x-7-----------------------5/7/5-|
E:|-7-7-7-7-7-7-7-7-7-7-7-7-7/-9/7-0-0-0-0-0-0-0-0-0-0-0-0-------|
PM    * * * * * * * * * * *          * * * * * * * * * * *

e:|------------------------------------------------|
B:|------------------------------------------------|
G:|-------------------------9/11/9-----------------|
D:|-------------------------x--x-x-7/9-11/12/11-12-|
A:|-5-----------------------7/-9/7-x-x--x--x--x--x-|
E:|-3-3-3-3-3-3-3-3-3-3-3-3--------5/7--9/10/-9-10-|
PM    * * * * * * * * * * *

Chorus:

Gtr I

e:|----------------------------------------0~~---------------------|
B:|----------------------------------------3~~---------------------|
G:|--------------------------0-----0-----0-------------------------|
D:|-5~~~~~~~~-4~~~~~~~~----4-----4-----4-------5~~~~~~~~-4~~~~~~~~-|
A:|-5~~~~~~~~-4~~~~~~~~--2-----4-----0---------5~~~~~~~~-4~~~~~~~~-|
E:|-3~~~~~~~~-2~~~~~~~~------------------------3~~~~~~~~-2~~~~~~~~-|

Gtr II

e:|---------------------------------------------<12>~~-|
B:|----------------------------------------<12>--------|
G:|-4~~~~~~~~-6~~~~~~~~--------------------------------|
D:|-x---------x----------------------------------------|
A:|-2~~~~~~~~-4~~~~~~~~--------------------------------|
E:|---------------------7~~~~-9~~~~-10~~~~-------------|

e:|-----------------------|
B:|-----------------------|
G:|-4~~~~~~~~-4/6~~~~-7/9-|
D:|-x---------x-x-----x-x-|
A:|-2~~~~~~~~-2/4~~~~-5/7-|
E:|-----------------------|

Repeat Verse

Repeat Pre-Chorus

Repeat Chorus

After Chorus:

Gtr I (Repeat as many times as necessary)

e:|------------|
B:|------------|
G:|------------|
D:|------------|
A:|-9--9-9-9-9-|
E:|-7--7-7-7-7-|
PM  *  * * * *

Gtr II

e:|----------------------------------------|
B:|-<5>--<7>-------------------------------|
G:|-----------<5>--<7>------------<5>------|
D:|---------------------<9>--<7>-------<7>-|
A:|----------------------------------------|
E:|----------------------------------------|

e:|------------------------------------8^(10)-|
B:|-<5>--<7>----------------------------------|
G:|-----------<5>--<7>------------<5>---------|
D:|---------------------<9>--<7>--------------|
A:|-------------------------------------------|
E:|-------------------------------------------|

Bridge I:

Both Gtr's

e:|------------------------------------------|
B:|------------------------------------------|
G:|------------------------------------------|
D:|-9--9-9-9-9-9--9-9-9-9-9--9-9-9-9-12-11-7-|
A:|-9--9-9-9-9-9--9-9-9-9-9--9-9-9-9-12-11-7-|
E:|-7--7-7-7-7-7--7-7-7-7-7--7-7-7-7-10--9-5-|

e:|----------------------------------------------|
B:|----------------------------------------------|
G:|----------------------------------------------|
D:|-9--9-9-9-9-9--9-9-9-9-9--9-9-9-9-12/14/12/11-|
A:|-9--9-9-9-9-9--9-9-9-9-9--9-9-9-9--x--x--x--x-|
E:|-7--7-7-7-7-7--7-7-7-7-7--7-7-7-7-10/12/10/-9-|

e:|------------------------------------------|
B:|------------------------------------------|
G:|------------------------------------------|
D:|-9--9-9-9-9-9--9-9-9-9-9--9-9-9-9-12-11-7-|
A:|-9--9-9-9-9-9--9-9-9-9-9--9-9-9-9-12-11-7-|
E:|-7--7-7-7-7-7--7-7-7-7-7--7-7-7-7-10--9-5-|

e:|----------------------------------------|
B:|----------------------------------------|
G:|----------------------------------------|
D:|-9--9-9-9-9-9--9-9-9-9-9--9-9-9-9-------|
A:|-9--9-9-9-9-9--9-9-9-9-9--9-9-9-9-2-2-2-|
E:|-7--7-7-7-7-7--7-7-7-7-7--7-7-7-7-0-0-0-|
PM                                   * * *

(And we'll all, dance along)

Gtr I

e:|-------------------------------------------------------------|
B:|-------------------------------------------------------------|
G:|-------------------------------------------------------------|
D:|-5~~~~~~~~-7~~~~~~~~-8~~~~~~~~-9~~~~~~~~-5~~~~~~~~-4~~~~~~~~-|
A:|-5~~~~~~~~-7~~~~~~~~-9~~~~~~~~-9~~~~~~~~-5~~~~~~~~-4~~~~~~~~-|
E:|-3~~~~~~~~-5~~~~~~~~-6~~~~~~~~-7~~~~~~~~-3~~~~~~~~-2~~~~~~~~-|

e:|---------------------0~~-|
B:|---------------------3~~-|
G:|-----0------0------0-----|
D:|---4------4------4-------|
A:|-2------4------0---------|
E:|-------------------------|

Gtr II

e:|--------------------------------------------------------------------|
B:|--------------------------------------------------------------------|
G:|-4~~~~~~~~-6~~~~~~~~-12~~-11~~-9~~~~-11/12/11/9-7~~~~~~~~-6~~~~~~~~-|
D:|-x---------x----------x----x---x------x--x--x-x-x---------x---------|
A:|-2~~~~~~~~-4~~~~~~~~-10~~--9~~-7~~~~--9/10/-9/7-5~~~~~~~~-4~~~~~~~~-|
E:|--------------------------------------------------------------------|

e:|--------------------<12>~~-|
B:|--------------------<12>~~-|
G:|---------------------------|
D:|---------------------------|
A:|---------------------------|
E:|-7~~~~-9~~~~-10~~~~--------|

Bridge II Pt I: (There is a strumming pattern, but you'll have to figure it out yourselves)

Gtr II

e:|------------------------------------------------------|
B:|------------------------------------------------------|
G:|------------------------------------------------------|
D:|------------------------------------------------------|
A:|-171717171717-161616161616-1414141414-12/141414141414-|
E:|------------------------------------------------------|

e:|------------------------------------------------------|
B:|------------------------------------------------------|
G:|------------------------------------------------------|
D:|------------------------------------------------------|
A:|-1717171717-19-161616161616-141414141414-12-14-16-14~-|
E:|------------------------------------------------------|

Bridge II Pt II:

Gtr I

e:|-------------------------------------------------|
B:|-------------------------------------------------|
G:|-------------------------------------------------|
D:|-5-5-5-5-5-5-7-7-7-7-7-7-9-9-9-9-9-9-9-9-9-9-9-9-|
A:|-5-5-5-5-5-5-7-7-7-7-7-7-9-9-9-9-9-9-9-9-9-9-9-9-|
E:|-3-3-3-3-3-3-5-5-5-5-5-5-7-7-7-7-7-7-7-7-7-7-7-7-|
PM  * * * * * * * * * * * * * * * * * * * * * * * *

e:|-------------------------------------------------|
B:|-------------------------------------------------|
G:|-------------------------------------------------|
D:|-5-5-5-5-5-5-7-7-7-7-7-7-9-9-9-9-9-9-9-9-9-9-9-9-|
A:|-5-5-5-5-5-5-7-7-7-7-7-7-9-9-9-9-9-9-9-9-9-9-9-9-|
E:|-3-3-3-3-3-3-5-5-5-5-5-5-7-7-7-7-7-7-7-7-7-7-7-7-|
PM  * * * * * * * * * * * * * * * * * * 

Gtr II

e:|------------------------------------------------------|
B:|------------------------------------------------------|
G:|-191919191919-181818181818-1616161616-14/161616161616-|
D:|--x-x-x-x-x-x--x-x-x-x-x-x--x-x-x-x-x--x--x-x-x-x-x-x-|
A:|-171717171717-161616161616-1414141414-12/141414141414-|
E:|------------------------------------------------------|

e:|--------------------------------------------------------|
B:|--------------------------------------------------------|
G:|-18/19-18/16~--18/19-18/16~--18/19-18/16~--18/19-18/16~-|
D:|--x--x--x--x----x--x--x--x----x--x--x--x----x--x--x--x--|
A:|-16/17-16/14~--16/17-16/14~--16/17-16/14~--16/17-16/14~-|
E:|--------------------------------------------------------|

Outro Pt I:

Gtr I (This is repeated right until the end of the song)

e:|-------------------------------------------------|
B:|-------------------------------------------------|
G:|-------------------------------------------------|
D:|-5-5-5-5-5-5-7-7-7-7-7-7-9-9-9-9-9-9-5-5-5-5-5-5-|
A:|-5-5-5-5-5-5-7-7-7-7-7-7-9-9-9-9-9-9-5-5-5-5-5-5-|
E:|-3-3-3-3-3-3-5-5-5-5-5-5-7-7-7-7-7-7-3-3-3-3-3-3-|
PM  

e:|-------------------------------------------------|
B:|-------------------------------------------------|
G:|-------------------------------------------------|
D:|-5-5-5-5-5-5-7-7-7-7-7-7-9-9-----9-9-----9-9-9-9-|
A:|-5-5-5-5-5-5-7-7-7-7-7-7-9-9-9-9-9-9-9-9-9-9-9-9-|
E:|-3-3-3-3-3-3-5-5-5-5-5-5-7-7-7-7-7-7-7-7-7-7-7-7-|
PM                              * *     * *

Gtr II

e:|-------------------------------------------------|
B:|-------------------------------------------------|
G:|-------------------------------------------------|
D:|-11/12/11/9--11/12/11/9--11/12/11/9--11/12/14/12-|
A:|--x--x--x-x---x--x--x-x---x--x--x-x---x--x--x--x-|
E:|--9/10/-9/7---9/10/-9/7---9/10/-9/7---9/10/12/10-|

e:|-----------------------------------------------------|
B:|-----------------------------------------------------|
G:|-----------------------------------------------------|
D:|-11/12/11/9--11/12/11/9--x-x-9-9-x-x-9-9-x-x-9-9-9-9-|
A:|--x--x--x-x---x--x--x-x--x-x-x-x-x-x-x-x-x-x-x-x-x-x-|
E:|--9/10/-9/7---9/10/-9/7--x-x-7-7-x-x-7-7-x-x-7-7-7-7-|

e:|----------------------------------------------------------------------|
B:|----------------------------------------------------------------------|
G:|----------------------------------------------------------------------|
D:|-11/12121212/14141414/16161616/17171717-19/17-16/17/16/14-12/14/16/14-|
A:|--x--x-x-x-x--x-x-x-x--x-x-x-x--x-x-x-x--x--x--x--x--x--x--x--x--x--x-|
E:|--9/10101010/12121212/14141414/15151515-17/15-14/15/14/12-10/12/14/12-|

e:|----------------------------------------|
B:|----------------------------------------|
G:|----------------------11111111/12121212-|
D:|-11/12121212/14141414--x-x-x-x--x-x-x-x-|
A:|--x--x-x-x-x--x-x-x-x--9-9-9-9/10101010-|
E:|--9/10101010/12121212-------------------|

e:|----------------------------------|
B:|----------------------------------|
G:|-14141414141414141414141414141414-|
D:|--x-x-x-x-x-x-x-x-x-x-x-x-x-x-x-x-|
A:|-12121212121212121212121212121212-|
E:|----------------------------------|

e:|----------------------------------------------------|
B:|----------------------------------------------------|
G:|-1616161616161616/1717171717171717/1919191919191919-|
D:|--x-x-x-x-x-x-x-x--x-x-x-x-x-x-x-x--x-x-x-x-x-x-x-x-|
A:|-1414141414141414/1515151515151515/1717171717171717-|
E:|----------------------------------------------------|

e:|-----------------------------------------------------|
B:|-----------------------------------------------------|
G:|-18/19/18/17~--18/19/18~--1919-x-x-2121-x-x-23232323-|
D:|--x--x--x--x----x--x--x----x-x-x-x--x-x-x-x--x-x-x-x-|
A:|-16/17/16/15~--16/17/16~--1717-x-x-1919-x-x-21212121-|
E:|-----------------------------------------------------|

Outro Pt II:

Gtr I repeats Outro Pt I

Gtr II

e:|----------------------------------------------------|
B:|----------------------------------------------------|
G:|-1616161616161616/1717171717171717/1919191919191919-|
D:|--x-x-x-x-x-x-x-x--x-x-x-x-x-x-x-x--x-x-x-x-x-x-x-x-|
A:|-1414141414141414/1515151515151515/1717171717171717-|
E:|----------------------------------------------------|

e:|--------------------------------------------------------------|
B:|--------------------------------------------------------------|
G:|-1616161616161616/1717171717171717/191919191919/202020/191919-|
D:|--x-x-x-x-x-x-x-x--x-x-x-x-x-x-x-x--x-x-x-x-x-x--x-x-x--x-x-x-|
A:|-1414141414141414/1515151515151515/171717171717/181818/171717-|
E:|--------------------------------------------------------------|

Gtr III

e:|-------17----------15----------14----------12----|
B:|-14h15----15-14h15----15-14h15----15-14h15----15-|
G:|-------------------------------------------------| (x3)
D:|-------------------------------------------------|
A:|-------------------------------------------------|
E:|-------------------------------------------------|

e:|-14^-14^-14^-14^-14^-14^-15^-15^-15^-14^-14^-14^-|
B:|-------------------------------------------------|
G:|-------------------------------------------------|
D:|-------------------------------------------------|
A:|-------------------------------------------------|
E:|-------------------------------------------------|


comments
print report bad tab
46 comments total. Showing first comments. show 1 bad comment
+9 reply
bass_man_dan wrote on December 15 2005, 09:12 am

^ your mum sucks

+7 reply
will_soad_mcr wrote on January 4 2006, 02:48 pm

great tab!i havent checked it all out yet but what ive played rocks!and yeah bass man dan,that guys mum does suck.and my chemical romance dont mother****er.5* for the tab dude.keep it up

I want to post or [tab]
guest
You may want to rate the tab now too:
select rating
Please do not post tabs as comments. Select "correction" instead!